  0
SECTION
  2
HEADER
  9
$ACADVER
  1
AC1027
  9
$ACADMAINTVER
 70
   105
  9
$DWGCODEPAGE
  3
ANSI_1251
  9
$REQUIREDVERSIONS
160
                 0
  9
$INSBASE
 10
0.0
 20
0.0
 30
0.0
  9
$EXTMIN
 10
0.0
 20
0.0
 30
0.0
  9
$EXTMAX
 10
1420.0
 20
1297.0
 30
0.0
  9
$LIMMIN
 10
0.0
 20
0.0
  9
$LIMMAX
 10
1420.0
 20
1297.0
  9
$ORTHOMODE
 70
     0
  9
$REGENMODE
 70
     1
  9
$FILLMODE
 70
     1
  9
$QTEXTMODE
 70
     0
  9
$MIRRTEXT
 70
     1
  9
$LTSCALE
 40
1.0
  9
$ATTMODE
 70
     1
  9
$TEXTSIZE
 40
5.0
  9
$TRACEWID
 40
1.0
  9
$TEXTSTYLE
  7
Standard
  9
$CLAYER
  8
0
  9
$CELTYPE
  6
ByLayer
  9
$CECOLOR
 62
   256
  9
$CELTSCALE
 40
1.0
  9
$DISPSILH
 70
     0
  9
$DIMSCALE
 40
1.0
  9
$DIMASZ
 40
5.0
  9
$DIMEXO
 40
0.0
  9
$DIMDLI
 40
3.75
  9
$DIMRND
 40
0.0
  9
$DIMDLE
 40
0.0
  9
$DIMEXE
 40
1.0
  9
$DIMTP
 40
0.0
  9
$DIMTM
 40
0.0
  9
$DIMTXT
 40
3.5
  9
$DIMCEN
 40
2.5
  9
$DIMTSZ
 40
0.0
  9
$DIMTOL
 70
     0
  9
$DIMLIM
 70
     0
  9
$DIMTIH
 70
     1
  9
$DIMTOH
 70
     1
  9
$DIMSE1
 70
     0
  9
$DIMSE2
 70
     0
  9
$DIMTAD
 70
     1
  9
$DIMZIN
 70
     0
  9
$DIMBLK
  1

  9
$DIMASO
 70
     1
  9
$DIMSHO
 70
     1
  9
$DIMPOST
  1

  9
$DIMAPOST
  1

  9
$DIMALT
 70
     0
  9
$DIMALTD
 70
     3
  9
$DIMALTF
 40
0.0393700787
  9
$DIMLFAC
 40
1.0
  9
$DIMTOFL
 70
     1
  9
$DIMTVP
 40
0.0
  9
$DIMTIX
 70
     0
  9
$DIMSOXD
 70
     0
  9
$DIMSAH
 70
     0
  9
$DIMBLK1
  1

  9
$DIMBLK2
  1

  9
$DIMSTYLE
  2
ISO-25
  9
$DIMCLRD
 70
     0
  9
$DIMCLRE
 70
     0
  9
$DIMCLRT
 70
     0
  9
$DIMTFAC
 40
1.0
  9
$DIMGAP
 40
1.5
  9
$DIMJUST
 70
     0
  9
$DIMSD1
 70
     0
  9
$DIMSD2
 70
     0
  9
$DIMTOLJ
 70
     0
  9
$DIMTZIN
 70
     0
  9
$DIMALTZ
 70
     0
  9
$DIMALTTZ
 70
     0
  9
$DIMUPT
 70
     0
  9
$DIMDEC
 70
     1
  9
$DIMTDEC
 70
     1
  9
$DIMALTU
 70
     2
  9
$DIMALTTD
 70
     3
  9
$DIMTXSTY
  7
Standard
  9
$DIMAUNIT
 70
     0
  9
$DIMADEC
 70
     2
  9
$DIMALTRND
 40
0.0
  9
$DIMAZIN
 70
     0
  9
$DIMDSEP
 70
    44
  9
$DIMATFIT
 70
     3
  9
$DIMFRAC
 70
     0
  9
$DIMLDRBLK
  1

  9
$DIMLUNIT
 70
     2
  9
$DIMLWD
 70
    -2
  9
$DIMLWE
 70
    -2
  9
$DIMTMOVE
 70
     0
  9
$DIMFXL
 40
1.0
  9
$DIMFXLON
 70
     0
  9
$DIMJOGANG
 40
0.7853981634
  9
$DIMTFILL
 70
     0
  9
$DIMTFILLCLR
 70
     0
  9
$DIMARCSYM
 70
     0
  9
$DIMLTYPE
  6

  9
$DIMLTEX1
  6

  9
$DIMLTEX2
  6

  9
$DIMTXTDIRECTION
 70
     0
  9
$LUNITS
 70
     2
  9
$LUPREC
 70
     1
  9
$SKETCHINC
 40
1.0
  9
$FILLETRAD
 40
10.0
  9
$AUNITS
 70
     0
  9
$AUPREC
 70
     2
  9
$MENU
  1
.
  9
$ELEVATION
 40
0.0
  9
$PELEVATION
 40
0.0
  9
$THICKNESS
 40
0.0
  9
$LIMCHECK
 70
     0
  9
$CHAMFERA
 40
0.0
  9
$CHAMFERB
 40
0.0
  9
$CHAMFERC
 40
0.0
  9
$CHAMFERD
 40
0.0
  9
$SKPOLY
 70
     0
  9
$TDCREATE
 40
2459607.583827257
  9
$TDUCREATE
 40
2459607.458827257
  9
$TDUPDATE
 40
2459607.583827905
  9
$TDUUPDATE
 40
2459607.458827905
  9
$TDINDWG
 40
0.0000000116
  9
$TDUSRTIMER
 40
0.0000000116
  9
$USRTIMER
 70
     1
  9
$ANGBASE
 50
0.0
  9
$ANGDIR
 70
     0
  9
$PDMODE
 70
     0
  9
$PDSIZE
 40
-1.0
  9
$PLINEWID
 40
0.0
  9
$SPLFRAME
 70
     0
  9
$SPLINETYPE
 70
     6
  9
$SPLINESEGS
 70
     8
  9
$HANDSEED
  5
40B
  9
$SURFTAB1
 70
     6
  9
$SURFTAB2
 70
     6
  9
$SURFTYPE
 70
     6
  9
$SURFU
 70
     6
  9
$SURFV
 70
     6
  9
$UCSBASE
  2

  9
$UCSNAME
  2

  9
$UCSORG
 10
0.0
 20
0.0
 30
0.0
  9
$UCSXDIR
 10
1.0
 20
0.0
 30
0.0
  9
$UCSYDIR
 10
0.0
 20
1.0
 30
0.0
  9
$UCSORTHOREF
  2

  9
$UCSORTHOVIEW
 70
     0
  9
$UCSORGTOP
 10
0.0
 20
0.0
 30
0.0
  9
$UCSORGBOTTOM
 10
0.0
 20
0.0
 30
0.0
  9
$UCSORGLEFT
 10
0.0
 20
0.0
 30
0.0
  9
$UCSORGRIGHT
 10
0.0
 20
0.0
 30
0.0
  9
$UCSORGFRONT
 10
0.0
 20
0.0
 30
0.0
  9
$UCSORGBACK
 10
0.0
 20
0.0
 30
0.0
  9
$PUCSBASE
  2

  9
$PUCSNAME
  2

  9
$PUCSORG
 10
0.0
 20
0.0
 30
0.0
  9
$PUCSXDIR
 10
1.0
 20
0.0
 30
0.0
  9
$PUCSYDIR
 10
0.0
 20
1.0
 30
0.0
  9
$PUCSORTHOREF
  2

  9
$PUCSORTHOVIEW
 70
     0
  9
$PUCSORGTOP
 10
0.0
 20
0.0
 30
0.0
  9
$PUCSORGBOTTOM
 10
0.0
 20
0.0
 30
0.0
  9
$PUCSORGLEFT
 10
0.0
 20
0.0
 30
0.0
  9
$PUCSORGRIGHT
 10
0.0
 20
0.0
 30
0.0
  9
$PUCSORGFRONT
 10
0.0
 20
0.0
 30
0.0
  9
$PUCSORGBACK
 10
0.0
 20
0.0
 30
0.0
  9
$USERI1
 70
     0
  9
$USERI2
 70
     0
  9
$USERI3
 70
     0
  9
$USERI4
 70
     0
  9
$USERI5
 70
     0
  9
$USERR1
 40
0.0
  9
$USERR2
 40
0.0
  9
$USERR3
 40
0.0
  9
$USERR4
 40
0.0
  9
$USERR5
 40
0.0
  9
$WORLDVIEW
 70
     1
  9
$SHADEDGE
 70
     3
  9
$SHADEDIF
 70
    70
  9
$TILEMODE
 70
     1
  9
$MAXACTVP
 70
    64
  9
$PINSBASE
 10
0.0
 20
0.0
 30
0.0
  9
$PLIMCHECK
 70
     0
  9
$PEXTMIN
 10
1.0000000000E+20
 20
1.0000000000E+20
 30
1.0000000000E+20
  9
$PEXTMAX
 10
-1.0000000000E+20
 20
-1.0000000000E+20
 30
-1.0000000000E+20
  9
$PLIMMIN
 10
0.0
 20
0.0
  9
$PLIMMAX
 10
420.0
 20
297.0
  9
$UNITMODE
 70
     0
  9
$VISRETAIN
 70
     1
  9
$PLINEGEN
 70
     0
  9
$PSLTSCALE
 70
     1
  9
$TREEDEPTH
 70
  3020
  9
$CMLSTYLE
  2
Standard
  9
$CMLJUST
 70
     0
  9
$CMLSCALE
 40
20.0
  9
$PROXYGRAPHICS
 70
     1
  9
$MEASUREMENT
 70
     1
  9
$CELWEIGHT
370
    -1
  9
$ENDCAPS
280
     0
  9
$JOINSTYLE
280
     0
  9
$LWDISPLAY
290
     1
  9
$INSUNITS
 70
     4
  9
$HYPERLINKBASE
  1

  9
$STYLESHEET
  1

  9
$XEDIT
290
     1
  9
$CEPSNTYPE
380
     0
  9
$PSTYLEMODE
290
     1
  9
$FINGERPRINTGUID
  2
{3757BAEB-7EDD-4D7D-BF09-A1766554AD15}
  9
$VERSIONGUID
  2
{FAEB1C32-E019-11D5-929B-00C0DF256EC4}
  9
$EXTNAMES
290
     1
  9
$PSVPSCALE
 40
0.0
  9
$OLESTARTUP
290
     0
  9
$SORTENTS
280
   127
  9
$INDEXCTL
280
     0
  9
$HIDETEXT
280
     1
  9
$XCLIPFRAME
280
     2
  9
$HALOGAP
280
     0
  9
$OBSCOLOR
 70
   257
  9
$OBSLTYPE
280
     0
  9
$INTERSECTIONDISPLAY
280
     0
  9
$INTERSECTIONCOLOR
 70
   257
  9
$DIMASSOC
280
     2
  9
$PROJECTNAME
  1

  9
$CAMERADISPLAY
290
     0
  9
$LENSLENGTH
 40
50.0
  9
$CAMERAHEIGHT
 40
0.0
  9
$STEPSPERSEC
 40
2.0
  9
$STEPSIZE
 40
6.0
  9
$3DDWFPREC
 40
2.0
  9
$PSOLWIDTH
 40
5.0
  9
$PSOLHEIGHT
 40
80.0
  9
$LOFTANG1
 40
1.5707963268
  9
$LOFTANG2
 40
1.5707963268
  9
$LOFTMAG1
 40
0.0
  9
$LOFTMAG2
 40
0.0
  9
$LOFTPARAM
 70
     7
  9
$LOFTNORMALS
280
     1
  9
$LATITUDE
 40
37.795
  9
$LONGITUDE
 40
-122.394
  9
$NORTHDIRECTION
 40
0.0
  9
$TIMEZONE
 70
 -8000
  9
$LIGHTGLYPHDISPLAY
280
     1
  9
$TILEMODELIGHTSYNCH
280
     1
  9
$CMATERIAL
347
44
  9
$SOLIDHIST
280
     0
  9
$SHOWHIST
280
     1
  9
$DWFFRAME
280
     2
  9
$DGNFRAME
280
     2
  9
$REALWORLDSCALE
290
     1
  9
$INTERFERECOLOR
 62
   256
  9
$CSHADOW
280
     0
  9
$SHADOWPLANELOCATION
 40
0.0
  0
ENDSEC
  0
SECTION
  2
CLASSES
  0
CLASS
  1
ACDBDICTIONARYWDFLT
  2
AcDbDictionaryWithDefault
  3
ObjectDBX Classes
 90
        0
 91
        4
280
     0
281
     0
  0
CLASS
  1
VISUALSTYLE
  2
AcDbVisualStyle
  3
ObjectDBX Classes
 90
     4095
 91
        4
280
     0
281
     0
  0
CLASS
  1
MATERIAL
  2
AcDbMaterial
  3
ObjectDBX Classes
 90
     1153
 91
        4
280
     0
281
     0
  0
CLASS
  1
SCALE
  2
AcDbScale
  3
ObjectDBX Classes
 90
     1153
 91
        4
280
     0
281
     0
  0
CLASS
  1
TABLESTYLE
  2
AcDbTableStyle
  3
ObjectDBX Classes
 90
     4095
 91
        4
280
     0
281
     0
  0
CLASS
  1
MLEADERSTYLE
  2
AcDbMLeaderStyle
  3
ACDB_MLEADERSTYLE_CLASS
 90
     4095
 91
        4
280
     0
281
     0
  0
CLASS
  1
SUN
  2
AcDbSun
  3
SCENEOE
 90
     1153
 91
        4
280
     0
281
     0
  0
CLASS
  1
DICTIONARYVAR
  2
AcDbDictionaryVar
  3
ObjectDBX Classes
 90
        0
 91
        4
280
     0
281
     0
  0
CLASS
  1
CELLSTYLEMAP
  2
AcDbCellStyleMap
  3
ObjectDBX Classes
 90
     1152
 91
        4
280
     0
281
     0
  0
ENDSEC
  0
SECTION
  2
TABLES
  0
TABLE
  2
VPORT
  5
8
330
0
100
AcDbSymbolTable
 70
     1
  0
VPORT
  5
29
330
8
100
AcDbSymbolTableRecord
100
AcDbViewportTableRecord
  2
*Active
 70
     0
 10
0.0
 20
0.0
 11
1.0
 21
1.0
 12
710.0
 22
648.5
 13
0.0
 23
0.0
 14
10.0
 24
10.0
 15
10.0
 25
10.0
 16
0.0
 26
0.0
 36
1.0
 17
0.0
 27
0.0
 37
0.0
 40
1297.0
 41
1.0948342328
 42
50.0
 43
0.0
 44
0.0
 50
0.0
 51
0.0
 71
     0
 72
  2000
 73
     1
 74
     3
 75
     0
 76
     0
 77
     0
 78
     0
281
     0
 65
     1
110
0.0
120
0.0
130
0.0
111
1.0
121
0.0
131
0.0
112
0.0
122
1.0
132
0.0
 79
     0
146
0.0
348
2F
 60
     3
 61
     5
292
     1
282
     1
141
0.0
142
0.0
 63
   250
361
6D
  0
ENDTAB
  0
TABLE
  2
LTYPE
  5
5
330
0
100
AcDbSymbolTable
 70
     8
  0
LTYPE
  5
14
330
5
100
AcDbSymbolTableRecord
100
AcDbLinetypeTableRecord
  2
ByBlock
 70
     0
  3

 72
    65
 73
     0
 40
0.0
  0
LTYPE
  5
15
330
5
100
AcDbSymbolTableRecord
100
AcDbLinetypeTableRecord
  2
ByLayer
 70
     0
  3

 72
    65
 73
     0
 40
0.0
  0
LTYPE
  5
16
330
5
100
AcDbSymbolTableRecord
100
AcDbLinetypeTableRecord
  2
Continuous
 70
     0
  3
Solid line
 72
    65
 73
     0
 40
0.0
  0
LTYPE
  5
6E
330
5
100
AcDbSymbolTableRecord
100
AcDbLinetypeTableRecord
  2
SLD-Сплошная
 70
     0
  3
SolidWorks Line Style
 72
    65
 73
     0
 40
0.0
  0
LTYPE
  5
6F
330
5
100
AcDbSymbolTableRecord
100
AcDbLinetypeTableRecord
  2
SLD-Штриховая
 70
     0
  3
SolidWorks Line Style
 72
    65
 73
     2
 40
1.905
 49
1.27
 74
     0
 49
-0.635
 74
     0
  0
LTYPE
  5
70
330
5
100
AcDbSymbolTableRecord
100
AcDbLinetypeTableRecord
  2
SLD-Штрихпункт.-с-двумя-точками
 70
     0
  3
SolidWorks Line Style
 72
    65
 73
     6
 40
12.7
 49
6.35
 74
     0
 49
-1.27
 74
     0
 49
1.27
 74
     0
 49
-1.27
 74
     0
 49
1.27
 74
     0
 49
-1.27
 74
     0
  0
LTYPE
  5
71
330
5
100
AcDbSymbolTableRecord
100
AcDbLinetypeTableRecord
  2
SLD-Штрихпункт.-утолщ.
 70
     0
  3
SolidWorks Line Style
 72
    65
 73
     4
 40
10.16
 49
6.35
 74
     0
 49
-1.27
 74
     0
 49
1.27
 74
     0
 49
-1.27
 74
     0
  0
LTYPE
  5
72
330
5
100
AcDbSymbolTableRecord
100
AcDbLinetypeTableRecord
  2
SLD-Осевая
 70
     0
  3
SolidWorks Line Style
 72
    65
 73
     4
 40
19.05
 49
15.24
 74
     0
 49
-1.27
 74
     0
 49
1.27
 74
     0
 49
-1.27
 74
     0
  0
LTYPE
  5
73
330
5
100
AcDbSymbolTableRecord
100
AcDbLinetypeTableRecord
  2
SLD-Сшитая
 70
     0
  3
SolidWorks Line Style
 72
    65
 73
     2
 40
0.635
 49
0.0
 74
     0
 49
-0.635
 74
     0
  0
LTYPE
  5
74
330
5
100
AcDbSymbolTableRecord
100
AcDbLinetypeTableRecord
  2
SLD-Тонкая-Толстая
 70
     0
  3
SolidWorks Line Style
 72
    65
 73
     2
 40
5.080508
 49
0.000508
 74
     0
 49
-5.08
 74
     0
  0
ENDTAB
  0
TABLE
  2
LAYER
  5
2
330
0
100
AcDbSymbolTable
 70
     5
  0
LAYER
  5
10
330
2
100
AcDbSymbolTableRecord
100
AcDbLayerTableRecord
  2
0
 70
     0
 62
     7
  6
Continuous
370
    -3
390
F
347
46
348
0
  0
LAYER
  5
75
330
2
100
AcDbSymbolTableRecord
100
AcDbLayerTableRecord
  2
ОСНОВНОЙ
 70
     0
 62
   236
  6
SLD-Сплошная
370
    35
390
F
347
46
348
0
  0
LAYER
  5
76
330
2
100
AcDbSymbolTableRecord
100
AcDbLayerTableRecord
  2
HELP
 70
     0
 62
   -57
  6
SLD-Сплошная
290
     0
370
    -3
390
F
347
46
348
0
  0
LAYER
  5
77
330
2
100
AcDbSymbolTableRecord
100
AcDbLayerTableRecord
  2
ТЕКСТ
 70
     0
 62
   150
  6
SLD-Сплошная
370
    -3
390
F
347
46
348
0
  0
LAYER
  5
78
330
2
100
AcDbSymbolTableRecord
100
AcDbLayerTableRecord
  2
ТОНКИЙ
 70
     0
 62
   174
  6
SLD-Сплошная
370
    -3
390
F
347
46
348
0
  0
ENDTAB
  0
TABLE
  2
STYLE
  5
3
330
0
100
AcDbSymbolTable
 70
     1
  0
STYLE
  5
11
330
3
100
AcDbSymbolTableRecord
100
AcDbTextStyleTableRecord
  2
Standard
 70
     0
 40
0.0
 41
1.0
 50
0.0
 71
     0
 42
5.0
  3
txt
  4

  0
ENDTAB
  0
TABLE
  2
VIEW
  5
6
330
0
100
AcDbSymbolTable
 70
     0
  0
ENDTAB
  0
TABLE
  2
UCS
  5
7
330
0
100
AcDbSymbolTable
 70
     0
  0
ENDTAB
  0
TABLE
  2
APPID
  5
9
330
0
100
AcDbSymbolTable
 70
     1
  0
APPID
  5
12
330
9
100
AcDbSymbolTableRecord
100
AcDbRegAppTableRecord
  2
ACAD
 70
     0
  0
ENDTAB
  0
TABLE
  2
DIMSTYLE
  5
A
330
0
100
AcDbSymbolTable
 70
     1
100
AcDbDimStyleTable
  0
DIMSTYLE
105
27
330
A
100
AcDbSymbolTableRecord
100
AcDbDimStyleTableRecord
  2
ISO-25
 70
     0
 41
2.5
 42
0.625
 43
3.75
 44
1.25
 73
     0
 74
     0
 77
     1
 78
     8
140
2.5
141
2.5
143
0.0393700787
147
0.625
171
     3
172
     1
178
     0
271
     2
272
     2
274
     3
278
    44
283
     0
284
     8
340
11
  0
ENDTAB
  0
TABLE
  2
BLOCK_RECORD
  5
1
330
0
100
AcDbSymbolTable
 70
     1
  0
BLOCK_RECORD
  5
1F
330
1
100
AcDbSymbolTableRecord
100
AcDbBlockTableRecord
  2
*Model_Space
340
22
 70
     0
280
     1
281
     0
  0
BLOCK_RECORD
  5
1B
330
1
100
AcDbSymbolTableRecord
100
AcDbBlockTableRecord
  2
*Paper_Space
340
1E
 70
     0
280
     1
281
     0
  0
BLOCK_RECORD
  5
23
330
1
100
AcDbSymbolTableRecord
100
AcDbBlockTableRecord
  2
*Paper_Space0
340
26
 70
     0
280
     1
281
     0
  0
ENDTAB
  0
ENDSEC
  0
SECTION
  2
BLOCKS
  0
BLOCK
  5
20
330
1F
100
AcDbEntity
  8
0
100
AcDbBlockBegin
  2
*Model_Space
 70
     0
 10
0.0
 20
0.0
 30
0.0
  3
*Model_Space
  1

  0
ENDBLK
  5
21
330
1F
100
AcDbEntity
  8
0
100
AcDbBlockEnd
  0
BLOCK
  5
1C
330
1B
100
AcDbEntity
 67
     1
  8
0
100
AcDbBlockBegin
  2
*Paper_Space
 70
     0
 10
0.0
 20
0.0
 30
0.0
  3
*Paper_Space
  1

  0
ENDBLK
  5
1D
330
1B
100
AcDbEntity
 67
     1
  8
0
100
AcDbBlockEnd
  0
BLOCK
  5
24
330
23
100
AcDbEntity
  8
0
100
AcDbBlockBegin
  2
*Paper_Space0
 70
     0
 10
0.0
 20
0.0
 30
0.0
  3
*Paper_Space0
  1

  0
ENDBLK
  5
25
330
23
100
AcDbEntity
  8
0
100
AcDbBlockEnd
  0
ENDSEC
  0
SECTION
  2
ENTITIES
  0
ARC
  5
79
330
1F
100
AcDbEntity
  8
0
  6
SLD-Сплошная
 62
     7
370
    35
100
AcDbCircle
 10
-494.6155456021
 20
300.0323021516
 30
0.0
 40
0.5155456020629003
100
AcDbArc
 50
290.0
 51
90.0
  0
ARC
  5
7A
330
1F
100
AcDbEntity
  8
0
  6
SLD-Сплошная
 62
     7
370
    35
100
AcDbCircle
 10
-505.3844543979
 20
300.0323021516
 30
0.0
 40
0.5155456020629003
100
AcDbArc
 50
90.0
 51
250.0
  0
LINE
  5
7B
330
1F
100
AcDbEntity
  8
0
  6
SLD-Сплошная
 62
     7
370
    35
100
AcDbLine
 10
-505.5607813786
 20
299.5478477536
 30
0.0
 11
-504.2035165934
 21
299.0538437718
 31
0.0
  0
LINE
  5
7C
330
1F
100
AcDbEntity
  8
0
  6
SLD-Сплошная
 62
     7
370
    35
100
AcDbLine
 10
-495.7858830133
 20
299.0577019994
 30
0.0
 11
-494.4392186214
 21
299.5478477536
 31
0.0
  0
ARC
  5
7D
330
1F
100
AcDbEntity
  8
0
  6
SLD-Сплошная
 62
     7
370
    35
100
AcDbCircle
 10
-504.2999705643
 20
298.771148118
 30
0.0
 40
0.2999722757576822
100
AcDbArc
 50
7.7671773654
 51
71.348521204
  0
ARC
  5
7E
330
1F
100
AcDbEntity
  8
0
  6
SLD-Сплошная
 62
     7
370
    35
100
AcDbCircle
 10
-495.7000285543
 20
298.7711582037
 30
0.0
 40
0.2999732357819186
100
AcDbArc
 50
107.300956313
 51
172.2622239196
  0
ARC
  5
7F
330
1F
100
AcDbEntity
  8
0
  6
SLD-Сплошная
 62
     7
370
    35
100
AcDbCircle
 10
-94.6155456021
 20
300.0323021516
 30
0.0
 40
0.5155456020629003
100
AcDbArc
 50
290.0
 51
90.0
  0
ARC
  5
80
330
1F
100
AcDbEntity
  8
0
  6
SLD-Сплошная
 62
     7
370
    35
100
AcDbCircle
 10
-105.3844543979
 20
300.0323021516
 30
0.0
 40
0.5155456020629003
100
AcDbArc
 50
90.0
 51
250.0
  0
LINE
  5
81
330
1F
100
AcDbEntity
  8
0
  6
SLD-Сплошная
 62
     7
370
    35
100
AcDbLine
 10
-105.5607813786
 20
299.5478477536
 30
0.0
 11
-104.2035165934
 21
299.0538437718
 31
0.0
  0
LINE
  5
82
330
1F
100
AcDbEntity
  8
0
  6
SLD-Сплошная
 62
     7
370
    35
100
AcDbLine
 10
-95.7858830133
 20
299.0577019994
 30
0.0
 11
-94.4392186214
 21
299.5478477536
 31
0.0
  0
ARC
  5
83
330
1F
100
AcDbEntity
  8
0
  6
SLD-Сплошная
 62
     7
370
    35
100
AcDbCircle
 10
-104.2999705643
 20
298.771148118
 30
0.0
 40
0.2999722757574817
100
AcDbArc
 50
7.7671773653
 51
71.348521204
  0
ARC
  5
84
330
1F
100
AcDbEntity
  8
0
  6
SLD-Сплошная
 62
     7
370
    35
100
AcDbCircle
 10
-95.7000285543
 20
298.7711582037
 30
0.0
 40
0.299973235781692
100
AcDbArc
 50
107.300956313
 51
172.2622239196
  0
ARC
  5
85
330
1F
100
AcDbEntity
  8
0
  6
SLD-Сплошная
 62
     7
370
    35
100
AcDbCircle
 10
505.3844543979
 20
300.0323021516
 30
0.0
 40
0.5155456020629003
100
AcDbArc
 50
290.0
 51
90.0
  0
ARC
  5
86
330
1F
100
AcDbEntity
  8
0
  6
SLD-Сплошная
 62
     7
370
    35
100
AcDbCircle
 10
494.6155456021
 20
300.0323021516
 30
0.0
 40
0.5155456020629003
100
AcDbArc
 50
90.0
 51
250.0
  0
LINE
  5
87
330
1F
100
AcDbEntity
  8
0
  6
SLD-Сплошная
 62
     7
370
    35
100
AcDbLine
 10
494.4392186214
 20
299.5478477536
 30
0.0
 11
495.7964834066
 21
299.0538437718
 31
0.0
  0
LINE
  5
88
330
1F
100
AcDbEntity
  8
0
  6
SLD-Сплошная
 62
     7
370
    35
100
AcDbLine
 10
504.2141169867
 20
299.0577019994
 30
0.0
 11
505.5607813786
 21
299.5478477536
 31
0.0
  0
ARC
  5
89
330
1F
100
AcDbEntity
  8
0
  6
SLD-Сплошная
 62
     7
370
    35
100
AcDbCircle
 10
495.7000294357
 20
298.771148118
 30
0.0
 40
0.2999722757576822
100
AcDbArc
 50
7.7671773654
 51
71.348521204
  0
ARC
  5
8A
330
1F
100
AcDbEntity
  8
0
  6
SLD-Сплошная
 62
     7
370
    35
100
AcDbCircle
 10
504.2999714457
 20
298.7711582037
 30
0.0
 40
0.2999732357821028
100
AcDbArc
 50
107.300956313
 51
172.2622239196
  0
ARC
  5
8B
330
1F
100
AcDbEntity
  8
0
  6
SLD-Сплошная
 62
     7
370
    35
100
AcDbCircle
 10
305.3844543979
 20
300.0323021516
 30
0.0
 40
0.5155456020629003
100
AcDbArc
 50
290.0
 51
90.0
  0
ARC
  5
8C
330
1F
100
AcDbEntity
  8
0
  6
SLD-Сплошная
 62
     7
370
    35
100
AcDbCircle
 10
294.6155456021
 20
300.0323021516
 30
0.0
 40
0.5155456020629003
100
AcDbArc
 50
90.0
 51
250.0
  0
LINE
  5
8D
330
1F
100
AcDbEntity
  8
0
  6
SLD-Сплошная
 62
     7
370
    35
100
AcDbLine
 10
294.4392186214
 20
299.5478477536
 30
0.0
 11
295.7964834066
 21
299.0538437718
 31
0.0
  0
LINE
  5
8E
330
1F
100
AcDbEntity
  8
0
  6
SLD-Сплошная
 62
     7
370
    35
100
AcDbLine
 10
304.2141169867
 20
299.0577019994
 30
0.0
 11
305.5607813786
 21
299.5478477536
 31
0.0
  0
ARC
  5
8F
330
1F
100
AcDbEntity
  8
0
  6
SLD-Сплошная
 62
     7
370
    35
100
AcDbCircle
 10
295.7000294357
 20
298.771148118
 30
0.0
 40
0.2999722757576076
100
AcDbArc
 50
7.7671773654
 51
71.348521204
  0
ARC
  5
90
330
1F
100
AcDbEntity
  8
0
  6
SLD-Сплошная
 62
     7
370
    35
100
AcDbCircle
 10
304.2999714457
 20
298.7711582037
 30
0.0
 40
0.2999732357819902
100
AcDbArc
 50
107.300956313
 51
172.2622239196
  0
ARC
  5
91
330
1F
100
AcDbEntity
  8
0
  6
SLD-Сплошная
 62
     7
370
    35
100
AcDbCircle
 10
105.3844543979
 20
300.0323021516
 30
0.0
 40
0.5155456020629003
100
AcDbArc
 50
290.0
 51
90.0
  0
ARC
  5
92
330
1F
100
AcDbEntity
  8
0
  6
SLD-Сплошная
 62
     7
370
    35
100
AcDbCircle
 10
94.6155456021
 20
300.0323021516
 30
0.0
 40
0.5155456020629003
100
AcDbArc
 50
90.0
 51
250.0
  0
LINE
  5
93
330
1F
100
AcDbEntity
  8
0
  6
SLD-Сплошная
 62
     7
370
    35
100
AcDbLine
 10
94.4392186214
 20
299.5478477536
 30
0.0
 11
95.7964834066
 21
299.0538437718
 31
0.0
  0
LINE
  5
94
330
1F
100
AcDbEntity
  8
0
  6
SLD-Сплошная
 62
     7
370
    35
100
AcDbLine
 10
104.2141169867
 20
299.0577019994
 30
0.0
 11
105.5607813786
 21
299.5478477536
 31
0.0
  0
ARC
  5
95
330
1F
100
AcDbEntity
  8
0
  6
SLD-Сплошная
 62
     7
370
    35
100
AcDbCircle
 10
95.7000294357
 20
298.771148118
 30
0.0
 40
0.2999722757574999
100
AcDbArc
 50
7.7671773653
 51
71.348521204
  0
ARC
  5
96
330
1F
100
AcDbEntity
  8
0
  6
SLD-Сплошная
 62
     7
370
    35
100
AcDbCircle
 10
104.2999714457
 20
298.7711582037
 30
0.0
 40
0.2999732357816061
100
AcDbArc
 50
107.300956313
 51
172.2622239196
  0
ARC
  5
97
330
1F
100
AcDbEntity
  8
0
  6
SLD-Сплошная
 62
     7
370
    35
100
AcDbCircle
 10
-294.6155456021
 20
300.0323021516
 30
0.0
 40
0.5155456020629003
100
AcDbArc
 50
290.0
 51
90.0
  0
ARC
  5
98
330
1F
100
AcDbEntity
  8
0
  6
SLD-Сплошная
 62
     7
370
    35
100
AcDbCircle
 10
-305.3844543979
 20
300.0323021516
 30
0.0
 40
0.5155456020629003
100
AcDbArc
 50
90.0
 51
250.0
  0
LINE
  5
99
330
1F
100
AcDbEntity
  8
0
  6
SLD-Сплошная
 62
     7
370
    35
100
AcDbLine
 10
-305.5607813786
 20
299.5478477536
 30
0.0
 11
-304.2035165934
 21
299.0538437718
 31
0.0
  0
LINE
  5
9A
330
1F
100
AcDbEntity
  8
0
  6
SLD-Сплошная
 62
     7
370
    35
100
AcDbLine
 10
-295.7858830133
 20
299.0577019994
 30
0.0
 11
-294.4392186214
 21
299.5478477536
 31
0.0
  0
ARC
  5
9B
330
1F
100
AcDbEntity
  8
0
  6
SLD-Сплошная
 62
     7
370
    35
100
AcDbCircle
 10
-304.2999705643
 20
298.771148118
 30
0.0
 40
0.2999722757574979
100
AcDbArc
 50
7.7671773653
 51
71.348521204
  0
ARC
  5
9C
330
1F
100
AcDbEntity
  8
0
  6
SLD-Сплошная
 62
     7
370
    35
100
AcDbCircle
 10
-295.7000285543
 20
298.7711582037
 30
0.0
 40
0.2999732357818622
100
AcDbArc
 50
107.300956313
 51
172.2622239196
  0
ARC
  5
9D
330
1F
100
AcDbEntity
  8
0
  6
SLD-Сплошная
 62
     7
370
    35
100
AcDbCircle
 10
-505.4
 20
303.4478477536
 30
0.0
 40
0.5000000000000484
100
AcDbArc
 50
110.0
 51
270.0
  0
ARC
  5
9E
330
1F
100
AcDbEntity
  8
0
  6
SLD-Сплошная
 62
     7
370
    35
100
AcDbCircle
 10
-494.6
 20
303.4478477536
 30
0.0
 40
0.500000000000029
100
AcDbArc
 50
270.0
 51
70.0
  0
LINE
  5
9F
330
1F
100
AcDbEntity
  8
0
  6
SLD-Сплошная
 62
     7
370
    35
100
AcDbLine
 10
-494.4289899283
 20
303.917694064
 30
0.0
 11
-495.5506015249
 21
304.3259272996
 31
0.0
  0
LINE
  5
A0
330
1F
100
AcDbEntity
  8
0
  6
SLD-Сплошная
 62
     7
370
    35
100
AcDbLine
 10
-504.6421692029
 20
304.2557644926
 30
0.0
 11
-505.5710100717
 21
303.917694064
 31
0.0
  0
LINE
  5
A1
330
1F
100
AcDbEntity
  8
0
  6
SLD-Сплошная
 62
     7
370
    35
100
AcDbLine
 10
-502.5
 20
295.5478477536
 30
0.0
 11
-502.5
 21
291.3928477536
 31
0.0
  0
LINE
  5
A2
330
1F
100
AcDbEntity
  8
0
  6
SLD-Сплошная
 62
     7
370
    35
100
AcDbLine
 10
-497.5
 20
291.3928477536
 30
0.0
 11
-497.5
 21
295.5478477536
 31
0.0
  0
LINE
  5
A3
330
1F
100
AcDbEntity
  8
0
  6
SLD-Сплошная
 62
     7
370
    35
100
AcDbLine
 10
-502.5
 20
291.3928477536
 30
0.0
 11
-502.055
 21
290.9478477536
 31
0.0
  0
LINE
  5
A4
330
1F
100
AcDbEntity
  8
0
  6
SLD-Сплошная
 62
     7
370
    35
100
AcDbLine
 10
-497.945
 20
290.9478477536
 30
0.0
 11
-497.5
 21
291.3928477536
 31
0.0
  0
LINE
  5
A5
330
1F
100
AcDbEntity
  8
0
  6
SLD-Сплошная
 62
     7
370
    35
100
AcDbLine
 10
-504.0
 20
308.3478477536
 30
0.0
 11
-504.2529320993
 21
308.201817338
 31
0.0
  0
LINE
  5
A6
330
1F
100
AcDbEntity
  8
0
  6
SLD-Сплошная
 62
     7
370
    35
100
AcDbLine
 10
-495.7470679007
 20
308.201817338
 30
0.0
 11
-496.0
 21
308.3478477536
 31
0.0
  0
ARC
  5
A7
330
1F
100
AcDbEntity
  8
0
  6
SLD-Сплошная
 62
     7
370
    35
100
AcDbCircle
 10
94.6
 20
303.4478477536
 30
0.0
 40
0.500000000000029
100
AcDbArc
 50
110.0
 51
270.0
  0
ARC
  5
A8
330
1F
100
AcDbEntity
  8
0
  6
SLD-Сплошная
 62
     7
370
    35
100
AcDbCircle
 10
105.4
 20
303.4478477536
 30
0.0
 40
0.5000000000000484
100
AcDbArc
 50
270.0
 51
70.0
  0
LINE
  5
A9
330
1F
100
AcDbEntity
  8
0
  6
SLD-Сплошная
 62
     7
370
    35
100
AcDbLine
 10
105.5710100717
 20
303.917694064
 30
0.0
 11
104.4493984751
 21
304.3259272996
 31
0.0
  0
LINE
  5
AA
330
1F
100
AcDbEntity
  8
0
  6
SLD-Сплошная
 62
     7
370
    35
100
AcDbLine
 10
95.3578307971
 20
304.2557644926
 30
0.0
 11
94.4289899283
 21
303.917694064
 31
0.0
  0
LINE
  5
AB
330
1F
100
AcDbEntity
  8
0
  6
SLD-Сплошная
 62
     7
370
    35
100
AcDbLine
 10
97.5
 20
295.5478477536
 30
0.0
 11
97.5
 21
291.3928477536
 31
0.0
  0
LINE
  5
AC
330
1F
100
AcDbEntity
  8
0
  6
SLD-Сплошная
 62
     7
370
    35
100
AcDbLine
 10
102.5
 20
291.3928477536
 30
0.0
 11
102.5
 21
295.5478477536
 31
0.0
  0
LINE
  5
AD
330
1F
100
AcDbEntity
  8
0
  6
SLD-Сплошная
 62
     7
370
    35
100
AcDbLine
 10
97.5
 20
291.3928477536
 30
0.0
 11
97.945
 21
290.9478477536
 31
0.0
  0
LINE
  5
AE
330
1F
100
AcDbEntity
  8
0
  6
SLD-Сплошная
 62
     7
370
    35
100
AcDbLine
 10
102.055
 20
290.9478477536
 30
0.0
 11
102.5
 21
291.3928477536
 31
0.0
  0
LINE
  5
AF
330
1F
100
AcDbEntity
  8
0
  6
SLD-Сплошная
 62
     7
370
    35
100
AcDbLine
 10
96.0
 20
308.3478477536
 30
0.0
 11
95.7470679007
 21
308.201817338
 31
0.0
  0
LINE
  5
B0
330
1F
100
AcDbEntity
  8
0
  6
SLD-Сплошная
 62
     7
370
    35
100
AcDbLine
 10
104.2529320993
 20
308.201817338
 30
0.0
 11
104.0
 21
308.3478477536
 31
0.0
  0
ARC
  5
B1
330
1F
100
AcDbEntity
  8
0
  6
SLD-Сплошная
 62
     7
370
    35
100
AcDbCircle
 10
-105.4
 20
303.4478477536
 30
0.0
 40
0.5000000000000339
100
AcDbArc
 50
110.0
 51
270.0
  0
ARC
  5
B2
330
1F
100
AcDbEntity
  8
0
  6
SLD-Сплошная
 62
     7
370
    35
100
AcDbCircle
 10
-94.6
 20
303.4478477536
 30
0.0
 40
0.5000000000000339
100
AcDbArc
 50
270.0
 51
70.0
  0
LINE
  5
B3
330
1F
100
AcDbEntity
  8
0
  6
SLD-Сплошная
 62
     7
370
    35
100
AcDbLine
 10
-94.4289899283
 20
303.917694064
 30
0.0
 11
-95.5506015249
 21
304.3259272996
 31
0.0
  0
LINE
  5
B4
330
1F
100
AcDbEntity
  8
0
  6
SLD-Сплошная
 62
     7
370
    35
100
AcDbLine
 10
-104.6421692029
 20
304.2557644926
 30
0.0
 11
-105.5710100717
 21
303.917694064
 31
0.0
  0
LINE
  5
B5
330
1F
100
AcDbEntity
  8
0
  6
SLD-Сплошная
 62
     7
370
    35
100
AcDbLine
 10
-102.5
 20
295.5478477536
 30
0.0
 11
-102.5
 21
291.3928477536
 31
0.0
  0
LINE
  5
B6
330
1F
100
AcDbEntity
  8
0
  6
SLD-Сплошная
 62
     7
370
    35
100
AcDbLine
 10
-97.5
 20
291.3928477536
 30
0.0
 11
-97.5
 21
295.5478477536
 31
0.0
  0
LINE
  5
B7
330
1F
100
AcDbEntity
  8
0
  6
SLD-Сплошная
 62
     7
370
    35
100
AcDbLine
 10
-102.5
 20
291.3928477536
 30
0.0
 11
-102.055
 21
290.9478477536
 31
0.0
  0
LINE
  5
B8
330
1F
100
AcDbEntity
  8
0
  6
SLD-Сплошная
 62
     7
370
    35
100
AcDbLine
 10
-97.945
 20
290.9478477536
 30
0.0
 11
-97.5
 21
291.3928477536
 31
0.0
  0
LINE
  5
B9
330
1F
100
AcDbEntity
  8
0
  6
SLD-Сплошная
 62
     7
370
    35
100
AcDbLine
 10
-104.0
 20
308.3478477536
 30
0.0
 11
-104.2529320993
 21
308.201817338
 31
0.0
  0
LINE
  5
BA
330
1F
100
AcDbEntity
  8
0
  6
SLD-Сплошная
 62
     7
370
    35
100
AcDbLine
 10
-95.7470679007
 20
308.201817338
 30
0.0
 11
-96.0
 21
308.3478477536
 31
0.0
  0
ARC
  5
BB
330
1F
100
AcDbEntity
  8
0
  6
SLD-Сплошная
 62
     7
370
    35
100
AcDbCircle
 10
494.6
 20
303.4478477536
 30
0.0
 40
0.5000000000000484
100
AcDbArc
 50
110.0
 51
270.0
  0
ARC
  5
BC
330
1F
100
AcDbEntity
  8
0
  6
SLD-Сплошная
 62
     7
370
    35
100
AcDbCircle
 10
505.4
 20
303.4478477536
 30
0.0
 40
0.5000000000000484
100
AcDbArc
 50
270.0
 51
70.0
  0
LINE
  5
BD
330
1F
100
AcDbEntity
  8
0
  6
SLD-Сплошная
 62
     7
370
    35
100
AcDbLine
 10
505.5710100717
 20
303.917694064
 30
0.0
 11
504.4493984751
 21
304.3259272996
 31
0.0
  0
LINE
  5
BE
330
1F
100
AcDbEntity
  8
0
  6
SLD-Сплошная
 62
     7
370
    35
100
AcDbLine
 10
495.3578307971
 20
304.2557644926
 30
0.0
 11
494.4289899283
 21
303.917694064
 31
0.0
  0
LINE
  5
BF
330
1F
100
AcDbEntity
  8
0
  6
SLD-Сплошная
 62
     7
370
    35
100
AcDbLine
 10
497.5
 20
295.5478477536
 30
0.0
 11
497.5
 21
291.3928477536
 31
0.0
  0
LINE
  5
C0
330
1F
100
AcDbEntity
  8
0
  6
SLD-Сплошная
 62
     7
370
    35
100
AcDbLine
 10
502.5
 20
291.3928477536
 30
0.0
 11
502.5
 21
295.5478477536
 31
0.0
  0
LINE
  5
C1
330
1F
100
AcDbEntity
  8
0
  6
SLD-Сплошная
 62
     7
370
    35
100
AcDbLine
 10
497.5
 20
291.3928477536
 30
0.0
 11
497.945
 21
290.9478477536
 31
0.0
  0
LINE
  5
C2
330
1F
100
AcDbEntity
  8
0
  6
SLD-Сплошная
 62
     7
370
    35
100
AcDbLine
 10
502.055
 20
290.9478477536
 30
0.0
 11
502.5
 21
291.3928477536
 31
0.0
  0
LINE
  5
C3
330
1F
100
AcDbEntity
  8
0
  6
SLD-Сплошная
 62
     7
370
    35
100
AcDbLine
 10
496.0
 20
308.3478477536
 30
0.0
 11
495.7470679007
 21
308.201817338
 31
0.0
  0
LINE
  5
C4
330
1F
100
AcDbEntity
  8
0
  6
SLD-Сплошная
 62
     7
370
    35
100
AcDbLine
 10
504.2529320993
 20
308.201817338
 30
0.0
 11
504.0
 21
308.3478477536
 31
0.0
  0
ARC
  5
C5
330
1F
100
AcDbEntity
  8
0
  6
SLD-Сплошная
 62
     7
370
    35
100
AcDbCircle
 10
294.6
 20
303.4478477536
 30
0.0
 40
0.5000000000000484
100
AcDbArc
 50
110.0
 51
270.0
  0
ARC
  5
C6
330
1F
100
AcDbEntity
  8
0
  6
SLD-Сплошная
 62
     7
370
    35
100
AcDbCircle
 10
305.4
 20
303.4478477536
 30
0.0
 40
0.5000000000000484
100
AcDbArc
 50
270.0
 51
70.0
  0
LINE
  5
C7
330
1F
100
AcDbEntity
  8
0
  6
SLD-Сплошная
 62
     7
370
    35
100
AcDbLine
 10
305.5710100717
 20
303.917694064
 30
0.0
 11
304.4493984751
 21
304.3259272996
 31
0.0
  0
LINE
  5
C8
330
1F
100
AcDbEntity
  8
0
  6
SLD-Сплошная
 62
     7
370
    35
100
AcDbLine
 10
295.3578307971
 20
304.2557644926
 30
0.0
 11
294.4289899283
 21
303.917694064
 31
0.0
  0
LINE
  5
C9
330
1F
100
AcDbEntity
  8
0
  6
SLD-Сплошная
 62
     7
370
    35
100
AcDbLine
 10
297.5
 20
291.3928477536
 30
0.0
 11
297.945
 21
290.9478477536
 31
0.0
  0
LINE
  5
CA
330
1F
100
AcDbEntity
  8
0
  6
SLD-Сплошная
 62
     7
370
    35
100
AcDbLine
 10
302.055
 20
290.9478477536
 30
0.0
 11
302.5
 21
291.3928477536
 31
0.0
  0
LINE
  5
CB
330
1F
100
AcDbEntity
  8
0
  6
SLD-Сплошная
 62
     7
370
    35
100
AcDbLine
 10
297.5
 20
295.5478477536
 30
0.0
 11
297.5
 21
291.3928477536
 31
0.0
  0
LINE
  5
CC
330
1F
100
AcDbEntity
  8
0
  6
SLD-Сплошная
 62
     7
370
    35
100
AcDbLine
 10
302.5
 20
291.3928477536
 30
0.0
 11
302.5
 21
295.5478477536
 31
0.0
  0
LINE
  5
CD
330
1F
100
AcDbEntity
  8
0
  6
SLD-Сплошная
 62
     7
370
    35
100
AcDbLine
 10
296.0
 20
308.3478477536
 30
0.0
 11
295.7470679007
 21
308.201817338
 31
0.0
  0
LINE
  5
CE
330
1F
100
AcDbEntity
  8
0
  6
SLD-Сплошная
 62
     7
370
    35
100
AcDbLine
 10
304.2529320993
 20
308.201817338
 30
0.0
 11
304.0
 21
308.3478477536
 31
0.0
  0
ARC
  5
CF
330
1F
100
AcDbEntity
  8
0
  6
SLD-Сплошная
 62
     7
370
    35
100
AcDbCircle
 10
-305.4
 20
303.4478477536
 30
0.0
 40
0.500000000000029
100
AcDbArc
 50
110.0
 51
270.0
  0
ARC
  5
D0
330
1F
100
AcDbEntity
  8
0
  6
SLD-Сплошная
 62
     7
370
    35
100
AcDbCircle
 10
-294.6
 20
303.4478477536
 30
0.0
 40
0.500000000000029
100
AcDbArc
 50
270.0
 51
70.0
  0
LINE
  5
D1
330
1F
100
AcDbEntity
  8
0
  6
SLD-Сплошная
 62
     7
370
    35
100
AcDbLine
 10
-294.4289899283
 20
303.917694064
 30
0.0
 11
-295.5506015249
 21
304.3259272996
 31
0.0
  0
LINE
  5
D2
330
1F
100
AcDbEntity
  8
0
  6
SLD-Сплошная
 62
     7
370
    35
100
AcDbLine
 10
-304.6421692029
 20
304.2557644926
 30
0.0
 11
-305.5710100717
 21
303.917694064
 31
0.0
  0
LINE
  5
D3
330
1F
100
AcDbEntity
  8
0
  6
SLD-Сплошная
 62
     7
370
    35
100
AcDbLine
 10
-302.5
 20
291.3928477536
 30
0.0
 11
-302.055
 21
290.9478477536
 31
0.0
  0
LINE
  5
D4
330
1F
100
AcDbEntity
  8
0
  6
SLD-Сплошная
 62
     7
370
    35
100
AcDbLine
 10
-297.945
 20
290.9478477536
 30
0.0
 11
-297.5
 21
291.3928477536
 31
0.0
  0
LINE
  5
D5
330
1F
100
AcDbEntity
  8
0
  6
SLD-Сплошная
 62
     7
370
    35
100
AcDbLine
 10
-302.5
 20
295.5478477536
 30
0.0
 11
-302.5
 21
291.3928477536
 31
0.0
  0
LINE
  5
D6
330
1F
100
AcDbEntity
  8
0
  6
SLD-Сплошная
 62
     7
370
    35
100
AcDbLine
 10
-297.5
 20
291.3928477536
 30
0.0
 11
-297.5
 21
295.5478477536
 31
0.0
  0
LINE
  5
D7
330
1F
100
AcDbEntity
  8
0
  6
SLD-Сплошная
 62
     7
370
    35
100
AcDbLine
 10
-304.0
 20
308.3478477536
 30
0.0
 11
-304.2529320993
 21
308.201817338
 31
0.0
  0
LINE
  5
D8
330
1F
100
AcDbEntity
  8
0
  6
SLD-Сплошная
 62
     7
370
    35
100
AcDbLine
 10
-295.7470679007
 20
308.201817338
 30
0.0
 11
-296.0
 21
308.3478477536
 31
0.0
  0
LINE
  5
D9
330
1F
100
AcDbEntity
  8
0
  6
SLD-Сплошная
 62
     7
370
    35
100
AcDbLine
 10
582.4090914783
 20
301.7478477536
 30
0.0
 11
-582.4090914783
 21
301.7478477536
 31
0.0
  0
LINE
  5
DA
330
1F
100
AcDbEntity
  8
0
  6
SLD-Сплошная
 62
     7
370
    35
100
AcDbLine
 10
582.4090914783
 20
300.5478477536
 30
0.0
 11
-582.4090914783
 21
300.5478477536
 31
0.0
  0
LINE
  5
DB
330
1F
100
AcDbEntity
  8
0
  6
SLD-Сплошная
 62
     7
370
    35
100
AcDbLine
 10
-587.4090914783
 20
300.5478477536
 30
0.0
 11
-587.4090914783
 21
301.7478477536
 31
0.0
  0
LINE
  5
DC
330
1F
100
AcDbEntity
  8
0
  6
SLD-Сплошная
 62
     7
370
    35
100
AcDbLine
 10
-582.4090914783
 20
300.5478477536
 30
0.0
 11
-587.4090914783
 21
300.5478477536
 31
0.0
  0
LINE
  5
DD
330
1F
100
AcDbEntity
  8
0
  6
SLD-Сплошная
 62
     7
370
    35
100
AcDbLine
 10
587.4090914783
 20
301.7478477536
 30
0.0
 11
587.4090914783
 21
300.5478477536
 31
0.0
  0
LINE
  5
DE
330
1F
100
AcDbEntity
  8
0
  6
SLD-Сплошная
 62
     7
370
    35
100
AcDbLine
 10
587.4090914783
 20
300.5478477536
 30
0.0
 11
582.4090914783
 21
300.5478477536
 31
0.0
  0
CIRCLE
  5
DF
330
1F
100
AcDbEntity
  8
0
  6
SLD-Сплошная
 62
     7
370
    35
100
AcDbCircle
 10
0.0
 20
-499.0521522464
 30
0.0
 40
2.049999999999955
  0
LINE
  5
E0
330
1F
100
AcDbEntity
  8
0
  6
SLD-Сплошная
 62
     7
370
    35
100
AcDbLine
 10
-587.4090914783
 20
300.5478477536
 30
0.0
 11
-587.4090914783
 21
299.5478477536
 31
0.0
  0
LINE
  5
E1
330
1F
100
AcDbEntity
  8
0
  6
SLD-Сплошная
 62
     7
370
    35
100
AcDbLine
 10
587.4090914783
 20
299.5478477536
 30
0.0
 11
587.4090914783
 21
300.5478477536
 31
0.0
  0
ARC
  5
E2
330
1F
100
AcDbEntity
  8
0
  6
SLD-Сплошная
 62
     7
370
    35
100
AcDbCircle
 10
-700.0
 20
-297.0521522464
 30
0.0
 40
599.0355266391967
100
AcDbArc
 50
0.3778202113
 51
78.7742330987
  0
ARC
  5
E3
330
1F
100
AcDbEntity
  8
0
  6
SLD-Сплошная
 62
     7
370
    35
100
AcDbCircle
 10
-582.4090914783
 20
295.4267888776
 30
0.0
 40
5.00000000000002
100
AcDbArc
 50
180.0
 51
258.7742330987
  0
LINE
  5
E4
330
1F
100
AcDbEntity
  8
0
  6
SLD-Сплошная
 62
     7
370
    35
100
AcDbLine
 10
-587.4090914783
 20
299.5478477536
 30
0.0
 11
-587.4090914783
 21
295.4267888776
 31
0.0
  0
LINE
  5
E5
330
1F
100
AcDbEntity
  8
0
  6
SLD-Сплошная
 62
     7
370
    35
100
AcDbLine
 10
587.4090914783
 20
295.4267888776
 30
0.0
 11
587.4090914783
 21
299.5478477536
 31
0.0
  0
ARC
  5
E6
330
1F
100
AcDbEntity
  8
0
  6
SLD-Сплошная
 62
     7
370
    35
100
AcDbCircle
 10
582.4090914783
 20
295.4267888776
 30
0.0
 40
5.000000000000064
100
AcDbArc
 50
281.2257669013
 51
0.0
  0
ARC
  5
E7
330
1F
100
AcDbEntity
  8
0
  6
SLD-Сплошная
 62
     7
370
    35
100
AcDbCircle
 10
700.0
 20
-297.0521522464
 30
0.0
 40
599.0355266391967
100
AcDbArc
 50
101.2257669013
 51
179.6221797887
  0
ARC
  5
E8
330
1F
100
AcDbEntity
  8
0
  6
SLD-Сплошная
 62
     7
370
    35
100
AcDbCircle
 10
95.9776061212
 20
-293.0690460161
 30
0.0
 40
5.000000000000036
100
AcDbArc
 50
312.6287966705
 51
359.6221797887
  0
ARC
  5
E9
330
1F
100
AcDbEntity
  8
0
  6
SLD-Сплошная
 62
     7
370
    35
100
AcDbCircle
 10
100.5
 20
-299.2521522464
 30
0.0
 40
2.750000000000069
100
AcDbArc
 50
114.4029164586
 51
236.9442688491
  0
LINE
  5
EA
330
1F
100
AcDbEntity
  8
0
  6
SLD-Сплошная
 62
     7
370
    35
100
AcDbLine
 10
99.0
 20
-301.5570383607
 30
0.0
 11
99.0
 21
-302.0521522464
 31
0.0
  0
LINE
  5
EB
330
1F
100
AcDbEntity
  8
0
  6
SLD-Сплошная
 62
     7
370
    35
100
AcDbLine
 10
99.0
 20
-509.0521522464
 30
0.0
 11
99.0
 21
-484.0521522464
 31
0.0
  0
ARC
  5
EC
330
1F
100
AcDbEntity
  8
0
  6
SLD-Сплошная
 62
     7
370
    35
100
AcDbCircle
 10
94.0
 20
-509.0521522464
 30
0.0
 40
5.000000000000057
100
AcDbArc
 50
270.0
 51
0.0
  0
LINE
  5
ED
330
1F
100
AcDbEntity
  8
0
  6
SLD-Сплошная
 62
     7
370
    35
100
AcDbLine
 10
-94.0
 20
-514.0521522464
 30
0.0
 11
94.0
 21
-514.0521522464
 31
0.0
  0
ARC
  5
EE
330
1F
100
AcDbEntity
  8
0
  6
SLD-Сплошная
 62
     7
370
    35
100
AcDbCircle
 10
-94.0
 20
-509.0521522464
 30
0.0
 40
5.000000000000057
100
AcDbArc
 50
180.0
 51
270.0
  0
LINE
  5
EF
330
1F
100
AcDbEntity
  8
0
  6
SLD-Сплошная
 62
     7
370
    35
100
AcDbLine
 10
-99.0
 20
-509.0521522464
 30
0.0
 11
-99.0
 21
-484.0521522464
 31
0.0
  0
LINE
  5
F0
330
1F
100
AcDbEntity
  8
0
  6
SLD-Сплошная
 62
     7
370
    35
100
AcDbLine
 10
-99.0
 20
-301.5570383607
 30
0.0
 11
-99.0
 21
-302.0521522464
 31
0.0
  0
ARC
  5
F1
330
1F
100
AcDbEntity
  8
0
  6
SLD-Сплошная
 62
     7
370
    35
100
AcDbCircle
 10
-100.5
 20
-299.2521522464
 30
0.0
 40
2.750000000000038
100
AcDbArc
 50
303.0557311509
 51
65.597083542
  0
ARC
  5
F2
330
1F
100
AcDbEntity
  8
0
  6
SLD-Сплошная
 62
     7
370
    35
100
AcDbCircle
 10
-95.9776061212
 20
-293.0690460161
 30
0.0
 40
5.00000000000005
100
AcDbArc
 50
180.3778202113
 51
227.3712033291
  0
LINE
  5
F3
330
1F
100
AcDbEntity
  8
0
  6
SLD-Сплошная
 62
     7
370
    35
100
AcDbLine
 10
101.2
 20
-484.0521522464
 30
0.0
 11
101.2
 21
-302.0521522464
 31
0.0
  0
LINE
  5
F4
330
1F
100
AcDbEntity
  8
0
  6
SLD-Сплошная
 62
     7
370
    35
100
AcDbLine
 10
101.2
 20
-484.0521522464
 30
0.0
 11
99.0
 21
-484.0521522464
 31
0.0
  0
LINE
  5
F5
330
1F
100
AcDbEntity
  8
0
  6
SLD-Сплошная
 62
     7
370
    35
100
AcDbLine
 10
99.0
 20
-302.0521522464
 30
0.0
 11
101.2
 21
-302.0521522464
 31
0.0
  0
LINE
  5
F6
330
1F
100
AcDbEntity
  8
0
  6
SLD-Сплошная
 62
     7
370
    35
100
AcDbLine
 10
-99.0
 20
-484.0521522464
 30
0.0
 11
-101.2
 21
-484.0521522464
 31
0.0
  0
LINE
  5
F7
330
1F
100
AcDbEntity
  8
0
  6
SLD-Сплошная
 62
     7
370
    35
100
AcDbLine
 10
-101.2
 20
-484.0521522464
 30
0.0
 11
-101.2
 21
-302.0521522464
 31
0.0
  0
LINE
  5
F8
330
1F
100
AcDbEntity
  8
0
  6
SLD-Сплошная
 62
     7
370
    35
100
AcDbLine
 10
-101.2
 20
-302.0521522464
 30
0.0
 11
-99.0
 21
-302.0521522464
 31
0.0
  0
LINE
  5
F9
330
1F
100
AcDbEntity
  8
0
  6
SLD-Сплошная
 62
     7
370
    35
100
AcDbLine
 10
-504.1984429357
 20
299.0677835317
 30
0.0
 11
-504.1984035533
 21
299.0671702472
 31
0.0
  0
LINE
  5
FA
330
1F
100
AcDbEntity
  8
0
  6
SLD-Сплошная
 62
     7
370
    35
100
AcDbLine
 10
-495.7998774812
 20
299.0961514837
 30
0.0
 11
-495.8004560989
 21
299.0864308797
 31
0.0
  0
SPLINE
  5
FB
330
1F
100
AcDbEntity
  8
0
  6
SLD-Сплошная
 62
     7
370
    35
100
AcDbSpline
210
0.0
220
0.0
230
1.0
 70
    24
 71
     3
 72
    12
 73
     8
 74
     0
 42
0.000000001
 43
0.00000001
 40
0.0
 40
0.0
 40
0.0
 40
0.0
 40
0.0086674047364441
 40
0.2676326298829182
 40
0.528661600250874
 40
0.7638461449005823
 40
1.0
 40
1.0
 40
1.0
 40
1.0
 10
-499.9999999999998
 20
299.2937327965113
 30
0.0
 10
-499.9999999999998
 20
299.2933145281716
 30
0.0
 10
-499.9999999999998
 20
299.2803992139393
 30
0.0
 10
-499.9999999999998
 20
299.2451786721423
 30
0.0
 10
-499.9999999999998
 20
299.1711891761292
 30
0.0
 10
-499.9999999999998
 20
299.0805894180122
 30
0.0
 10
-499.9999999999998
 20
299.014337471808
 30
0.0
 10
-499.9999999999998
 20
298.9811433749293
 30
0.0
  0
SPLINE
  5
FC
330
1F
100
AcDbEntity
  8
0
  6
SLD-Сплошная
 62
     7
370
    35
100
AcDbSpline
210
0.0
220
0.0
230
1.0
 70
     8
 71
     3
 72
    12
 73
     8
 74
     0
 42
0.000000001
 43
0.00000001
 40
0.0
 40
0.0
 40
0.0
 40
0.0
 40
0.0086674047364612
 40
0.2676326298829016
 40
0.528661600250852
 40
0.7638461449005814
 40
1.0
 40
1.0
 40
1.0
 40
1.0
 10
-504.211140560182
 20
299.2937327965113
 30
0.0
 10
-504.2101542321531
 20
299.2933145281716
 30
0.0
 10
-504.1796983376491
 20
299.2803992139397
 30
0.0
 10
-504.1222057178751
 20
299.2451786721421
 30
0.0
 10
-504.0556210249375
 20
299.1711891761293
 30
0.0
 10
-504.0094226358327
 20
299.080589418012
 30
0.0
 10
-504.003145181819
 20
299.0143374718081
 30
0.0
 10
-503.9999999999998
 20
298.9811433749293
 30
0.0
  0
SPLINE
  5
FD
330
1F
100
AcDbEntity
  8
0
  6
SLD-Сплошная
 62
     7
370
    35
100
AcDbSpline
210
0.0
220
0.0
230
1.0
 70
     8
 71
     3
 72
    12
 73
     8
 74
     0
 42
0.000000001
 43
0.00000001
 40
0.0
 40
0.0
 40
0.0
 40
0.0
 40
0.2361538550994149
 40
0.4713383997491231
 40
0.7323673701170635
 40
0.9913325952635546
 40
1.0
 40
1.0
 40
1.0
 40
1.0
 10
-495.9999999999998
 20
298.9811433749293
 30
0.0
 10
-495.9968548181806
 20
299.0143374718079
 30
0.0
 10
-495.9905773641668
 20
299.080589418012
 30
0.0
 10
-495.9443789750621
 20
299.1711891761295
 30
0.0
 10
-495.8777942821243
 20
299.2451786721417
 30
0.0
 10
-495.8203016623507
 20
299.2803992139404
 30
0.0
 10
-495.7898457678464
 20
299.2933145281716
 30
0.0
 10
-495.7888594398176
 20
299.2937327965113
 30
0.0
  0
SPLINE
  5
FE
330
1F
100
AcDbEntity
  8
0
  6
SLD-Сплошная
 62
     7
370
    35
100
AcDbSpline
210
0.0
220
0.0
230
1.0
 70
     8
 71
     3
 72
     9
 73
     5
 74
     0
 42
0.000000001
 43
0.00000001
 40
0.0
 40
0.0
 40
0.0
 40
0.0
 40
0.6837814517460443
 40
1.0
 40
1.0
 40
1.0
 40
1.0
 10
-501.9999999999998
 20
295.5478477536238
 30
0.0
 10
-501.5404492219899
 20
295.5710739243812
 30
0.0
 10
-500.8683766221316
 20
295.6050411674205
 30
0.0
 10
-500.2086255319469
 20
295.7515264045866
 30
0.0
 10
-499.9999999999998
 20
295.7978477536239
 30
0.0
  0
LINE
  5
FF
330
1F
100
AcDbEntity
  8
0
  6
SLD-Сплошная
 62
     7
370
    35
100
AcDbLine
 10
-504.0
 20
295.7978477536
 30
0.0
 11
-502.0
 21
295.5478477536
 31
0.0
  0
LINE
  5
100
330
1F
100
AcDbEntity
  8
0
  6
SLD-Сплошная
 62
     7
370
    35
100
AcDbLine
 10
-504.0
 20
298.9811433749
 30
0.0
 11
-504.0
 21
295.7978477536
 31
0.0
  0
LINE
  5
101
330
1F
100
AcDbEntity
  8
0
  6
SLD-Сплошная
 62
     7
370
    35
100
AcDbLine
 10
-500.0
 20
298.9811433749
 30
0.0
 11
-500.0
 21
295.7978477536
 31
0.0
  0
SPLINE
  5
102
330
1F
100
AcDbEntity
  8
0
  6
SLD-Сплошная
 62
     7
370
    35
100
AcDbSpline
210
0.0
220
0.0
230
1.0
 70
     8
 71
     3
 72
     9
 73
     5
 74
     0
 42
0.000000001
 43
0.00000001
 40
0.0
 40
0.0
 40
0.0
 40
0.0
 40
0.6837814517460511
 40
1.0
 40
1.0
 40
1.0
 40
1.0
 10
-497.9999999999998
 20
295.5478477536238
 30
0.0
 10
-497.5404492219899
 20
295.5710739243812
 30
0.0
 10
-496.8683766221316
 20
295.6050411674206
 30
0.0
 10
-496.208625531947
 20
295.7515264045866
 30
0.0
 10
-495.9999999999998
 20
295.7978477536239
 30
0.0
  0
LINE
  5
103
330
1F
100
AcDbEntity
  8
0
  6
SLD-Сплошная
 62
     7
370
    35
100
AcDbLine
 10
-500.0
 20
295.7978477536
 30
0.0
 11
-498.0
 21
295.5478477536
 31
0.0
  0
LINE
  5
104
330
1F
100
AcDbEntity
  8
0
  6
SLD-Сплошная
 62
     7
370
    35
100
AcDbLine
 10
-496.0
 20
298.9811433749
 30
0.0
 11
-496.0
 21
295.7978477536
 31
0.0
  0
LINE
  5
105
330
1F
100
AcDbEntity
  8
0
  6
SLD-Сплошная
 62
     7
370
    35
100
AcDbLine
 10
-502.0
 20
295.5478477536
 30
0.0
 11
-498.0
 21
295.5478477536
 31
0.0
  0
SPLINE
  5
106
330
1F
100
AcDbEntity
  8
0
  6
SLD-Сплошная
 62
     7
370
    35
100
AcDbSpline
210
0.0
220
0.0
230
1.0
 70
    24
 71
     3
 72
     9
 73
     5
 74
     0
 42
0.000000001
 43
0.00000001
 40
0.0
 40
0.0
 40
0.0
 40
0.0
 40
0.8037424145840063
 40
1.0
 40
1.0
 40
1.0
 40
1.0
 10
-495.9999999999998
 20
295.5478477536238
 30
0.0
 10
-495.9999999999998
 20
295.5796680793009
 30
0.0
 10
-495.9999999999997
 20
295.6192582827038
 30
0.0
 10
-495.9999999999998
 20
295.7685484298237
 30
0.0
 10
-495.9999999999998
 20
295.7978477536239
 30
0.0
  0
LINE
  5
107
330
1F
100
AcDbEntity
  8
0
  6
SLD-Сплошная
 62
     7
370
    35
100
AcDbLine
 10
-496.0
 20
295.5478477536
 30
0.0
 11
-498.0
 21
295.5478477536
 31
0.0
  0
SPLINE
  5
108
330
1F
100
AcDbEntity
  8
0
  6
SLD-Сплошная
 62
     7
370
    35
100
AcDbSpline
210
0.0
220
0.0
230
1.0
 70
    24
 71
     3
 72
     9
 73
     5
 74
     0
 42
0.000000001
 43
0.00000001
 40
0.0
 40
0.0
 40
0.0
 40
0.0
 40
0.8037424145840146
 40
1.0
 40
1.0
 40
1.0
 40
1.0
 10
-503.9999999999998
 20
295.5478477536239
 30
0.0
 10
-503.9999999999998
 20
295.5796680793009
 30
0.0
 10
-503.9999999999998
 20
295.6192582827039
 30
0.0
 10
-503.9999999999998
 20
295.7685484298237
 30
0.0
 10
-503.9999999999998
 20
295.7978477536239
 30
0.0
  0
LINE
  5
109
330
1F
100
AcDbEntity
  8
0
  6
SLD-Сплошная
 62
     7
370
    35
100
AcDbLine
 10
-504.0
 20
295.5478477536
 30
0.0
 11
-502.0
 21
295.5478477536
 31
0.0
  0
LINE
  5
10A
330
1F
100
AcDbEntity
  8
0
  6
SLD-Сплошная
 62
     7
370
    35
100
AcDbLine
 10
-104.1984429357
 20
299.0677835317
 30
0.0
 11
-104.1984035533
 21
299.0671702472
 31
0.0
  0
LINE
  5
10B
330
1F
100
AcDbEntity
  8
0
  6
SLD-Сплошная
 62
     7
370
    35
100
AcDbLine
 10
-95.7998774812
 20
299.0961514837
 30
0.0
 11
-95.8004560989
 21
299.0864308797
 31
0.0
  0
SPLINE
  5
10C
330
1F
100
AcDbEntity
  8
0
  6
SLD-Сплошная
 62
     7
370
    35
100
AcDbSpline
210
0.0
220
0.0
230
1.0
 70
    24
 71
     3
 72
    12
 73
     8
 74
     0
 42
0.000000001
 43
0.00000001
 40
0.0
 40
0.0
 40
0.0
 40
0.0
 40
0.0086674047364441
 40
0.2676326298829182
 40
0.528661600250874
 40
0.7638461449005823
 40
1.0
 40
1.0
 40
1.0
 40
1.0
 10
-99.99999999999987
 20
299.2937327965113
 30
0.0
 10
-99.99999999999993
 20
299.2933145281716
 30
0.0
 10
-100.0000000000002
 20
299.2803992139393
 30
0.0
 10
-99.9999999999997
 20
299.2451786721423
 30
0.0
 10
-99.99999999999993
 20
299.1711891761292
 30
0.0
 10
-99.99999999999976
 20
299.0805894180122
 30
0.0
 10
-99.99999999999982
 20
299.014337471808
 30
0.0
 10
-99.99999999999982
 20
298.9811433749293
 30
0.0
  0
SPLINE
  5
10D
330
1F
100
AcDbEntity
  8
0
  6
SLD-Сплошная
 62
     7
370
    35
100
AcDbSpline
210
0.0
220
0.0
230
1.0
 70
     8
 71
     3
 72
    12
 73
     8
 74
     0
 42
0.000000001
 43
0.00000001
 40
0.0
 40
0.0
 40
0.0
 40
0.0
 40
0.2361538550994395
 40
0.4713383997491478
 40
0.7323673701171247
 40
0.9913325952635809
 40
1.0
 40
1.0
 40
1.0
 40
1.0
 10
-95.9999999999998
 20
298.9811433749293
 30
0.0
 10
-95.99685481818065
 20
299.014337471808
 30
0.0
 10
-95.99057736416694
 20
299.0805894180121
 30
0.0
 10
-95.9443789750622
 20
299.1711891761292
 30
0.0
 10
-95.87779428212434
 20
299.2451786721426
 30
0.0
 10
-95.820301662351
 20
299.2803992139386
 30
0.0
 10
-95.78984576784649
 20
299.2933145281717
 30
0.0
 10
-95.78885943981768
 20
299.2937327965113
 30
0.0
  0
SPLINE
  5
10E
330
1F
100
AcDbEntity
  8
0
  6
SLD-Сплошная
 62
     7
370
    35
100
AcDbSpline
210
0.0
220
0.0
230
1.0
 70
     8
 71
     3
 72
    12
 73
     8
 74
     0
 42
0.000000001
 43
0.00000001
 40
0.0
 40
0.0
 40
0.0
 40
0.0
 40
0.0086674047364347
 40
0.2676326298828626
 40
0.5286616002508464
 40
0.7638461449005597
 40
1.0
 40
1.0
 40
1.0
 40
1.0
 10
-104.211140560182
 20
299.2937327965113
 30
0.0
 10
-104.2101542321532
 20
299.2933145281716
 30
0.0
 10
-104.1796983376486
 20
299.2803992139401
 30
0.0
 10
-104.1222057178753
 20
299.2451786721421
 30
0.0
 10
-104.0556210249376
 20
299.1711891761292
 30
0.0
 10
-104.0094226358328
 20
299.0805894180121
 30
0.0
 10
-104.003145181819
 20
299.014337471808
 30
0.0
 10
-103.9999999999999
 20
298.9811433749293
 30
0.0
  0
SPLINE
  5
10F
330
1F
100
AcDbEntity
  8
0
  6
SLD-Сплошная
 62
     7
370
    35
100
AcDbSpline
210
0.0
220
0.0
230
1.0
 70
     8
 71
     3
 72
     9
 73
     5
 74
     0
 42
0.000000001
 43
0.00000001
 40
0.0
 40
0.0
 40
0.0
 40
0.0
 40
0.6837814517460408
 40
1.0
 40
1.0
 40
1.0
 40
1.0
 10
-97.99999999999986
 20
295.5478477536238
 30
0.0
 10
-97.54044922198996
 20
295.5710739243812
 30
0.0
 10
-96.86837662213166
 20
295.6050411674206
 30
0.0
 10
-96.20862553194704
 20
295.7515264045865
 30
0.0
 10
-95.99999999999986
 20
295.7978477536239
 30
0.0
  0
LINE
  5
110
330
1F
100
AcDbEntity
  8
0
  6
SLD-Сплошная
 62
     7
370
    35
100
AcDbLine
 10
-100.0
 20
295.7978477536
 30
0.0
 11
-98.0
 21
295.5478477536
 31
0.0
  0
LINE
  5
111
330
1F
100
AcDbEntity
  8
0
  6
SLD-Сплошная
 62
     7
370
    35
100
AcDbLine
 10
-100.0
 20
298.9811433749
 30
0.0
 11
-100.0
 21
295.7978477536
 31
0.0
  0
LINE
  5
112
330
1F
100
AcDbEntity
  8
0
  6
SLD-Сплошная
 62
     7
370
    35
100
AcDbLine
 10
-96.0
 20
298.9811433749
 30
0.0
 11
-96.0
 21
295.7978477536
 31
0.0
  0
SPLINE
  5
113
330
1F
100
AcDbEntity
  8
0
  6
SLD-Сплошная
 62
     7
370
    35
100
AcDbSpline
210
0.0
220
0.0
230
1.0
 70
     8
 71
     3
 72
     9
 73
     5
 74
     0
 42
0.000000001
 43
0.00000001
 40
0.0
 40
0.0
 40
0.0
 40
0.0
 40
0.6837814517460392
 40
1.0
 40
1.0
 40
1.0
 40
1.0
 10
-101.9999999999999
 20
295.5478477536238
 30
0.0
 10
-101.54044922199
 20
295.5710739243812
 30
0.0
 10
-100.8683766221318
 20
295.6050411674206
 30
0.0
 10
-100.208625531947
 20
295.7515264045866
 30
0.0
 10
-99.99999999999987
 20
295.7978477536239
 30
0.0
  0
LINE
  5
114
330
1F
100
AcDbEntity
  8
0
  6
SLD-Сплошная
 62
     7
370
    35
100
AcDbLine
 10
-104.0
 20
295.7978477536
 30
0.0
 11
-102.0
 21
295.5478477536
 31
0.0
  0
LINE
  5
115
330
1F
100
AcDbEntity
  8
0
  6
SLD-Сплошная
 62
     7
370
    35
100
AcDbLine
 10
-104.0
 20
298.9811433749
 30
0.0
 11
-104.0
 21
295.7978477536
 31
0.0
  0
LINE
  5
116
330
1F
100
AcDbEntity
  8
0
  6
SLD-Сплошная
 62
     7
370
    35
100
AcDbLine
 10
-102.0
 20
295.5478477536
 30
0.0
 11
-98.0
 21
295.5478477536
 31
0.0
  0
SPLINE
  5
117
330
1F
100
AcDbEntity
  8
0
  6
SLD-Сплошная
 62
     7
370
    35
100
AcDbSpline
210
0.0
220
0.0
230
1.0
 70
    24
 71
     3
 72
     9
 73
     5
 74
     0
 42
0.000000001
 43
0.00000001
 40
0.0
 40
0.0
 40
0.0
 40
0.0
 40
0.8037424145840063
 40
1.0
 40
1.0
 40
1.0
 40
1.0
 10
-95.99999999999986
 20
295.5478477536238
 30
0.0
 10
-95.9999999999998
 20
295.5796680793009
 30
0.0
 10
-95.9999999999998
 20
295.6192582827038
 30
0.0
 10
-95.99999999999991
 20
295.7685484298237
 30
0.0
 10
-95.99999999999986
 20
295.7978477536239
 30
0.0
  0
LINE
  5
118
330
1F
100
AcDbEntity
  8
0
  6
SLD-Сплошная
 62
     7
370
    35
100
AcDbLine
 10
-96.0
 20
295.5478477536
 30
0.0
 11
-98.0
 21
295.5478477536
 31
0.0
  0
SPLINE
  5
119
330
1F
100
AcDbEntity
  8
0
  6
SLD-Сплошная
 62
     7
370
    35
100
AcDbSpline
210
0.0
220
0.0
230
1.0
 70
    24
 71
     3
 72
     9
 73
     5
 74
     0
 42
0.000000001
 43
0.00000001
 40
0.0
 40
0.0
 40
0.0
 40
0.0
 40
0.8037424145840146
 40
1.0
 40
1.0
 40
1.0
 40
1.0
 10
-103.9999999999998
 20
295.5478477536239
 30
0.0
 10
-103.9999999999999
 20
295.5796680793009
 30
0.0
 10
-103.9999999999999
 20
295.6192582827039
 30
0.0
 10
-103.9999999999998
 20
295.7685484298237
 30
0.0
 10
-103.9999999999998
 20
295.7978477536239
 30
0.0
  0
LINE
  5
11A
330
1F
100
AcDbEntity
  8
0
  6
SLD-Сплошная
 62
     7
370
    35
100
AcDbLine
 10
-104.0
 20
295.5478477536
 30
0.0
 11
-102.0
 21
295.5478477536
 31
0.0
  0
LINE
  5
11B
330
1F
100
AcDbEntity
  8
0
  6
SLD-Сплошная
 62
     7
370
    35
100
AcDbLine
 10
495.8015570643
 20
299.0677835317
 30
0.0
 11
495.8015964467
 21
299.0671702472
 31
0.0
  0
LINE
  5
11C
330
1F
100
AcDbEntity
  8
0
  6
SLD-Сплошная
 62
     7
370
    35
100
AcDbLine
 10
504.2001225188
 20
299.0961514837
 30
0.0
 11
504.1995439011
 21
299.0864308797
 31
0.0
  0
SPLINE
  5
11D
330
1F
100
AcDbEntity
  8
0
  6
SLD-Сплошная
 62
     7
370
    35
100
AcDbSpline
210
0.0
220
0.0
230
1.0
 70
    24
 71
     3
 72
    12
 73
     8
 74
     0
 42
0.000000001
 43
0.00000001
 40
0.0
 40
0.0
 40
0.0
 40
0.0
 40
0.0086674047364441
 40
0.2676326298829182
 40
0.528661600250874
 40
0.7638461449005823
 40
1.0
 40
1.0
 40
1.0
 40
1.0
 10
500.0000000000002
 20
299.2937327965113
 30
0.0
 10
500.0000000000002
 20
299.2933145281716
 30
0.0
 10
499.9999999999992
 20
299.2803992139393
 30
0.0
 10
500.0000000000007
 20
299.2451786721423
 30
0.0
 10
500.0
 20
299.1711891761292
 30
0.0
 10
500.0000000000006
 20
299.0805894180122
 30
0.0
 10
500.0000000000005
 20
299.014337471808
 30
0.0
 10
500.0000000000003
 20
298.9811433749293
 30
0.0
  0
SPLINE
  5
11E
330
1F
100
AcDbEntity
  8
0
  6
SLD-Сплошная
 62
     7
370
    35
100
AcDbSpline
210
0.0
220
0.0
230
1.0
 70
     8
 71
     3
 72
    12
 73
     8
 74
     0
 42
0.000000001
 43
0.00000001
 40
0.0
 40
0.0
 40
0.0
 40
0.0
 40
0.2361538550994141
 40
0.4713383997490971
 40
0.732367370117046
 40
0.9913325952634743
 40
1.0
 40
1.0
 40
1.0
 40
1.0
 10
504.0000000000002
 20
298.9811433749293
 30
0.0
 10
504.0031451818193
 20
299.014337471808
 30
0.0
 10
504.0094226358329
 20
299.080589418012
 30
0.0
 10
504.0556210249381
 20
299.1711891761294
 30
0.0
 10
504.122205717875
 20
299.2451786721419
 30
0.0
 10
504.1796983376507
 20
299.28039921394
 30
0.0
 10
504.2101542321535
 20
299.2933145281716
 30
0.0
 10
504.2111405601825
 20
299.2937327965113
 30
0.0
  0
SPLINE
  5
11F
330
1F
100
AcDbEntity
  8
0
  6
SLD-Сплошная
 62
     7
370
    35
100
AcDbSpline
210
0.0
220
0.0
230
1.0
 70
     8
 71
     3
 72
    12
 73
     8
 74
     0
 42
0.000000001
 43
0.00000001
 40
0.0
 40
0.0
 40
0.0
 40
0.0
 40
0.0086674047365412
 40
0.2676326298829413
 40
0.528661600250897
 40
0.7638461449005851
 40
1.0
 40
1.0
 40
1.0
 40
1.0
 10
495.788859439818
 20
299.2937327965113
 30
0.0
 10
495.7898457678468
 20
299.2933145281716
 30
0.0
 10
495.8203016623519
 20
299.2803992139405
 30
0.0
 10
495.8777942821247
 20
299.2451786721418
 30
0.0
 10
495.9443789750625
 20
299.1711891761294
 30
0.0
 10
495.9905773641672
 20
299.080589418012
 30
0.0
 10
495.9968548181812
 20
299.014337471808
 30
0.0
 10
496.0000000000003
 20
298.9811433749293
 30
0.0
  0
SPLINE
  5
120
330
1F
100
AcDbEntity
  8
0
  6
SLD-Сплошная
 62
     7
370
    35
100
AcDbSpline
210
0.0
220
0.0
230
1.0
 70
     8
 71
     3
 72
     9
 73
     5
 74
     0
 42
0.000000001
 43
0.00000001
 40
0.0
 40
0.0
 40
0.0
 40
0.0
 40
0.6837814517460596
 40
1.0
 40
1.0
 40
1.0
 40
1.0
 10
498.0000000000002
 20
295.5478477536238
 30
0.0
 10
498.4595507780101
 20
295.5710739243812
 30
0.0
 10
499.1316233778684
 20
295.6050411674205
 30
0.0
 10
499.7913744680531
 20
295.7515264045866
 30
0.0
 10
500.0000000000002
 20
295.7978477536239
 30
0.0
  0
LINE
  5
121
330
1F
100
AcDbEntity
  8
0
  6
SLD-Сплошная
 62
     7
370
    35
100
AcDbLine
 10
500.0
 20
295.7978477536
 30
0.0
 11
502.0
 21
295.5478477536
 31
0.0
  0
LINE
  5
122
330
1F
100
AcDbEntity
  8
0
  6
SLD-Сплошная
 62
     7
370
    35
100
AcDbLine
 10
498.0
 20
295.5478477536
 30
0.0
 11
502.0
 21
295.5478477536
 31
0.0
  0
SPLINE
  5
123
330
1F
100
AcDbEntity
  8
0
  6
SLD-Сплошная
 62
     7
370
    35
100
AcDbSpline
210
0.0
220
0.0
230
1.0
 70
     8
 71
     3
 72
     9
 73
     5
 74
     0
 42
0.000000001
 43
0.00000001
 40
0.0
 40
0.0
 40
0.0
 40
0.0
 40
0.6837814517460612
 40
1.0
 40
1.0
 40
1.0
 40
1.0
 10
502.0000000000002
 20
295.5478477536238
 30
0.0
 10
502.4595507780101
 20
295.5710739243811
 30
0.0
 10
503.1316233778686
 20
295.6050411674204
 30
0.0
 10
503.791374468053
 20
295.7515264045866
 30
0.0
 10
504.0000000000002
 20
295.7978477536239
 30
0.0
  0
LINE
  5
124
330
1F
100
AcDbEntity
  8
0
  6
SLD-Сплошная
 62
     7
370
    35
100
AcDbLine
 10
500.0
 20
298.9811433749
 30
0.0
 11
500.0
 21
295.7978477536
 31
0.0
  0
LINE
  5
125
330
1F
100
AcDbEntity
  8
0
  6
SLD-Сплошная
 62
     7
370
    35
100
AcDbLine
 10
504.0
 20
298.9811433749
 30
0.0
 11
504.0
 21
295.7978477536
 31
0.0
  0
LINE
  5
126
330
1F
100
AcDbEntity
  8
0
  6
SLD-Сплошная
 62
     7
370
    35
100
AcDbLine
 10
496.0
 20
295.7978477536
 30
0.0
 11
498.0
 21
295.5478477536
 31
0.0
  0
LINE
  5
127
330
1F
100
AcDbEntity
  8
0
  6
SLD-Сплошная
 62
     7
370
    35
100
AcDbLine
 10
496.0
 20
298.9811433749
 30
0.0
 11
496.0
 21
295.7978477536
 31
0.0
  0
SPLINE
  5
128
330
1F
100
AcDbEntity
  8
0
  6
SLD-Сплошная
 62
     7
370
    35
100
AcDbSpline
210
0.0
220
0.0
230
1.0
 70
    24
 71
     3
 72
     9
 73
     5
 74
     0
 42
0.000000001
 43
0.00000001
 40
0.0
 40
0.0
 40
0.0
 40
0.0
 40
0.8037424145840146
 40
1.0
 40
1.0
 40
1.0
 40
1.0
 10
496.0000000000003
 20
295.5478477536239
 30
0.0
 10
496.0000000000006
 20
295.5796680793009
 30
0.0
 10
496.0000000000007
 20
295.6192582827039
 30
0.0
 10
496.0000000000003
 20
295.7685484298237
 30
0.0
 10
496.0000000000003
 20
295.7978477536239
 30
0.0
  0
LINE
  5
129
330
1F
100
AcDbEntity
  8
0
  6
SLD-Сплошная
 62
     7
370
    35
100
AcDbLine
 10
496.0
 20
295.5478477536
 30
0.0
 11
498.0
 21
295.5478477536
 31
0.0
  0
SPLINE
  5
12A
330
1F
100
AcDbEntity
  8
0
  6
SLD-Сплошная
 62
     7
370
    35
100
AcDbSpline
210
0.0
220
0.0
230
1.0
 70
    24
 71
     3
 72
     9
 73
     5
 74
     0
 42
0.000000001
 43
0.00000001
 40
0.0
 40
0.0
 40
0.0
 40
0.0
 40
0.8037424145840063
 40
1.0
 40
1.0
 40
1.0
 40
1.0
 10
504.0000000000002
 20
295.5478477536238
 30
0.0
 10
504.0000000000005
 20
295.5796680793009
 30
0.0
 10
504.0000000000003
 20
295.6192582827038
 30
0.0
 10
504.0000000000001
 20
295.7685484298237
 30
0.0
 10
504.0000000000002
 20
295.7978477536239
 30
0.0
  0
LINE
  5
12B
330
1F
100
AcDbEntity
  8
0
  6
SLD-Сплошная
 62
     7
370
    35
100
AcDbLine
 10
504.0
 20
295.5478477536
 30
0.0
 11
502.0
 21
295.5478477536
 31
0.0
  0
LINE
  5
12C
330
1F
100
AcDbEntity
  8
0
  6
SLD-Сплошная
 62
     7
370
    35
100
AcDbLine
 10
295.8015570643
 20
299.0677835317
 30
0.0
 11
295.8015964467
 21
299.0671702472
 31
0.0
  0
LINE
  5
12D
330
1F
100
AcDbEntity
  8
0
  6
SLD-Сплошная
 62
     7
370
    35
100
AcDbLine
 10
304.2001225188
 20
299.0961514837
 30
0.0
 11
304.1995439011
 21
299.0864308797
 31
0.0
  0
SPLINE
  5
12E
330
1F
100
AcDbEntity
  8
0
  6
SLD-Сплошная
 62
     7
370
    35
100
AcDbSpline
210
0.0
220
0.0
230
1.0
 70
    24
 71
     3
 72
    12
 73
     8
 74
     0
 42
0.000000001
 43
0.00000001
 40
0.0
 40
0.0
 40
0.0
 40
0.0
 40
0.0086674047364441
 40
0.2676326298829182
 40
0.528661600250874
 40
0.7638461449005823
 40
1.0
 40
1.0
 40
1.0
 40
1.0
 10
300.0000000000003
 20
299.2937327965113
 30
0.0
 10
300.0000000000003
 20
299.2933145281716
 30
0.0
 10
299.9999999999994
 20
299.2803992139393
 30
0.0
 10
300.0000000000007
 20
299.2451786721423
 30
0.0
 10
300.0000000000003
 20
299.1711891761292
 30
0.0
 10
300.0000000000005
 20
299.0805894180122
 30
0.0
 10
300.0000000000005
 20
299.014337471808
 30
0.0
 10
300.0000000000004
 20
298.9811433749293
 30
0.0
  0
SPLINE
  5
12F
330
1F
100
AcDbEntity
  8
0
  6
SLD-Сплошная
 62
     7
370
    35
100
AcDbSpline
210
0.0
220
0.0
230
1.0
 70
     8
 71
     3
 72
    12
 73
     8
 74
     0
 42
0.000000001
 43
0.00000001
 40
0.0
 40
0.0
 40
0.0
 40
0.0
 40
0.0086674047365412
 40
0.2676326298829413
 40
0.528661600250897
 40
0.7638461449005851
 40
1.0
 40
1.0
 40
1.0
 40
1.0
 10
295.7888594398181
 20
299.2937327965113
 30
0.0
 10
295.7898457678468
 20
299.2933145281716
 30
0.0
 10
295.8203016623518
 20
299.2803992139405
 30
0.0
 10
295.8777942821246
 20
299.2451786721418
 30
0.0
 10
295.9443789750628
 20
299.1711891761294
 30
0.0
 10
295.9905773641672
 20
299.080589418012
 30
0.0
 10
295.9968548181813
 20
299.014337471808
 30
0.0
 10
296.0000000000004
 20
298.9811433749293
 30
0.0
  0
SPLINE
  5
130
330
1F
100
AcDbEntity
  8
0
  6
SLD-Сплошная
 62
     7
370
    35
100
AcDbSpline
210
0.0
220
0.0
230
1.0
 70
     8
 71
     3
 72
    12
 73
     8
 74
     0
 42
0.000000001
 43
0.00000001
 40
0.0
 40
0.0
 40
0.0
 40
0.0
 40
0.2361538550994141
 40
0.4713383997490971
 40
0.732367370117046
 40
0.9913325952634743
 40
1.0
 40
1.0
 40
1.0
 40
1.0
 10
304.0000000000003
 20
298.9811433749293
 30
0.0
 10
304.0031451818195
 20
299.014337471808
 30
0.0
 10
304.0094226358332
 20
299.080589418012
 30
0.0
 10
304.0556210249376
 20
299.1711891761294
 30
0.0
 10
304.1222057178766
 20
299.2451786721419
 30
0.0
 10
304.1796983376472
 20
299.28039921394
 30
0.0
 10
304.2101542321537
 20
299.2933145281716
 30
0.0
 10
304.2111405601825
 20
299.2937327965113
 30
0.0
  0
SPLINE
  5
131
330
1F
100
AcDbEntity
  8
0
  6
SLD-Сплошная
 62
     7
370
    35
100
AcDbSpline
210
0.0
220
0.0
230
1.0
 70
     8
 71
     3
 72
     9
 73
     5
 74
     0
 42
0.000000001
 43
0.00000001
 40
0.0
 40
0.0
 40
0.0
 40
0.0
 40
0.6837814517460596
 40
1.0
 40
1.0
 40
1.0
 40
1.0
 10
298.0000000000003
 20
295.5478477536238
 30
0.0
 10
298.4595507780102
 20
295.5710739243812
 30
0.0
 10
299.1316233778685
 20
295.6050411674205
 30
0.0
 10
299.7913744680532
 20
295.7515264045866
 30
0.0
 10
300.0000000000003
 20
295.7978477536239
 30
0.0
  0
LINE
  5
132
330
1F
100
AcDbEntity
  8
0
  6
SLD-Сплошная
 62
     7
370
    35
100
AcDbLine
 10
300.0
 20
295.7978477536
 30
0.0
 11
302.0
 21
295.5478477536
 31
0.0
  0
LINE
  5
133
330
1F
100
AcDbEntity
  8
0
  6
SLD-Сплошная
 62
     7
370
    35
100
AcDbLine
 10
298.0
 20
295.5478477536
 30
0.0
 11
302.0
 21
295.5478477536
 31
0.0
  0
SPLINE
  5
134
330
1F
100
AcDbEntity
  8
0
  6
SLD-Сплошная
 62
     7
370
    35
100
AcDbSpline
210
0.0
220
0.0
230
1.0
 70
     8
 71
     3
 72
     9
 73
     5
 74
     0
 42
0.000000001
 43
0.00000001
 40
0.0
 40
0.0
 40
0.0
 40
0.0
 40
0.6837814517460612
 40
1.0
 40
1.0
 40
1.0
 40
1.0
 10
302.0000000000003
 20
295.5478477536238
 30
0.0
 10
302.45955077801
 20
295.5710739243811
 30
0.0
 10
303.1316233778685
 20
295.6050411674204
 30
0.0
 10
303.791374468053
 20
295.7515264045866
 30
0.0
 10
304.0000000000003
 20
295.7978477536239
 30
0.0
  0
LINE
  5
135
330
1F
100
AcDbEntity
  8
0
  6
SLD-Сплошная
 62
     7
370
    35
100
AcDbLine
 10
300.0
 20
298.9811433749
 30
0.0
 11
300.0
 21
295.7978477536
 31
0.0
  0
LINE
  5
136
330
1F
100
AcDbEntity
  8
0
  6
SLD-Сплошная
 62
     7
370
    35
100
AcDbLine
 10
304.0
 20
298.9811433749
 30
0.0
 11
304.0
 21
295.7978477536
 31
0.0
  0
LINE
  5
137
330
1F
100
AcDbEntity
  8
0
  6
SLD-Сплошная
 62
     7
370
    35
100
AcDbLine
 10
296.0
 20
295.7978477536
 30
0.0
 11
298.0
 21
295.5478477536
 31
0.0
  0
LINE
  5
138
330
1F
100
AcDbEntity
  8
0
  6
SLD-Сплошная
 62
     7
370
    35
100
AcDbLine
 10
296.0
 20
298.9811433749
 30
0.0
 11
296.0
 21
295.7978477536
 31
0.0
  0
SPLINE
  5
139
330
1F
100
AcDbEntity
  8
0
  6
SLD-Сплошная
 62
     7
370
    35
100
AcDbSpline
210
0.0
220
0.0
230
1.0
 70
    24
 71
     3
 72
     9
 73
     5
 74
     0
 42
0.000000001
 43
0.00000001
 40
0.0
 40
0.0
 40
0.0
 40
0.0
 40
0.8037424145840146
 40
1.0
 40
1.0
 40
1.0
 40
1.0
 10
296.0000000000004
 20
295.5478477536239
 30
0.0
 10
296.0000000000005
 20
295.5796680793009
 30
0.0
 10
296.0000000000008
 20
295.6192582827039
 30
0.0
 10
296.0000000000003
 20
295.7685484298237
 30
0.0
 10
296.0000000000004
 20
295.7978477536239
 30
0.0
  0
LINE
  5
13A
330
1F
100
AcDbEntity
  8
0
  6
SLD-Сплошная
 62
     7
370
    35
100
AcDbLine
 10
296.0
 20
295.5478477536
 30
0.0
 11
298.0
 21
295.5478477536
 31
0.0
  0
SPLINE
  5
13B
330
1F
100
AcDbEntity
  8
0
  6
SLD-Сплошная
 62
     7
370
    35
100
AcDbSpline
210
0.0
220
0.0
230
1.0
 70
    24
 71
     3
 72
     9
 73
     5
 74
     0
 42
0.000000001
 43
0.00000001
 40
0.0
 40
0.0
 40
0.0
 40
0.0
 40
0.8037424145840063
 40
1.0
 40
1.0
 40
1.0
 40
1.0
 10
304.0000000000003
 20
295.5478477536238
 30
0.0
 10
304.0000000000004
 20
295.5796680793009
 30
0.0
 10
304.0000000000003
 20
295.6192582827038
 30
0.0
 10
304.0000000000002
 20
295.7685484298237
 30
0.0
 10
304.0000000000003
 20
295.7978477536239
 30
0.0
  0
LINE
  5
13C
330
1F
100
AcDbEntity
  8
0
  6
SLD-Сплошная
 62
     7
370
    35
100
AcDbLine
 10
304.0
 20
295.5478477536
 30
0.0
 11
302.0
 21
295.5478477536
 31
0.0
  0
LINE
  5
13D
330
1F
100
AcDbEntity
  8
0
  6
SLD-Сплошная
 62
     7
370
    35
100
AcDbLine
 10
95.8015570643
 20
299.0677835317
 30
0.0
 11
95.8015964467
 21
299.0671702472
 31
0.0
  0
LINE
  5
13E
330
1F
100
AcDbEntity
  8
0
  6
SLD-Сплошная
 62
     7
370
    35
100
AcDbLine
 10
104.2001225188
 20
299.0961514837
 30
0.0
 11
104.1995439011
 21
299.0864308797
 31
0.0
  0
SPLINE
  5
13F
330
1F
100
AcDbEntity
  8
0
  6
SLD-Сплошная
 62
     7
370
    35
100
AcDbSpline
210
0.0
220
0.0
230
1.0
 70
    24
 71
     3
 72
    12
 73
     8
 74
     0
 42
0.000000001
 43
0.00000001
 40
0.0
 40
0.0
 40
0.0
 40
0.0
 40
0.0086674047364441
 40
0.2676326298829182
 40
0.528661600250874
 40
0.7638461449005823
 40
1.0
 40
1.0
 40
1.0
 40
1.0
 10
100.0000000000002
 20
299.2937327965113
 30
0.0
 10
100.0000000000002
 20
299.2933145281716
 30
0.0
 10
99.99999999999959
 20
299.2803992139393
 30
0.0
 10
100.0000000000005
 20
299.2451786721423
 30
0.0
 10
100.0000000000001
 20
299.1711891761292
 30
0.0
 10
100.0000000000004
 20
299.0805894180122
 30
0.0
 10
100.0000000000003
 20
299.014337471808
 30
0.0
 10
100.0000000000003
 20
298.9811433749293
 30
0.0
  0
SPLINE
  5
140
330
1F
100
AcDbEntity
  8
0
  6
SLD-Сплошная
 62
     7
370
    35
100
AcDbSpline
210
0.0
220
0.0
230
1.0
 70
     8
 71
     3
 72
    12
 73
     8
 74
     0
 42
0.000000001
 43
0.00000001
 40
0.0
 40
0.0
 40
0.0
 40
0.0
 40
0.2361538550994141
 40
0.4713383997490971
 40
0.732367370117046
 40
0.9913325952634743
 40
1.0
 40
1.0
 40
1.0
 40
1.0
 10
104.0000000000002
 20
298.9811433749293
 30
0.0
 10
104.0031451818193
 20
299.014337471808
 30
0.0
 10
104.0094226358331
 20
299.080589418012
 30
0.0
 10
104.0556210249378
 20
299.1711891761294
 30
0.0
 10
104.1222057178759
 20
299.2451786721419
 30
0.0
 10
104.1796983376487
 20
299.28039921394
 30
0.0
 10
104.2101542321536
 20
299.2933145281716
 30
0.0
 10
104.2111405601824
 20
299.2937327965113
 30
0.0
  0
SPLINE
  5
141
330
1F
100
AcDbEntity
  8
0
  6
SLD-Сплошная
 62
     7
370
    35
100
AcDbSpline
210
0.0
220
0.0
230
1.0
 70
     8
 71
     3
 72
    12
 73
     8
 74
     0
 42
0.000000001
 43
0.00000001
 40
0.0
 40
0.0
 40
0.0
 40
0.0
 40
0.0086674047364347
 40
0.2676326298828626
 40
0.5286616002508464
 40
0.7638461449005597
 40
1.0
 40
1.0
 40
1.0
 40
1.0
 10
95.78885943981803
 20
299.2937327965113
 30
0.0
 10
95.78984576784677
 20
299.2933145281716
 30
0.0
 10
95.8203016623515
 20
299.2803992139401
 30
0.0
 10
95.87779428212461
 20
299.2451786721421
 30
0.0
 10
95.94437897506253
 20
299.1711891761292
 30
0.0
 10
95.99057736416728
 20
299.0805894180121
 30
0.0
 10
95.99685481818105
 20
299.014337471808
 30
0.0
 10
96.0000000000002
 20
298.9811433749293
 30
0.0
  0
SPLINE
  5
142
330
1F
100
AcDbEntity
  8
0
  6
SLD-Сплошная
 62
     7
370
    35
100
AcDbSpline
210
0.0
220
0.0
230
1.0
 70
     8
 71
     3
 72
     9
 73
     5
 74
     0
 42
0.000000001
 43
0.00000001
 40
0.0
 40
0.0
 40
0.0
 40
0.0
 40
0.6837814517460392
 40
1.0
 40
1.0
 40
1.0
 40
1.0
 10
98.0000000000002
 20
295.5478477536238
 30
0.0
 10
98.45955077801011
 20
295.5710739243812
 30
0.0
 10
99.13162337786824
 20
295.6050411674206
 30
0.0
 10
99.79137446805304
 20
295.7515264045866
 30
0.0
 10
100.0000000000002
 20
295.7978477536239
 30
0.0
  0
LINE
  5
143
330
1F
100
AcDbEntity
  8
0
  6
SLD-Сплошная
 62
     7
370
    35
100
AcDbLine
 10
96.0
 20
295.7978477536
 30
0.0
 11
98.0
 21
295.5478477536
 31
0.0
  0
LINE
  5
144
330
1F
100
AcDbEntity
  8
0
  6
SLD-Сплошная
 62
     7
370
    35
100
AcDbLine
 10
96.0
 20
298.9811433749
 30
0.0
 11
96.0
 21
295.7978477536
 31
0.0
  0
LINE
  5
145
330
1F
100
AcDbEntity
  8
0
  6
SLD-Сплошная
 62
     7
370
    35
100
AcDbLine
 10
100.0
 20
298.9811433749
 30
0.0
 11
100.0
 21
295.7978477536
 31
0.0
  0
SPLINE
  5
146
330
1F
100
AcDbEntity
  8
0
  6
SLD-Сплошная
 62
     7
370
    35
100
AcDbSpline
210
0.0
220
0.0
230
1.0
 70
     8
 71
     3
 72
     9
 73
     5
 74
     0
 42
0.000000001
 43
0.00000001
 40
0.0
 40
0.0
 40
0.0
 40
0.0
 40
0.6837814517460408
 40
1.0
 40
1.0
 40
1.0
 40
1.0
 10
102.0000000000002
 20
295.5478477536238
 30
0.0
 10
102.4595507780101
 20
295.5710739243812
 30
0.0
 10
103.1316233778684
 20
295.6050411674206
 30
0.0
 10
103.791374468053
 20
295.7515264045865
 30
0.0
 10
104.0000000000002
 20
295.7978477536239
 30
0.0
  0
LINE
  5
147
330
1F
100
AcDbEntity
  8
0
  6
SLD-Сплошная
 62
     7
370
    35
100
AcDbLine
 10
100.0
 20
295.7978477536
 30
0.0
 11
102.0
 21
295.5478477536
 31
0.0
  0
LINE
  5
148
330
1F
100
AcDbEntity
  8
0
  6
SLD-Сплошная
 62
     7
370
    35
100
AcDbLine
 10
104.0
 20
298.9811433749
 30
0.0
 11
104.0
 21
295.7978477536
 31
0.0
  0
LINE
  5
149
330
1F
100
AcDbEntity
  8
0
  6
SLD-Сплошная
 62
     7
370
    35
100
AcDbLine
 10
98.0
 20
295.5478477536
 30
0.0
 11
102.0
 21
295.5478477536
 31
0.0
  0
SPLINE
  5
14A
330
1F
100
AcDbEntity
  8
0
  6
SLD-Сплошная
 62
     7
370
    35
100
AcDbSpline
210
0.0
220
0.0
230
1.0
 70
    24
 71
     3
 72
     9
 73
     5
 74
     0
 42
0.000000001
 43
0.00000001
 40
0.0
 40
0.0
 40
0.0
 40
0.0
 40
0.8037424145840146
 40
1.0
 40
1.0
 40
1.0
 40
1.0
 10
96.00000000000026
 20
295.5478477536239
 30
0.0
 10
96.0000000000002
 20
295.5796680793009
 30
0.0
 10
96.00000000000031
 20
295.6192582827039
 30
0.0
 10
96.00000000000026
 20
295.7685484298237
 30
0.0
 10
96.00000000000026
 20
295.7978477536239
 30
0.0
  0
LINE
  5
14B
330
1F
100
AcDbEntity
  8
0
  6
SLD-Сплошная
 62
     7
370
    35
100
AcDbLine
 10
96.0
 20
295.5478477536
 30
0.0
 11
98.0
 21
295.5478477536
 31
0.0
  0
SPLINE
  5
14C
330
1F
100
AcDbEntity
  8
0
  6
SLD-Сплошная
 62
     7
370
    35
100
AcDbSpline
210
0.0
220
0.0
230
1.0
 70
    24
 71
     3
 72
     9
 73
     5
 74
     0
 42
0.000000001
 43
0.00000001
 40
0.0
 40
0.0
 40
0.0
 40
0.0
 40
0.8037424145840063
 40
1.0
 40
1.0
 40
1.0
 40
1.0
 10
104.0000000000002
 20
295.5478477536238
 30
0.0
 10
104.0000000000003
 20
295.5796680793009
 30
0.0
 10
104.0000000000003
 20
295.6192582827038
 30
0.0
 10
104.0000000000001
 20
295.7685484298237
 30
0.0
 10
104.0000000000002
 20
295.7978477536239
 30
0.0
  0
LINE
  5
14D
330
1F
100
AcDbEntity
  8
0
  6
SLD-Сплошная
 62
     7
370
    35
100
AcDbLine
 10
104.0
 20
295.5478477536
 30
0.0
 11
102.0
 21
295.5478477536
 31
0.0
  0
LINE
  5
14E
330
1F
100
AcDbEntity
  8
0
  6
SLD-Сплошная
 62
     7
370
    35
100
AcDbLine
 10
-304.1984429357
 20
299.0677835317
 30
0.0
 11
-304.1984035533
 21
299.0671702472
 31
0.0
  0
LINE
  5
14F
330
1F
100
AcDbEntity
  8
0
  6
SLD-Сплошная
 62
     7
370
    35
100
AcDbLine
 10
-295.7998774812
 20
299.0961514837
 30
0.0
 11
-295.8004560989
 21
299.0864308797
 31
0.0
  0
SPLINE
  5
150
330
1F
100
AcDbEntity
  8
0
  6
SLD-Сплошная
 62
     7
370
    35
100
AcDbSpline
210
0.0
220
0.0
230
1.0
 70
    24
 71
     3
 72
    12
 73
     8
 74
     0
 42
0.000000001
 43
0.00000001
 40
0.0
 40
0.0
 40
0.0
 40
0.0
 40
0.0086674047364441
 40
0.2676326298829182
 40
0.528661600250874
 40
0.7638461449005823
 40
1.0
 40
1.0
 40
1.0
 40
1.0
 10
-299.9999999999998
 20
299.2937327965113
 30
0.0
 10
-299.9999999999998
 20
299.2933145281716
 30
0.0
 10
-300.0
 20
299.2803992139393
 30
0.0
 10
-299.9999999999998
 20
299.2451786721423
 30
0.0
 10
-299.9999999999998
 20
299.1711891761292
 30
0.0
 10
-299.9999999999998
 20
299.0805894180122
 30
0.0
 10
-299.9999999999998
 20
299.014337471808
 30
0.0
 10
-299.9999999999998
 20
298.9811433749293
 30
0.0
  0
SPLINE
  5
151
330
1F
100
AcDbEntity
  8
0
  6
SLD-Сплошная
 62
     7
370
    35
100
AcDbSpline
210
0.0
220
0.0
230
1.0
 70
     8
 71
     3
 72
    12
 73
     8
 74
     0
 42
0.000000001
 43
0.00000001
 40
0.0
 40
0.0
 40
0.0
 40
0.0
 40
0.0086674047364612
 40
0.2676326298829016
 40
0.528661600250852
 40
0.7638461449005814
 40
1.0
 40
1.0
 40
1.0
 40
1.0
 10
-304.211140560182
 20
299.2937327965113
 30
0.0
 10
-304.2101542321532
 20
299.2933145281716
 30
0.0
 10
-304.1796983376491
 20
299.2803992139397
 30
0.0
 10
-304.1222057178751
 20
299.2451786721421
 30
0.0
 10
-304.0556210249375
 20
299.1711891761293
 30
0.0
 10
-304.0094226358327
 20
299.080589418012
 30
0.0
 10
-304.0031451818189
 20
299.0143374718081
 30
0.0
 10
-303.9999999999998
 20
298.9811433749293
 30
0.0
  0
SPLINE
  5
152
330
1F
100
AcDbEntity
  8
0
  6
SLD-Сплошная
 62
     7
370
    35
100
AcDbSpline
210
0.0
220
0.0
230
1.0
 70
     8
 71
     3
 72
    12
 73
     8
 74
     0
 42
0.000000001
 43
0.00000001
 40
0.0
 40
0.0
 40
0.0
 40
0.0
 40
0.2361538550994149
 40
0.4713383997491231
 40
0.7323673701170635
 40
0.9913325952635546
 40
1.0
 40
1.0
 40
1.0
 40
1.0
 10
-295.9999999999998
 20
298.9811433749293
 30
0.0
 10
-295.9968548181807
 20
299.0143374718079
 30
0.0
 10
-295.9905773641669
 20
299.080589418012
 30
0.0
 10
-295.9443789750621
 20
299.1711891761295
 30
0.0
 10
-295.8777942821245
 20
299.2451786721417
 30
0.0
 10
-295.8203016623505
 20
299.2803992139404
 30
0.0
 10
-295.7898457678464
 20
299.2933145281716
 30
0.0
 10
-295.7888594398177
 20
299.2937327965113
 30
0.0
  0
SPLINE
  5
153
330
1F
100
AcDbEntity
  8
0
  6
SLD-Сплошная
 62
     7
370
    35
100
AcDbSpline
210
0.0
220
0.0
230
1.0
 70
     8
 71
     3
 72
     9
 73
     5
 74
     0
 42
0.000000001
 43
0.00000001
 40
0.0
 40
0.0
 40
0.0
 40
0.0
 40
0.6837814517460443
 40
1.0
 40
1.0
 40
1.0
 40
1.0
 10
-301.9999999999998
 20
295.5478477536238
 30
0.0
 10
-301.5404492219899
 20
295.5710739243812
 30
0.0
 10
-300.8683766221317
 20
295.6050411674205
 30
0.0
 10
-300.208625531947
 20
295.7515264045866
 30
0.0
 10
-299.9999999999998
 20
295.7978477536239
 30
0.0
  0
LINE
  5
154
330
1F
100
AcDbEntity
  8
0
  6
SLD-Сплошная
 62
     7
370
    35
100
AcDbLine
 10
-304.0
 20
295.7978477536
 30
0.0
 11
-302.0
 21
295.5478477536
 31
0.0
  0
LINE
  5
155
330
1F
100
AcDbEntity
  8
0
  6
SLD-Сплошная
 62
     7
370
    35
100
AcDbLine
 10
-304.0
 20
298.9811433749
 30
0.0
 11
-304.0
 21
295.7978477536
 31
0.0
  0
LINE
  5
156
330
1F
100
AcDbEntity
  8
0
  6
SLD-Сплошная
 62
     7
370
    35
100
AcDbLine
 10
-300.0
 20
298.9811433749
 30
0.0
 11
-300.0
 21
295.7978477536
 31
0.0
  0
LINE
  5
157
330
1F
100
AcDbEntity
  8
0
  6
SLD-Сплошная
 62
     7
370
    35
100
AcDbLine
 10
-300.0
 20
295.7978477536
 30
0.0
 11
-298.0
 21
295.5478477536
 31
0.0
  0
LINE
  5
158
330
1F
100
AcDbEntity
  8
0
  6
SLD-Сплошная
 62
     7
370
    35
100
AcDbLine
 10
-302.0
 20
295.5478477536
 30
0.0
 11
-298.0
 21
295.5478477536
 31
0.0
  0
SPLINE
  5
159
330
1F
100
AcDbEntity
  8
0
  6
SLD-Сплошная
 62
     7
370
    35
100
AcDbSpline
210
0.0
220
0.0
230
1.0
 70
     8
 71
     3
 72
     9
 73
     5
 74
     0
 42
0.000000001
 43
0.00000001
 40
0.0
 40
0.0
 40
0.0
 40
0.0
 40
0.6837814517460511
 40
1.0
 40
1.0
 40
1.0
 40
1.0
 10
-297.9999999999998
 20
295.5478477536238
 30
0.0
 10
-297.5404492219899
 20
295.5710739243812
 30
0.0
 10
-296.8683766221317
 20
295.6050411674206
 30
0.0
 10
-296.208625531947
 20
295.7515264045866
 30
0.0
 10
-295.9999999999998
 20
295.7978477536239
 30
0.0
  0
LINE
  5
15A
330
1F
100
AcDbEntity
  8
0
  6
SLD-Сплошная
 62
     7
370
    35
100
AcDbLine
 10
-296.0
 20
298.9811433749
 30
0.0
 11
-296.0
 21
295.7978477536
 31
0.0
  0
SPLINE
  5
15B
330
1F
100
AcDbEntity
  8
0
  6
SLD-Сплошная
 62
     7
370
    35
100
AcDbSpline
210
0.0
220
0.0
230
1.0
 70
    24
 71
     3
 72
     9
 73
     5
 74
     0
 42
0.000000001
 43
0.00000001
 40
0.0
 40
0.0
 40
0.0
 40
0.0
 40
0.8037424145840063
 40
1.0
 40
1.0
 40
1.0
 40
1.0
 10
-295.9999999999998
 20
295.5478477536238
 30
0.0
 10
-295.9999999999998
 20
295.5796680793009
 30
0.0
 10
-295.9999999999998
 20
295.6192582827038
 30
0.0
 10
-295.9999999999998
 20
295.7685484298237
 30
0.0
 10
-295.9999999999998
 20
295.7978477536239
 30
0.0
  0
LINE
  5
15C
330
1F
100
AcDbEntity
  8
0
  6
SLD-Сплошная
 62
     7
370
    35
100
AcDbLine
 10
-296.0
 20
295.5478477536
 30
0.0
 11
-298.0
 21
295.5478477536
 31
0.0
  0
SPLINE
  5
15D
330
1F
100
AcDbEntity
  8
0
  6
SLD-Сплошная
 62
     7
370
    35
100
AcDbSpline
210
0.0
220
0.0
230
1.0
 70
    24
 71
     3
 72
     9
 73
     5
 74
     0
 42
0.000000001
 43
0.00000001
 40
0.0
 40
0.0
 40
0.0
 40
0.0
 40
0.8037424145840146
 40
1.0
 40
1.0
 40
1.0
 40
1.0
 10
-303.9999999999998
 20
295.5478477536239
 30
0.0
 10
-303.9999999999998
 20
295.5796680793009
 30
0.0
 10
-303.9999999999998
 20
295.6192582827039
 30
0.0
 10
-303.9999999999998
 20
295.7685484298237
 30
0.0
 10
-303.9999999999998
 20
295.7978477536239
 30
0.0
  0
LINE
  5
15E
330
1F
100
AcDbEntity
  8
0
  6
SLD-Сплошная
 62
     7
370
    35
100
AcDbLine
 10
-304.0
 20
295.5478477536
 30
0.0
 11
-302.0
 21
295.5478477536
 31
0.0
  0
SPLINE
  5
15F
330
1F
100
AcDbEntity
  8
0
  6
SLD-Сплошная
 62
     7
370
    35
100
AcDbSpline
210
0.0
220
0.0
230
1.0
 70
     8
 71
     3
 72
    12
 73
     8
 74
     0
 42
0.000000001
 43
0.00000001
 40
0.0
 40
0.0
 40
0.0
 40
0.0
 40
0.2361538550994151
 40
0.4713383997491246
 40
0.7323673701170751
 40
0.9913325952635383
 40
1.0
 40
1.0
 40
1.0
 40
1.0
 10
-496.949616490358
 20
304.4881213825051
 30
0.0
 10
-496.947217987669
 20
304.4549272856264
 30
0.0
 10
-496.9424308271174
 20
304.3886753394223
 30
0.0
 10
-496.9072001260432
 20
304.2980755813053
 30
0.0
 10
-496.8564229137102
 20
304.2240860852919
 30
0.0
 10
-496.8125792788893
 20
304.1888655434956
 30
0.0
 10
-496.7893537392974
 20
304.1759502292628
 30
0.0
 10
-496.7886015696089
 20
304.1755319609231
 30
0.0
  0
SPLINE
  5
160
330
1F
100
AcDbEntity
  8
0
  6
SLD-Сплошная
 62
     7
370
    35
100
AcDbSpline
210
0.0
220
0.0
230
1.0
 70
     8
 71
     3
 72
    12
 73
     8
 74
     0
 42
0.000000001
 43
0.00000001
 40
0.0
 40
0.0
 40
0.0
 40
0.0
 40
0.2361538550994176
 40
0.4713383997491349
 40
0.7323673701170901
 40
0.9913325952635497
 40
1.0
 40
1.0
 40
1.0
 40
1.0
 10
-501.4783678555543
 20
304.4881213825051
 30
0.0
 10
-501.4795302894797
 20
304.4549272856264
 30
0.0
 10
-501.4818503860367
 20
304.3886753394224
 30
0.0
 10
-501.4989249393945
 20
304.2980755813053
 30
0.0
 10
-501.5235341068224
 20
304.2240860852924
 30
0.0
 10
-501.5447829170733
 20
304.1888655434942
 30
0.0
 10
-501.5560391709354
 20
304.1759502292628
 30
0.0
 10
-501.5564037098486
 20
304.1755319609231
 30
0.0
  0
LINE
  5
161
330
1F
100
AcDbEntity
  8
0
  6
SLD-Сплошная
 62
     7
370
    35
100
AcDbLine
 10
-501.4783678556
 20
307.9905821637
 30
0.0
 11
-499.213992173
 21
308.3478477536
 31
0.0
  0
SPLINE
  5
162
330
1F
100
AcDbEntity
  8
0
  6
SLD-Сплошная
 62
     7
370
    35
100
AcDbSpline
210
0.0
220
0.0
230
1.0
 70
     8
 71
     3
 72
     9
 73
     5
 74
     0
 42
0.000000001
 43
0.00000001
 40
0.0
 40
0.0
 40
0.0
 40
0.0
 40
0.0701852045454424
 40
1.0
 40
1.0
 40
1.0
 40
1.0
 10
-499.2139921729561
 20
308.3478477536239
 30
0.0
 10
-499.1603248380756
 20
308.3474910174743
 30
0.0
 10
-498.3956717288028
 20
308.3424082346876
 30
0.0
 10
-497.6463484041756
 20
308.1600974389571
 30
0.0
 10
-496.9496164903581
 20
307.9905821637157
 30
0.0
  0
LINE
  5
163
330
1F
100
AcDbEntity
  8
0
  6
SLD-Сплошная
 62
     7
370
    35
100
AcDbLine
 10
-496.9496164904
 20
304.4881213825
 30
0.0
 11
-496.9496164904
 21
307.9905821637
 31
0.0
  0
LINE
  5
164
330
1F
100
AcDbEntity
  8
0
  6
SLD-Сплошная
 62
     7
370
    35
100
AcDbLine
 10
-501.4783678556
 20
304.4881213825
 30
0.0
 11
-501.4783678556
 21
307.9905821637
 31
0.0
  0
SPLINE
  5
165
330
1F
100
AcDbEntity
  8
0
  6
SLD-Сплошная
 62
     7
370
    35
100
AcDbSpline
210
0.0
220
0.0
230
1.0
 70
     8
 71
     3
 72
     9
 73
     5
 74
     0
 42
0.000000001
 43
0.00000001
 40
0.0
 40
0.0
 40
0.0
 40
0.0
 40
0.2210460768286581
 40
0.9999999999999999
 40
0.9999999999999999
 40
0.9999999999999999
 40
0.9999999999999999
 10
-503.0035596103755
 20
308.3478477536239
 30
0.0
 10
-502.8894943535021
 20
308.3442655033141
 30
0.0
 10
-502.3734695567271
 20
308.3280596047017
 30
0.0
 10
-501.8703077325146
 20
308.1383540498864
 30
0.0
 10
-501.4783678555543
 20
307.9905821637157
 30
0.0
  0
LINE
  5
166
330
1F
100
AcDbEntity
  8
0
  6
SLD-Сплошная
 62
     7
370
    35
100
AcDbLine
 10
-503.0035596104
 20
308.3478477536
 30
0.0
 11
-499.213992173
 21
308.3478477536
 31
0.0
  0
LINE
  5
167
330
1F
100
AcDbEntity
  8
0
  6
SLD-Сплошная
 62
     7
370
    35
100
AcDbLine
 10
-496.9496164904
 20
307.9905821637
 30
0.0
 11
-496.2104325626
 21
308.3478477536
 31
0.0
  0
LINE
  5
168
330
1F
100
AcDbEntity
  8
0
  6
SLD-Сплошная
 62
     7
370
    35
100
AcDbLine
 10
-496.2104325626
 20
308.3478477536
 30
0.0
 11
-499.213992173
 21
308.3478477536
 31
0.0
  0
SPLINE
  5
169
330
1F
100
AcDbEntity
  8
0
  6
SLD-Сплошная
 62
     7
370
    35
100
AcDbSpline
210
0.0
220
0.0
230
1.0
 70
     8
 71
     3
 72
    12
 73
     8
 74
     0
 42
0.000000001
 43
0.00000001
 40
0.0
 40
0.0
 40
0.0
 40
0.0
 40
0.2361538550994253
 40
0.4713383997491399
 40
0.732367370117108
 40
0.9913325952635542
 40
1.0
 40
1.0
 40
1.0
 40
1.0
 10
-504.5287513651966
 20
304.4881213825051
 30
0.0
 10
-504.532312301811
 20
304.4549272856265
 30
0.0
 10
-504.5394195589196
 20
304.3886753394223
 30
0.0
 10
-504.5917248133517
 20
304.2980755813052
 30
0.0
 10
-504.6671111931121
 20
304.2240860852925
 30
0.0
 10
-504.7322036381852
 20
304.1888655434943
 30
0.0
 10
-504.7666854316382
 20
304.1759502292629
 30
0.0
 10
-504.76780214024
 20
304.1755319609231
 30
0.0
  0
SPLINE
  5
16A
330
1F
100
AcDbEntity
  8
0
  6
SLD-Сплошная
 62
     7
370
    35
100
AcDbSpline
210
0.0
220
0.0
230
1.0
 70
     8
 71
     3
 72
     9
 73
     5
 74
     0
 42
0.000000001
 43
0.00000001
 40
0.0
 40
0.0
 40
0.0
 40
0.0
 40
0.1972242043131774
 40
1.0
 40
1.0
 40
1.0
 40
1.0
 10
-504.5287513651966
 20
307.9905821637157
 30
0.0
 10
-504.4308375446973
 20
308.0322203206293
 30
0.0
 10
-503.9343780921657
 20
308.2433412479949
 30
0.0
 10
-503.4180529429058
 20
308.3013110220949
 30
0.0
 10
-503.0035596103755
 20
308.3478477536239
 30
0.0
  0
LINE
  5
16B
330
1F
100
AcDbEntity
  8
0
  6
SLD-Сплошная
 62
     7
370
    35
100
AcDbLine
 10
-504.5287513652
 20
304.4881213825
 30
0.0
 11
-504.5287513652
 21
307.9905821637
 31
0.0
  0
SPLINE
  5
16C
330
1F
100
AcDbEntity
  8
0
  6
SLD-Сплошная
 62
     7
370
    35
100
AcDbSpline
210
0.0
220
0.0
230
1.0
 70
     8
 71
     3
 72
    10
 73
     6
 74
     0
 42
0.000000001
 43
0.00000001
 40
0.0
 40
0.0
 40
0.0
 40
0.0
 40
0.2602598142129873
 40
0.6293692668822726
 40
0.9999999999999999
 40
0.9999999999999999
 40
0.9999999999999999
 40
0.9999999999999999
 10
-495.3578307971124
 20
304.2557644926208
 30
0.0
 10
-495.3750087778794
 20
304.2710988278554
 30
0.0
 10
-495.4165491639529
 20
304.30818084666
 30
0.0
 10
-495.4601580770812
 20
304.389154082637
 30
0.0
 10
-495.4675467173011
 20
304.4550870853344
 30
0.0
 10
-495.4712486348041
 20
304.4881213825051
 30
0.0
  0
LINE
  5
16D
330
1F
100
AcDbEntity
  8
0
  6
SLD-Сплошная
 62
     7
370
    35
100
AcDbLine
 10
-501.8772247565
 20
291.3928477536
 30
0.0
 11
-497.5
 21
291.3928477536
 31
0.0
  0
LINE
  5
16E
330
1F
100
AcDbEntity
  8
0
  6
SLD-Сплошная
 62
     7
370
    35
100
AcDbLine
 10
-502.5
 20
291.3928477536
 30
0.0
 11
-501.8772247565
 21
291.3928477536
 31
0.0
  0
LINE
  5
16F
330
1F
100
AcDbEntity
  8
0
  6
SLD-Сплошная
 62
     7
370
    35
100
AcDbLine
 10
-501.5430787498
 20
290.9478477536
 30
0.0
 11
-497.945
 21
290.9478477536
 31
0.0
  0
LINE
  5
170
330
1F
100
AcDbEntity
  8
0
  6
SLD-Сплошная
 62
     7
370
    35
100
AcDbLine
 10
-502.055
 20
290.9478477536
 30
0.0
 11
-501.5430787498
 21
290.9478477536
 31
0.0
  0
SPLINE
  5
171
330
1F
100
AcDbEntity
  8
0
  6
SLD-Сплошная
 62
     7
370
    35
100
AcDbSpline
210
0.0
220
0.0
230
1.0
 70
     8
 71
     3
 72
     9
 73
     5
 74
     0
 42
0.000000001
 43
0.00000001
 40
0.0
 40
0.0
 40
0.0
 40
0.0
 40
0.1199201001169607
 40
1.0
 40
1.0
 40
1.0
 40
1.0
 10
-496.210432562581
 20
308.3478477536239
 30
0.0
 10
-496.1929075482859
 20
308.3476972313543
 30
0.0
 10
-496.0467684583585
 20
308.346442043364
 30
0.0
 10
-495.9035581951271
 20
308.2414612553488
 30
0.0
 10
-495.7775217210003
 20
308.1490697739428
 30
0.0
  0
LINE
  5
172
330
1F
100
AcDbEntity
  8
0
  6
SLD-Сплошная
 62
     7
370
    35
100
AcDbLine
 10
-495.4712486348
 20
304.4881213825
 30
0.0
 11
-495.4712486348
 21
307.9905821637
 31
0.0
  0
LINE
  5
173
330
1F
100
AcDbEntity
  8
0
  6
SLD-Сплошная
 62
     7
370
    35
100
AcDbLine
 10
-504.222478279
 20
308.1490697739
 30
0.0
 11
-504.5287513652
 21
307.9905821637
 31
0.0
  0
LINE
  5
174
330
1F
100
AcDbEntity
  8
0
  6
SLD-Сплошная
 62
     7
370
    35
100
AcDbLine
 10
-503.0035596104
 20
308.3478477536
 30
0.0
 11
-504.0
 21
308.3478477536
 31
0.0
  0
LINE
  5
175
330
1F
100
AcDbEntity
  8
0
  6
SLD-Сплошная
 62
     7
370
    35
100
AcDbLine
 10
-496.0
 20
308.3478477536
 30
0.0
 11
-496.2104325626
 21
308.3478477536
 31
0.0
  0
SPLINE
  5
176
330
1F
100
AcDbEntity
  8
0
  6
SLD-Сплошная
 62
     7
370
    35
100
AcDbSpline
210
0.0
220
0.0
230
1.0
 70
     8
 71
     3
 72
    12
 73
     8
 74
     0
 42
0.000000001
 43
0.00000001
 40
0.0
 40
0.0
 40
0.0
 40
0.0
 40
0.2361538550994066
 40
0.471338399749147
 40
0.7323673701170966
 40
0.9913325952635588
 40
1.0
 40
1.0
 40
1.0
 40
1.0
 10
103.050383509642
 20
304.4881213825052
 30
0.0
 10
103.052782012331
 20
304.4549272856265
 30
0.0
 10
103.0575691728823
 20
304.3886753394223
 30
0.0
 10
103.0927998739566
 20
304.2980755813051
 30
0.0
 10
103.14357708629
 20
304.2240860852928
 30
0.0
 10
103.1874207211101
 20
304.1888655434935
 30
0.0
 10
103.2106462607026
 20
304.1759502292629
 30
0.0
 10
103.2113984303911
 20
304.1755319609231
 30
0.0
  0
SPLINE
  5
177
330
1F
100
AcDbEntity
  8
0
  6
SLD-Сплошная
 62
     7
370
    35
100
AcDbSpline
210
0.0
220
0.0
230
1.0
 70
     8
 71
     3
 72
    12
 73
     8
 74
     0
 42
0.000000001
 43
0.00000001
 40
0.0
 40
0.0
 40
0.0
 40
0.0
 40
0.2361538550994164
 40
0.4713383997491294
 40
0.7323673701170701
 40
0.9913325952635398
 40
1.0
 40
1.0
 40
1.0
 40
1.0
 10
98.52163214444565
 20
304.4881213825051
 30
0.0
 10
98.52046971052042
 20
304.4549272856265
 30
0.0
 10
98.51814961396322
 20
304.3886753394224
 30
0.0
 10
98.50107506060546
 20
304.2980755813051
 30
0.0
 10
98.47646589317804
 20
304.2240860852928
 30
0.0
 10
98.45521708292604
 20
304.1888655434938
 30
0.0
 10
98.44396082906471
 20
304.1759502292629
 30
0.0
 10
98.44359629015142
 20
304.1755319609231
 30
0.0
  0
LINE
  5
178
330
1F
100
AcDbEntity
  8
0
  6
SLD-Сплошная
 62
     7
370
    35
100
AcDbLine
 10
98.5216321444
 20
307.9905821637
 30
0.0
 11
100.786007827
 21
308.3478477536
 31
0.0
  0
SPLINE
  5
179
330
1F
100
AcDbEntity
  8
0
  6
SLD-Сплошная
 62
     7
370
    35
100
AcDbSpline
210
0.0
220
0.0
230
1.0
 70
     8
 71
     3
 72
     9
 73
     5
 74
     0
 42
0.000000001
 43
0.00000001
 40
0.0
 40
0.0
 40
0.0
 40
0.0
 40
0.0701852045454369
 40
1.0
 40
1.0
 40
1.0
 40
1.0
 10
100.7860078270438
 20
308.3478477536239
 30
0.0
 10
100.8396751619244
 20
308.3474910174743
 30
0.0
 10
101.6043282711976
 20
308.3424082346883
 30
0.0
 10
102.3536515958245
 20
308.1600974389573
 30
0.0
 10
103.050383509642
 20
307.9905821637157
 30
0.0
  0
LINE
  5
17A
330
1F
100
AcDbEntity
  8
0
  6
SLD-Сплошная
 62
     7
370
    35
100
AcDbLine
 10
103.0503835096
 20
304.4881213825
 30
0.0
 11
103.0503835096
 21
307.9905821637
 31
0.0
  0
LINE
  5
17B
330
1F
100
AcDbEntity
  8
0
  6
SLD-Сплошная
 62
     7
370
    35
100
AcDbLine
 10
98.5216321444
 20
304.4881213825
 30
0.0
 11
98.5216321444
 21
307.9905821637
 31
0.0
  0
SPLINE
  5
17C
330
1F
100
AcDbEntity
  8
0
  6
SLD-Сплошная
 62
     7
370
    35
100
AcDbSpline
210
0.0
220
0.0
230
1.0
 70
     8
 71
     3
 72
     9
 73
     5
 74
     0
 42
0.000000001
 43
0.00000001
 40
0.0
 40
0.0
 40
0.0
 40
0.0
 40
0.2210460768286668
 40
1.0
 40
1.0
 40
1.0
 40
1.0
 10
96.99644038962451
 20
308.3478477536239
 30
0.0
 10
97.11050564649793
 20
308.3442655033141
 30
0.0
 10
97.62653044327274
 20
308.328059604702
 30
0.0
 10
98.12969226748524
 20
308.1383540498865
 30
0.0
 10
98.5216321444457
 20
307.9905821637157
 30
0.0
  0
LINE
  5
17D
330
1F
100
AcDbEntity
  8
0
  6
SLD-Сплошная
 62
     7
370
    35
100
AcDbLine
 10
96.9964403896
 20
308.3478477536
 30
0.0
 11
100.786007827
 21
308.3478477536
 31
0.0
  0
LINE
  5
17E
330
1F
100
AcDbEntity
  8
0
  6
SLD-Сплошная
 62
     7
370
    35
100
AcDbLine
 10
103.0503835096
 20
307.9905821637
 30
0.0
 11
103.7895674374
 21
308.3478477536
 31
0.0
  0
LINE
  5
17F
330
1F
100
AcDbEntity
  8
0
  6
SLD-Сплошная
 62
     7
370
    35
100
AcDbLine
 10
103.7895674374
 20
308.3478477536
 30
0.0
 11
100.786007827
 21
308.3478477536
 31
0.0
  0
SPLINE
  5
180
330
1F
100
AcDbEntity
  8
0
  6
SLD-Сплошная
 62
     7
370
    35
100
AcDbSpline
210
0.0
220
0.0
230
1.0
 70
     8
 71
     3
 72
    12
 73
     8
 74
     0
 42
0.000000001
 43
0.00000001
 40
0.0
 40
0.0
 40
0.0
 40
0.0
 40
0.2361538550994146
 40
0.47133839974915
 40
0.7323673701170594
 40
0.9913325952634939
 40
1.0
 40
1.0
 40
1.0
 40
1.0
 10
95.47124863480339
 20
304.4881213825051
 30
0.0
 10
95.46768769818908
 20
304.4549272856265
 30
0.0
 10
95.4605804410803
 20
304.3886753394223
 30
0.0
 10
95.40827518664835
 20
304.2980755813052
 30
0.0
 10
95.33288880688806
 20
304.2240860852926
 30
0.0
 10
95.26779636181426
 20
304.1888655434937
 30
0.0
 10
95.23331456836182
 20
304.1759502292628
 30
0.0
 10
95.23219785976
 20
304.1755319609231
 30
0.0
  0
SPLINE
  5
181
330
1F
100
AcDbEntity
  8
0
  6
SLD-Сплошная
 62
     7
370
    35
100
AcDbSpline
210
0.0
220
0.0
230
1.0
 70
     8
 71
     3
 72
     9
 73
     5
 74
     0
 42
0.000000001
 43
0.00000001
 40
0.0
 40
0.0
 40
0.0
 40
0.0
 40
0.1972242043131675
 40
1.0
 40
1.0
 40
1.0
 40
1.0
 10
95.47124863480344
 20
307.9905821637157
 30
0.0
 10
95.56916245530277
 20
308.0322203206293
 30
0.0
 10
96.06562190783441
 20
308.243341247995
 30
0.0
 10
96.58194705709417
 20
308.3013110220949
 30
0.0
 10
96.99644038962457
 20
308.3478477536239
 30
0.0
  0
LINE
  5
182
330
1F
100
AcDbEntity
  8
0
  6
SLD-Сплошная
 62
     7
370
    35
100
AcDbLine
 10
95.4712486348
 20
304.4881213825
 30
0.0
 11
95.4712486348
 21
307.9905821637
 31
0.0
  0
SPLINE
  5
183
330
1F
100
AcDbEntity
  8
0
  6
SLD-Сплошная
 62
     7
370
    35
100
AcDbSpline
210
0.0
220
0.0
230
1.0
 70
     8
 71
     3
 72
    10
 73
     6
 74
     0
 42
0.000000001
 43
0.00000001
 40
0.0
 40
0.0
 40
0.0
 40
0.0
 40
0.2602598142132218
 40
0.6293692668823485
 40
1.0
 40
1.0
 40
1.0
 40
1.0
 10
104.6421692028876
 20
304.2557644926208
 30
0.0
 10
104.6249912221207
 20
304.2710988278554
 30
0.0
 10
104.583450836047
 20
304.3081808466599
 30
0.0
 10
104.5398419229189
 20
304.3891540826372
 30
0.0
 10
104.532453282699
 20
304.4550870853345
 30
0.0
 10
104.5287513651959
 20
304.4881213825051
 30
0.0
  0
LINE
  5
184
330
1F
100
AcDbEntity
  8
0
  6
SLD-Сплошная
 62
     7
370
    35
100
AcDbLine
 10
98.1227752435
 20
291.3928477536
 30
0.0
 11
102.5
 21
291.3928477536
 31
0.0
  0
LINE
  5
185
330
1F
100
AcDbEntity
  8
0
  6
SLD-Сплошная
 62
     7
370
    35
100
AcDbLine
 10
97.5
 20
291.3928477536
 30
0.0
 11
98.1227752435
 21
291.3928477536
 31
0.0
  0
LINE
  5
186
330
1F
100
AcDbEntity
  8
0
  6
SLD-Сплошная
 62
     7
370
    35
100
AcDbLine
 10
98.4569212502
 20
290.9478477536
 30
0.0
 11
102.055
 21
290.9478477536
 31
0.0
  0
LINE
  5
187
330
1F
100
AcDbEntity
  8
0
  6
SLD-Сплошная
 62
     7
370
    35
100
AcDbLine
 10
97.945
 20
290.9478477536
 30
0.0
 11
98.4569212502
 21
290.9478477536
 31
0.0
  0
SPLINE
  5
188
330
1F
100
AcDbEntity
  8
0
  6
SLD-Сплошная
 62
     7
370
    35
100
AcDbSpline
210
0.0
220
0.0
230
1.0
 70
     8
 71
     3
 72
     9
 73
     5
 74
     0
 42
0.000000001
 43
0.00000001
 40
0.0
 40
0.0
 40
0.0
 40
0.0
 40
0.1199201001169535
 40
1.0
 40
1.0
 40
1.0
 40
1.0
 10
103.789567437419
 20
308.3478477536239
 30
0.0
 10
103.8070924517142
 20
308.3476972313544
 30
0.0
 10
103.9532315416416
 20
308.3464420433641
 30
0.0
 10
104.096441804873
 20
308.2414612553488
 30
0.0
 10
104.2224782789999
 20
308.1490697739428
 30
0.0
  0
LINE
  5
189
330
1F
100
AcDbEntity
  8
0
  6
SLD-Сплошная
 62
     7
370
    35
100
AcDbLine
 10
104.5287513652
 20
304.4881213825
 30
0.0
 11
104.5287513652
 21
307.9905821637
 31
0.0
  0
LINE
  5
18A
330
1F
100
AcDbEntity
  8
0
  6
SLD-Сплошная
 62
     7
370
    35
100
AcDbLine
 10
95.777521721
 20
308.1490697739
 30
0.0
 11
95.4712486348
 21
307.9905821637
 31
0.0
  0
LINE
  5
18B
330
1F
100
AcDbEntity
  8
0
  6
SLD-Сплошная
 62
     7
370
    35
100
AcDbLine
 10
96.9964403896
 20
308.3478477536
 30
0.0
 11
96.0
 21
308.3478477536
 31
0.0
  0
LINE
  5
18C
330
1F
100
AcDbEntity
  8
0
  6
SLD-Сплошная
 62
     7
370
    35
100
AcDbLine
 10
104.0
 20
308.3478477536
 30
0.0
 11
103.7895674374
 21
308.3478477536
 31
0.0
  0
SPLINE
  5
18D
330
1F
100
AcDbEntity
  8
0
  6
SLD-Сплошная
 62
     7
370
    35
100
AcDbSpline
210
0.0
220
0.0
230
1.0
 70
     8
 71
     3
 72
    12
 73
     8
 74
     0
 42
0.000000001
 43
0.00000001
 40
0.0
 40
0.0
 40
0.0
 40
0.0
 40
0.2361538550994066
 40
0.471338399749147
 40
0.7323673701170966
 40
0.9913325952635588
 40
1.0
 40
1.0
 40
1.0
 40
1.0
 10
-96.94961649035805
 20
304.4881213825052
 30
0.0
 10
-96.94721798766903
 20
304.4549272856265
 30
0.0
 10
-96.94243082711768
 20
304.3886753394223
 30
0.0
 10
-96.90720012604321
 20
304.2980755813051
 30
0.0
 10
-96.85642291371049
 20
304.2240860852928
 30
0.0
 10
-96.81257927888903
 20
304.1888655434935
 30
0.0
 10
-96.78935373929754
 20
304.1759502292629
 30
0.0
 10
-96.788601569609
 20
304.1755319609231
 30
0.0
  0
SPLINE
  5
18E
330
1F
100
AcDbEntity
  8
0
  6
SLD-Сплошная
 62
     7
370
    35
100
AcDbSpline
210
0.0
220
0.0
230
1.0
 70
     8
 71
     3
 72
    12
 73
     8
 74
     0
 42
0.000000001
 43
0.00000001
 40
0.0
 40
0.0
 40
0.0
 40
0.0
 40
0.2361538550994164
 40
0.4713383997491294
 40
0.7323673701170701
 40
0.9913325952635398
 40
1.0
 40
1.0
 40
1.0
 40
1.0
 10
-101.4783678555544
 20
304.4881213825051
 30
0.0
 10
-101.4795302894797
 20
304.4549272856265
 30
0.0
 10
-101.4818503860369
 20
304.3886753394224
 30
0.0
 10
-101.4989249393947
 20
304.2980755813051
 30
0.0
 10
-101.5235341068219
 20
304.2240860852928
 30
0.0
 10
-101.5447829170744
 20
304.1888655434938
 30
0.0
 10
-101.5560391709354
 20
304.1759502292629
 30
0.0
 10
-101.5564037098486
 20
304.1755319609231
 30
0.0
  0
LINE
  5
18F
330
1F
100
AcDbEntity
  8
0
  6
SLD-Сплошная
 62
     7
370
    35
100
AcDbLine
 10
-101.4783678556
 20
307.9905821637
 30
0.0
 11
-99.213992173
 21
308.3478477536
 31
0.0
  0
SPLINE
  5
190
330
1F
100
AcDbEntity
  8
0
  6
SLD-Сплошная
 62
     7
370
    35
100
AcDbSpline
210
0.0
220
0.0
230
1.0
 70
     8
 71
     3
 72
     9
 73
     5
 74
     0
 42
0.000000001
 43
0.00000001
 40
0.0
 40
0.0
 40
0.0
 40
0.0
 40
0.0701852045454369
 40
1.0
 40
1.0
 40
1.0
 40
1.0
 10
-99.21399217295624
 20
308.3478477536239
 30
0.0
 10
-99.16032483807562
 20
308.3474910174743
 30
0.0
 10
-98.39567172880265
 20
308.3424082346883
 30
0.0
 10
-97.64634840417557
 20
308.1600974389573
 30
0.0
 10
-96.94961649035811
 20
307.9905821637157
 30
0.0
  0
LINE
  5
191
330
1F
100
AcDbEntity
  8
0
  6
SLD-Сплошная
 62
     7
370
    35
100
AcDbLine
 10
-96.9496164904
 20
304.4881213825
 30
0.0
 11
-96.9496164904
 21
307.9905821637
 31
0.0
  0
LINE
  5
192
330
1F
100
AcDbEntity
  8
0
  6
SLD-Сплошная
 62
     7
370
    35
100
AcDbLine
 10
-101.4783678556
 20
304.4881213825
 30
0.0
 11
-101.4783678556
 21
307.9905821637
 31
0.0
  0
SPLINE
  5
193
330
1F
100
AcDbEntity
  8
0
  6
SLD-Сплошная
 62
     7
370
    35
100
AcDbSpline
210
0.0
220
0.0
230
1.0
 70
     8
 71
     3
 72
     9
 73
     5
 74
     0
 42
0.000000001
 43
0.00000001
 40
0.0
 40
0.0
 40
0.0
 40
0.0
 40
0.2210460768286668
 40
1.0
 40
1.0
 40
1.0
 40
1.0
 10
-103.0035596103755
 20
308.3478477536239
 30
0.0
 10
-102.8894943535021
 20
308.3442655033141
 30
0.0
 10
-102.3734695567273
 20
308.328059604702
 30
0.0
 10
-101.8703077325148
 20
308.1383540498865
 30
0.0
 10
-101.4783678555544
 20
307.9905821637157
 30
0.0
  0
LINE
  5
194
330
1F
100
AcDbEntity
  8
0
  6
SLD-Сплошная
 62
     7
370
    35
100
AcDbLine
 10
-103.0035596104
 20
308.3478477536
 30
0.0
 11
-99.213992173
 21
308.3478477536
 31
0.0
  0
LINE
  5
195
330
1F
100
AcDbEntity
  8
0
  6
SLD-Сплошная
 62
     7
370
    35
100
AcDbLine
 10
-96.9496164904
 20
307.9905821637
 30
0.0
 11
-96.2104325626
 21
308.3478477536
 31
0.0
  0
LINE
  5
196
330
1F
100
AcDbEntity
  8
0
  6
SLD-Сплошная
 62
     7
370
    35
100
AcDbLine
 10
-96.2104325626
 20
308.3478477536
 30
0.0
 11
-99.213992173
 21
308.3478477536
 31
0.0
  0
SPLINE
  5
197
330
1F
100
AcDbEntity
  8
0
  6
SLD-Сплошная
 62
     7
370
    35
100
AcDbSpline
210
0.0
220
0.0
230
1.0
 70
     8
 71
     3
 72
    12
 73
     8
 74
     0
 42
0.000000001
 43
0.00000001
 40
0.0
 40
0.0
 40
0.0
 40
0.0
 40
0.2361538550994146
 40
0.47133839974915
 40
0.7323673701170594
 40
0.9913325952634939
 40
1.0
 40
1.0
 40
1.0
 40
1.0
 10
-104.5287513651967
 20
304.4881213825051
 30
0.0
 10
-104.532312301811
 20
304.4549272856265
 30
0.0
 10
-104.5394195589197
 20
304.3886753394223
 30
0.0
 10
-104.5917248133518
 20
304.2980755813052
 30
0.0
 10
-104.6671111931119
 20
304.2240860852926
 30
0.0
 10
-104.7322036381861
 20
304.1888655434937
 30
0.0
 10
-104.7666854316383
 20
304.1759502292628
 30
0.0
 10
-104.7678021402401
 20
304.1755319609231
 30
0.0
  0
SPLINE
  5
198
330
1F
100
AcDbEntity
  8
0
  6
SLD-Сплошная
 62
     7
370
    35
100
AcDbSpline
210
0.0
220
0.0
230
1.0
 70
     8
 71
     3
 72
     9
 73
     5
 74
     0
 42
0.000000001
 43
0.00000001
 40
0.0
 40
0.0
 40
0.0
 40
0.0
 40
0.1972242043131675
 40
1.0
 40
1.0
 40
1.0
 40
1.0
 10
-104.5287513651966
 20
307.9905821637157
 30
0.0
 10
-104.4308375446973
 20
308.0322203206293
 30
0.0
 10
-103.9343780921658
 20
308.243341247995
 30
0.0
 10
-103.4180529429059
 20
308.3013110220949
 30
0.0
 10
-103.0035596103755
 20
308.3478477536239
 30
0.0
  0
LINE
  5
199
330
1F
100
AcDbEntity
  8
0
  6
SLD-Сплошная
 62
     7
370
    35
100
AcDbLine
 10
-104.5287513652
 20
304.4881213825
 30
0.0
 11
-104.5287513652
 21
307.9905821637
 31
0.0
  0
SPLINE
  5
19A
330
1F
100
AcDbEntity
  8
0
  6
SLD-Сплошная
 62
     7
370
    35
100
AcDbSpline
210
0.0
220
0.0
230
1.0
 70
     8
 71
     3
 72
    10
 73
     6
 74
     0
 42
0.000000001
 43
0.00000001
 40
0.0
 40
0.0
 40
0.0
 40
0.0
 40
0.2602598142129786
 40
0.629369266882276
 40
1.0
 40
1.0
 40
1.0
 40
1.0
 10
-95.35783079711247
 20
304.2557644926208
 30
0.0
 10
-95.37500877787942
 20
304.2710988278555
 30
0.0
 10
-95.41654916395298
 20
304.30818084666
 30
0.0
 10
-95.4601580770813
 20
304.389154082637
 30
0.0
 10
-95.46754671730123
 20
304.4550870853344
 30
0.0
 10
-95.47124863480417
 20
304.4881213825051
 30
0.0
  0
LINE
  5
19B
330
1F
100
AcDbEntity
  8
0
  6
SLD-Сплошная
 62
     7
370
    35
100
AcDbLine
 10
-101.8772247565
 20
291.3928477536
 30
0.0
 11
-97.5
 21
291.3928477536
 31
0.0
  0
LINE
  5
19C
330
1F
100
AcDbEntity
  8
0
  6
SLD-Сплошная
 62
     7
370
    35
100
AcDbLine
 10
-102.5
 20
291.3928477536
 30
0.0
 11
-101.8772247565
 21
291.3928477536
 31
0.0
  0
LINE
  5
19D
330
1F
100
AcDbEntity
  8
0
  6
SLD-Сплошная
 62
     7
370
    35
100
AcDbLine
 10
-101.5430787498
 20
290.9478477536
 30
0.0
 11
-97.945
 21
290.9478477536
 31
0.0
  0
LINE
  5
19E
330
1F
100
AcDbEntity
  8
0
  6
SLD-Сплошная
 62
     7
370
    35
100
AcDbLine
 10
-102.055
 20
290.9478477536
 30
0.0
 11
-101.5430787498
 21
290.9478477536
 31
0.0
  0
SPLINE
  5
19F
330
1F
100
AcDbEntity
  8
0
  6
SLD-Сплошная
 62
     7
370
    35
100
AcDbSpline
210
0.0
220
0.0
230
1.0
 70
     8
 71
     3
 72
     9
 73
     5
 74
     0
 42
0.000000001
 43
0.00000001
 40
0.0
 40
0.0
 40
0.0
 40
0.0
 40
0.1199201001169664
 40
1.0
 40
1.0
 40
1.0
 40
1.0
 10
-96.2104325625811
 20
308.3478477536239
 30
0.0
 10
-96.19290754828597
 20
308.3476972313545
 30
0.0
 10
-96.04676845835863
 20
308.3464420433639
 30
0.0
 10
-95.90355819512725
 20
308.2414612553487
 30
0.0
 10
-95.7775217210003
 20
308.1490697739428
 30
0.0
  0
LINE
  5
1A0
330
1F
100
AcDbEntity
  8
0
  6
SLD-Сплошная
 62
     7
370
    35
100
AcDbLine
 10
-95.4712486348
 20
304.4881213825
 30
0.0
 11
-95.4712486348
 21
307.9905821637
 31
0.0
  0
LINE
  5
1A1
330
1F
100
AcDbEntity
  8
0
  6
SLD-Сплошная
 62
     7
370
    35
100
AcDbLine
 10
-104.222478279
 20
308.1490697739
 30
0.0
 11
-104.5287513652
 21
307.9905821637
 31
0.0
  0
LINE
  5
1A2
330
1F
100
AcDbEntity
  8
0
  6
SLD-Сплошная
 62
     7
370
    35
100
AcDbLine
 10
-103.0035596104
 20
308.3478477536
 30
0.0
 11
-104.0
 21
308.3478477536
 31
0.0
  0
LINE
  5
1A3
330
1F
100
AcDbEntity
  8
0
  6
SLD-Сплошная
 62
     7
370
    35
100
AcDbLine
 10
-96.0
 20
308.3478477536
 30
0.0
 11
-96.2104325626
 21
308.3478477536
 31
0.0
  0
SPLINE
  5
1A4
330
1F
100
AcDbEntity
  8
0
  6
SLD-Сплошная
 62
     7
370
    35
100
AcDbSpline
210
0.0
220
0.0
230
1.0
 70
     8
 71
     3
 72
    12
 73
     8
 74
     0
 42
0.000000001
 43
0.00000001
 40
0.0
 40
0.0
 40
0.0
 40
0.0
 40
0.236153855099431
 40
0.4713383997490802
 40
0.7323673701170224
 40
0.9913325952634772
 40
1.0
 40
1.0
 40
1.0
 40
1.0
 10
503.050383509642
 20
304.4881213825052
 30
0.0
 10
503.0527820123311
 20
304.4549272856265
 30
0.0
 10
503.0575691728827
 20
304.3886753394224
 30
0.0
 10
503.0927998739565
 20
304.2980755813051
 30
0.0
 10
503.1435770862899
 20
304.2240860852925
 30
0.0
 10
503.1874207211105
 20
304.1888655434944
 30
0.0
 10
503.2106462607026
 20
304.1759502292628
 30
0.0
 10
503.2113984303911
 20
304.1755319609231
 30
0.0
  0
SPLINE
  5
1A5
330
1F
100
AcDbEntity
  8
0
  6
SLD-Сплошная
 62
     7
370
    35
100
AcDbSpline
210
0.0
220
0.0
230
1.0
 70
     8
 71
     3
 72
    12
 73
     8
 74
     0
 42
0.000000001
 43
0.00000001
 40
0.0
 40
0.0
 40
0.0
 40
0.0
 40
0.2361538550994058
 40
0.4713383997491362
 40
0.7323673701170734
 40
0.9913325952635398
 40
0.9999999999999999
 40
0.9999999999999999
 40
0.9999999999999999
 40
0.9999999999999999
 10
498.5216321444457
 20
304.4881213825051
 30
0.0
 10
498.5204697105203
 20
304.4549272856265
 30
0.0
 10
498.5181496139634
 20
304.3886753394224
 30
0.0
 10
498.5010750606055
 20
304.2980755813052
 30
0.0
 10
498.476465893178
 20
304.2240860852922
 30
0.0
 10
498.4552170829253
 20
304.1888655434947
 30
0.0
 10
498.4439608290647
 20
304.1759502292628
 30
0.0
 10
498.4435962901514
 20
304.1755319609231
 30
0.0
  0
LINE
  5
1A6
330
1F
100
AcDbEntity
  8
0
  6
SLD-Сплошная
 62
     7
370
    35
100
AcDbLine
 10
498.5216321444
 20
307.9905821637
 30
0.0
 11
500.786007827
 21
308.3478477536
 31
0.0
  0
SPLINE
  5
1A7
330
1F
100
AcDbEntity
  8
0
  6
SLD-Сплошная
 62
     7
370
    35
100
AcDbSpline
210
0.0
220
0.0
230
1.0
 70
     8
 71
     3
 72
     9
 73
     5
 74
     0
 42
0.000000001
 43
0.00000001
 40
0.0
 40
0.0
 40
0.0
 40
0.0
 40
0.0701852045454153
 40
1.0
 40
1.0
 40
1.0
 40
1.0
 10
500.7860078270439
 20
308.3478477536239
 30
0.0
 10
500.8396751619245
 20
308.3474910174743
 30
0.0
 10
501.6043282711971
 20
308.3424082346878
 30
0.0
 10
502.3536515958244
 20
308.1600974389572
 30
0.0
 10
503.0503835096419
 20
307.9905821637157
 30
0.0
  0
LINE
  5
1A8
330
1F
100
AcDbEntity
  8
0
  6
SLD-Сплошная
 62
     7
370
    35
100
AcDbLine
 10
503.0503835096
 20
304.4881213825
 30
0.0
 11
503.0503835096
 21
307.9905821637
 31
0.0
  0
LINE
  5
1A9
330
1F
100
AcDbEntity
  8
0
  6
SLD-Сплошная
 62
     7
370
    35
100
AcDbLine
 10
498.5216321444
 20
304.4881213825
 30
0.0
 11
498.5216321444
 21
307.9905821637
 31
0.0
  0
SPLINE
  5
1AA
330
1F
100
AcDbEntity
  8
0
  6
SLD-Сплошная
 62
     7
370
    35
100
AcDbSpline
210
0.0
220
0.0
230
1.0
 70
     8
 71
     3
 72
     9
 73
     5
 74
     0
 42
0.000000001
 43
0.00000001
 40
0.0
 40
0.0
 40
0.0
 40
0.0
 40
0.2210460768286511
 40
1.0
 40
1.0
 40
1.0
 40
1.0
 10
496.9964403896245
 20
308.3478477536239
 30
0.0
 10
497.1105056464978
 20
308.3442655033141
 30
0.0
 10
497.6265304432724
 20
308.3280596047019
 30
0.0
 10
498.1296922674852
 20
308.1383540498865
 30
0.0
 10
498.5216321444457
 20
307.9905821637157
 30
0.0
  0
LINE
  5
1AB
330
1F
100
AcDbEntity
  8
0
  6
SLD-Сплошная
 62
     7
370
    35
100
AcDbLine
 10
496.9964403896
 20
308.3478477536
 30
0.0
 11
500.786007827
 21
308.3478477536
 31
0.0
  0
LINE
  5
1AC
330
1F
100
AcDbEntity
  8
0
  6
SLD-Сплошная
 62
     7
370
    35
100
AcDbLine
 10
503.0503835096
 20
307.9905821637
 30
0.0
 11
503.7895674374
 21
308.3478477536
 31
0.0
  0
LINE
  5
1AD
330
1F
100
AcDbEntity
  8
0
  6
SLD-Сплошная
 62
     7
370
    35
100
AcDbLine
 10
503.7895674374
 20
308.3478477536
 30
0.0
 11
500.786007827
 21
308.3478477536
 31
0.0
  0
SPLINE
  5
1AE
330
1F
100
AcDbEntity
  8
0
  6
SLD-Сплошная
 62
     7
370
    35
100
AcDbSpline
210
0.0
220
0.0
230
1.0
 70
     8
 71
     3
 72
    12
 73
     8
 74
     0
 42
0.000000001
 43
0.00000001
 40
0.0
 40
0.0
 40
0.0
 40
0.0
 40
0.2361538550994141
 40
0.4713383997490861
 40
0.7323673701171816
 40
0.9913325952636155
 40
1.0
 40
1.0
 40
1.0
 40
1.0
 10
495.4712486348034
 20
304.4881213825051
 30
0.0
 10
495.4676876981891
 20
304.4549272856265
 30
0.0
 10
495.4605804410803
 20
304.3886753394224
 30
0.0
 10
495.4082751866484
 20
304.298075581305
 30
0.0
 10
495.3328888068874
 20
304.2240860852926
 30
0.0
 10
495.2677963618152
 20
304.1888655434939
 30
0.0
 10
495.2333145683618
 20
304.1759502292628
 30
0.0
 10
495.23219785976
 20
304.1755319609231
 30
0.0
  0
SPLINE
  5
1AF
330
1F
100
AcDbEntity
  8
0
  6
SLD-Сплошная
 62
     7
370
    35
100
AcDbSpline
210
0.0
220
0.0
230
1.0
 70
     8
 71
     3
 72
     9
 73
     5
 74
     0
 42
0.000000001
 43
0.00000001
 40
0.0
 40
0.0
 40
0.0
 40
0.0
 40
0.1972242043131675
 40
1.0
 40
1.0
 40
1.0
 40
1.0
 10
495.4712486348035
 20
307.9905821637157
 30
0.0
 10
495.569162455303
 20
308.0322203206293
 30
0.0
 10
496.0656219078347
 20
308.243341247995
 30
0.0
 10
496.5819470570941
 20
308.3013110220949
 30
0.0
 10
496.9964403896246
 20
308.3478477536239
 30
0.0
  0
LINE
  5
1B0
330
1F
100
AcDbEntity
  8
0
  6
SLD-Сплошная
 62
     7
370
    35
100
AcDbLine
 10
495.4712486348
 20
304.4881213825
 30
0.0
 11
495.4712486348
 21
307.9905821637
 31
0.0
  0
SPLINE
  5
1B1
330
1F
100
AcDbEntity
  8
0
  6
SLD-Сплошная
 62
     7
370
    35
100
AcDbSpline
210
0.0
220
0.0
230
1.0
 70
     8
 71
     3
 72
    10
 73
     6
 74
     0
 42
0.000000001
 43
0.00000001
 40
0.0
 40
0.0
 40
0.0
 40
0.0
 40
0.2602598142132218
 40
0.6293692668823485
 40
1.0
 40
1.0
 40
1.0
 40
1.0
 10
504.6421692028876
 20
304.2557644926208
 30
0.0
 10
504.6249912221206
 20
304.2710988278554
 30
0.0
 10
504.5834508360469
 20
304.3081808466599
 30
0.0
 10
504.5398419229192
 20
304.3891540826372
 30
0.0
 10
504.532453282699
 20
304.4550870853345
 30
0.0
 10
504.5287513651959
 20
304.4881213825051
 30
0.0
  0
LINE
  5
1B2
330
1F
100
AcDbEntity
  8
0
  6
SLD-Сплошная
 62
     7
370
    35
100
AcDbLine
 10
498.1227752435
 20
291.3928477536
 30
0.0
 11
502.5
 21
291.3928477536
 31
0.0
  0
LINE
  5
1B3
330
1F
100
AcDbEntity
  8
0
  6
SLD-Сплошная
 62
     7
370
    35
100
AcDbLine
 10
497.5
 20
291.3928477536
 30
0.0
 11
498.1227752435
 21
291.3928477536
 31
0.0
  0
LINE
  5
1B4
330
1F
100
AcDbEntity
  8
0
  6
SLD-Сплошная
 62
     7
370
    35
100
AcDbLine
 10
498.4569212502
 20
290.9478477536
 30
0.0
 11
502.055
 21
290.9478477536
 31
0.0
  0
LINE
  5
1B5
330
1F
100
AcDbEntity
  8
0
  6
SLD-Сплошная
 62
     7
370
    35
100
AcDbLine
 10
497.945
 20
290.9478477536
 30
0.0
 11
498.4569212502
 21
290.9478477536
 31
0.0
  0
SPLINE
  5
1B6
330
1F
100
AcDbEntity
  8
0
  6
SLD-Сплошная
 62
     7
370
    35
100
AcDbSpline
210
0.0
220
0.0
230
1.0
 70
     8
 71
     3
 72
     9
 73
     5
 74
     0
 42
0.000000001
 43
0.00000001
 40
0.0
 40
0.0
 40
0.0
 40
0.0
 40
0.1199201001169535
 40
1.0
 40
1.0
 40
1.0
 40
1.0
 10
503.789567437419
 20
308.3478477536239
 30
0.0
 10
503.8070924517142
 20
308.3476972313544
 30
0.0
 10
503.9532315416419
 20
308.3464420433641
 30
0.0
 10
504.096441804873
 20
308.2414612553488
 30
0.0
 10
504.2224782789999
 20
308.1490697739428
 30
0.0
  0
LINE
  5
1B7
330
1F
100
AcDbEntity
  8
0
  6
SLD-Сплошная
 62
     7
370
    35
100
AcDbLine
 10
504.5287513652
 20
304.4881213825
 30
0.0
 11
504.5287513652
 21
307.9905821637
 31
0.0
  0
LINE
  5
1B8
330
1F
100
AcDbEntity
  8
0
  6
SLD-Сплошная
 62
     7
370
    35
100
AcDbLine
 10
495.777521721
 20
308.1490697739
 30
0.0
 11
495.4712486348
 21
307.9905821637
 31
0.0
  0
LINE
  5
1B9
330
1F
100
AcDbEntity
  8
0
  6
SLD-Сплошная
 62
     7
370
    35
100
AcDbLine
 10
496.9964403896
 20
308.3478477536
 30
0.0
 11
496.0
 21
308.3478477536
 31
0.0
  0
LINE
  5
1BA
330
1F
100
AcDbEntity
  8
0
  6
SLD-Сплошная
 62
     7
370
    35
100
AcDbLine
 10
504.0
 20
308.3478477536
 30
0.0
 11
503.7895674374
 21
308.3478477536
 31
0.0
  0
SPLINE
  5
1BB
330
1F
100
AcDbEntity
  8
0
  6
SLD-Сплошная
 62
     7
370
    35
100
AcDbSpline
210
0.0
220
0.0
230
1.0
 70
     8
 71
     3
 72
    12
 73
     8
 74
     0
 42
0.000000001
 43
0.00000001
 40
0.0
 40
0.0
 40
0.0
 40
0.0
 40
0.236153855099431
 40
0.4713383997490802
 40
0.7323673701170224
 40
0.9913325952634772
 40
1.0
 40
1.0
 40
1.0
 40
1.0
 10
303.050383509642
 20
304.4881213825052
 30
0.0
 10
303.052782012331
 20
304.4549272856265
 30
0.0
 10
303.0575691728826
 20
304.3886753394224
 30
0.0
 10
303.0927998739566
 20
304.2980755813051
 30
0.0
 10
303.1435770862902
 20
304.2240860852925
 30
0.0
 10
303.1874207211096
 20
304.1888655434944
 30
0.0
 10
303.2106462607025
 20
304.1759502292628
 30
0.0
 10
303.211398430391
 20
304.1755319609231
 30
0.0
  0
SPLINE
  5
1BC
330
1F
100
AcDbEntity
  8
0
  6
SLD-Сплошная
 62
     7
370
    35
100
AcDbSpline
210
0.0
220
0.0
230
1.0
 70
     8
 71
     3
 72
    12
 73
     8
 74
     0
 42
0.000000001
 43
0.00000001
 40
0.0
 40
0.0
 40
0.0
 40
0.0
 40
0.2361538550994058
 40
0.4713383997491362
 40
0.7323673701170734
 40
0.9913325952635398
 40
0.9999999999999999
 40
0.9999999999999999
 40
0.9999999999999999
 40
0.9999999999999999
 10
298.5216321444456
 20
304.4881213825051
 30
0.0
 10
298.5204697105204
 20
304.4549272856265
 30
0.0
 10
298.5181496139633
 20
304.3886753394224
 30
0.0
 10
298.5010750606053
 20
304.2980755813052
 30
0.0
 10
298.4764658931783
 20
304.2240860852922
 30
0.0
 10
298.4552170829248
 20
304.1888655434947
 30
0.0
 10
298.4439608290647
 20
304.1759502292628
 30
0.0
 10
298.4435962901514
 20
304.1755319609231
 30
0.0
  0
LINE
  5
1BD
330
1F
100
AcDbEntity
  8
0
  6
SLD-Сплошная
 62
     7
370
    35
100
AcDbLine
 10
298.5216321444
 20
307.9905821637
 30
0.0
 11
300.786007827
 21
308.3478477536
 31
0.0
  0
SPLINE
  5
1BE
330
1F
100
AcDbEntity
  8
0
  6
SLD-Сплошная
 62
     7
370
    35
100
AcDbSpline
210
0.0
220
0.0
230
1.0
 70
     8
 71
     3
 72
     9
 73
     5
 74
     0
 42
0.000000001
 43
0.00000001
 40
0.0
 40
0.0
 40
0.0
 40
0.0
 40
0.0701852045454153
 40
1.0
 40
1.0
 40
1.0
 40
1.0
 10
300.7860078270438
 20
308.3478477536239
 30
0.0
 10
300.8396751619244
 20
308.3474910174743
 30
0.0
 10
301.6043282711971
 20
308.3424082346878
 30
0.0
 10
302.3536515958244
 20
308.1600974389572
 30
0.0
 10
303.0503835096418
 20
307.9905821637157
 30
0.0
  0
LINE
  5
1BF
330
1F
100
AcDbEntity
  8
0
  6
SLD-Сплошная
 62
     7
370
    35
100
AcDbLine
 10
303.0503835096
 20
304.4881213825
 30
0.0
 11
303.0503835096
 21
307.9905821637
 31
0.0
  0
LINE
  5
1C0
330
1F
100
AcDbEntity
  8
0
  6
SLD-Сплошная
 62
     7
370
    35
100
AcDbLine
 10
298.5216321444
 20
304.4881213825
 30
0.0
 11
298.5216321444
 21
307.9905821637
 31
0.0
  0
SPLINE
  5
1C1
330
1F
100
AcDbEntity
  8
0
  6
SLD-Сплошная
 62
     7
370
    35
100
AcDbSpline
210
0.0
220
0.0
230
1.0
 70
     8
 71
     3
 72
     9
 73
     5
 74
     0
 42
0.000000001
 43
0.00000001
 40
0.0
 40
0.0
 40
0.0
 40
0.0
 40
0.2210460768286511
 40
1.0
 40
1.0
 40
1.0
 40
1.0
 10
296.9964403896245
 20
308.3478477536239
 30
0.0
 10
297.1105056464978
 20
308.3442655033141
 30
0.0
 10
297.6265304432723
 20
308.3280596047019
 30
0.0
 10
298.1296922674849
 20
308.1383540498865
 30
0.0
 10
298.5216321444456
 20
307.9905821637157
 30
0.0
  0
LINE
  5
1C2
330
1F
100
AcDbEntity
  8
0
  6
SLD-Сплошная
 62
     7
370
    35
100
AcDbLine
 10
296.9964403896
 20
308.3478477536
 30
0.0
 11
300.786007827
 21
308.3478477536
 31
0.0
  0
LINE
  5
1C3
330
1F
100
AcDbEntity
  8
0
  6
SLD-Сплошная
 62
     7
370
    35
100
AcDbLine
 10
303.0503835096
 20
307.9905821637
 30
0.0
 11
303.7895674374
 21
308.3478477536
 31
0.0
  0
LINE
  5
1C4
330
1F
100
AcDbEntity
  8
0
  6
SLD-Сплошная
 62
     7
370
    35
100
AcDbLine
 10
303.7895674374
 20
308.3478477536
 30
0.0
 11
300.786007827
 21
308.3478477536
 31
0.0
  0
SPLINE
  5
1C5
330
1F
100
AcDbEntity
  8
0
  6
SLD-Сплошная
 62
     7
370
    35
100
AcDbSpline
210
0.0
220
0.0
230
1.0
 70
     8
 71
     3
 72
    12
 73
     8
 74
     0
 42
0.000000001
 43
0.00000001
 40
0.0
 40
0.0
 40
0.0
 40
0.0
 40
0.2361538550994141
 40
0.4713383997490861
 40
0.7323673701171816
 40
0.9913325952636155
 40
1.0
 40
1.0
 40
1.0
 40
1.0
 10
295.4712486348033
 20
304.4881213825051
 30
0.0
 10
295.4676876981891
 20
304.4549272856265
 30
0.0
 10
295.4605804410803
 20
304.3886753394224
 30
0.0
 10
295.4082751866484
 20
304.298075581305
 30
0.0
 10
295.3328888068875
 20
304.2240860852926
 30
0.0
 10
295.267796361815
 20
304.1888655434939
 30
0.0
 10
295.2333145683618
 20
304.1759502292628
 30
0.0
 10
295.2321978597599
 20
304.1755319609231
 30
0.0
  0
SPLINE
  5
1C6
330
1F
100
AcDbEntity
  8
0
  6
SLD-Сплошная
 62
     7
370
    35
100
AcDbSpline
210
0.0
220
0.0
230
1.0
 70
     8
 71
     3
 72
     9
 73
     5
 74
     0
 42
0.000000001
 43
0.00000001
 40
0.0
 40
0.0
 40
0.0
 40
0.0
 40
0.1972242043131675
 40
1.0
 40
1.0
 40
1.0
 40
1.0
 10
295.4712486348034
 20
307.9905821637157
 30
0.0
 10
295.5691624553028
 20
308.0322203206293
 30
0.0
 10
296.0656219078346
 20
308.243341247995
 30
0.0
 10
296.5819470570942
 20
308.3013110220949
 30
0.0
 10
296.9964403896246
 20
308.3478477536239
 30
0.0
  0
LINE
  5
1C7
330
1F
100
AcDbEntity
  8
0
  6
SLD-Сплошная
 62
     7
370
    35
100
AcDbLine
 10
295.4712486348
 20
304.4881213825
 30
0.0
 11
295.4712486348
 21
307.9905821637
 31
0.0
  0
SPLINE
  5
1C8
330
1F
100
AcDbEntity
  8
0
  6
SLD-Сплошная
 62
     7
370
    35
100
AcDbSpline
210
0.0
220
0.0
230
1.0
 70
     8
 71
     3
 72
    10
 73
     6
 74
     0
 42
0.000000001
 43
0.00000001
 40
0.0
 40
0.0
 40
0.0
 40
0.0
 40
0.2602598142132218
 40
0.6293692668823485
 40
1.0
 40
1.0
 40
1.0
 40
1.0
 10
304.6421692028875
 20
304.2557644926208
 30
0.0
 10
304.6249912221206
 20
304.2710988278554
 30
0.0
 10
304.5834508360471
 20
304.3081808466599
 30
0.0
 10
304.5398419229189
 20
304.3891540826372
 30
0.0
 10
304.532453282699
 20
304.4550870853345
 30
0.0
 10
304.5287513651959
 20
304.4881213825051
 30
0.0
  0
LINE
  5
1C9
330
1F
100
AcDbEntity
  8
0
  6
SLD-Сплошная
 62
     7
370
    35
100
AcDbLine
 10
298.4569212502
 20
290.9478477536
 30
0.0
 11
302.055
 21
290.9478477536
 31
0.0
  0
LINE
  5
1CA
330
1F
100
AcDbEntity
  8
0
  6
SLD-Сплошная
 62
     7
370
    35
100
AcDbLine
 10
297.945
 20
290.9478477536
 30
0.0
 11
298.4569212502
 21
290.9478477536
 31
0.0
  0
LINE
  5
1CB
330
1F
100
AcDbEntity
  8
0
  6
SLD-Сплошная
 62
     7
370
    35
100
AcDbLine
 10
298.1227752435
 20
291.3928477536
 30
0.0
 11
302.5
 21
291.3928477536
 31
0.0
  0
LINE
  5
1CC
330
1F
100
AcDbEntity
  8
0
  6
SLD-Сплошная
 62
     7
370
    35
100
AcDbLine
 10
297.5
 20
291.3928477536
 30
0.0
 11
298.1227752435
 21
291.3928477536
 31
0.0
  0
SPLINE
  5
1CD
330
1F
100
AcDbEntity
  8
0
  6
SLD-Сплошная
 62
     7
370
    35
100
AcDbSpline
210
0.0
220
0.0
230
1.0
 70
     8
 71
     3
 72
     9
 73
     5
 74
     0
 42
0.000000001
 43
0.00000001
 40
0.0
 40
0.0
 40
0.0
 40
0.0
 40
0.1199201001169535
 40
1.0
 40
1.0
 40
1.0
 40
1.0
 10
303.7895674374189
 20
308.3478477536239
 30
0.0
 10
303.8070924517141
 20
308.3476972313544
 30
0.0
 10
303.9532315416416
 20
308.3464420433641
 30
0.0
 10
304.0964418048729
 20
308.2414612553488
 30
0.0
 10
304.2224782789999
 20
308.1490697739428
 30
0.0
  0
LINE
  5
1CE
330
1F
100
AcDbEntity
  8
0
  6
SLD-Сплошная
 62
     7
370
    35
100
AcDbLine
 10
304.5287513652
 20
304.4881213825
 30
0.0
 11
304.5287513652
 21
307.9905821637
 31
0.0
  0
LINE
  5
1CF
330
1F
100
AcDbEntity
  8
0
  6
SLD-Сплошная
 62
     7
370
    35
100
AcDbLine
 10
295.777521721
 20
308.1490697739
 30
0.0
 11
295.4712486348
 21
307.9905821637
 31
0.0
  0
LINE
  5
1D0
330
1F
100
AcDbEntity
  8
0
  6
SLD-Сплошная
 62
     7
370
    35
100
AcDbLine
 10
296.9964403896
 20
308.3478477536
 30
0.0
 11
296.0
 21
308.3478477536
 31
0.0
  0
LINE
  5
1D1
330
1F
100
AcDbEntity
  8
0
  6
SLD-Сплошная
 62
     7
370
    35
100
AcDbLine
 10
304.0
 20
308.3478477536
 30
0.0
 11
303.7895674374
 21
308.3478477536
 31
0.0
  0
SPLINE
  5
1D2
330
1F
100
AcDbEntity
  8
0
  6
SLD-Сплошная
 62
     7
370
    35
100
AcDbSpline
210
0.0
220
0.0
230
1.0
 70
     8
 71
     3
 72
    12
 73
     8
 74
     0
 42
0.000000001
 43
0.00000001
 40
0.0
 40
0.0
 40
0.0
 40
0.0
 40
0.2361538550994151
 40
0.4713383997491246
 40
0.7323673701170751
 40
0.9913325952635383
 40
1.0
 40
1.0
 40
1.0
 40
1.0
 10
-296.949616490358
 20
304.4881213825051
 30
0.0
 10
-296.9472179876691
 20
304.4549272856264
 30
0.0
 10
-296.9424308271176
 20
304.3886753394223
 30
0.0
 10
-296.9072001260432
 20
304.2980755813053
 30
0.0
 10
-296.8564229137103
 20
304.2240860852919
 30
0.0
 10
-296.8125792788892
 20
304.1888655434956
 30
0.0
 10
-296.7893537392975
 20
304.1759502292628
 30
0.0
 10
-296.7886015696089
 20
304.1755319609231
 30
0.0
  0
SPLINE
  5
1D3
330
1F
100
AcDbEntity
  8
0
  6
SLD-Сплошная
 62
     7
370
    35
100
AcDbSpline
210
0.0
220
0.0
230
1.0
 70
     8
 71
     3
 72
    12
 73
     8
 74
     0
 42
0.000000001
 43
0.00000001
 40
0.0
 40
0.0
 40
0.0
 40
0.0
 40
0.2361538550994176
 40
0.4713383997491349
 40
0.7323673701170901
 40
0.9913325952635497
 40
1.0
 40
1.0
 40
1.0
 40
1.0
 10
-301.4783678555544
 20
304.4881213825051
 30
0.0
 10
-301.4795302894797
 20
304.4549272856264
 30
0.0
 10
-301.4818503860368
 20
304.3886753394224
 30
0.0
 10
-301.4989249393946
 20
304.2980755813053
 30
0.0
 10
-301.5235341068222
 20
304.2240860852924
 30
0.0
 10
-301.5447829170739
 20
304.1888655434942
 30
0.0
 10
-301.5560391709354
 20
304.1759502292628
 30
0.0
 10
-301.5564037098486
 20
304.1755319609231
 30
0.0
  0
LINE
  5
1D4
330
1F
100
AcDbEntity
  8
0
  6
SLD-Сплошная
 62
     7
370
    35
100
AcDbLine
 10
-301.4783678556
 20
307.9905821637
 30
0.0
 11
-299.213992173
 21
308.3478477536
 31
0.0
  0
SPLINE
  5
1D5
330
1F
100
AcDbEntity
  8
0
  6
SLD-Сплошная
 62
     7
370
    35
100
AcDbSpline
210
0.0
220
0.0
230
1.0
 70
     8
 71
     3
 72
     9
 73
     5
 74
     0
 42
0.000000001
 43
0.00000001
 40
0.0
 40
0.0
 40
0.0
 40
0.0
 40
0.0701852045454424
 40
1.0
 40
1.0
 40
1.0
 40
1.0
 10
-299.2139921729562
 20
308.3478477536239
 30
0.0
 10
-299.1603248380757
 20
308.3474910174743
 30
0.0
 10
-298.3956717288029
 20
308.3424082346876
 30
0.0
 10
-297.6463484041757
 20
308.1600974389571
 30
0.0
 10
-296.949616490358
 20
307.9905821637157
 30
0.0
  0
LINE
  5
1D6
330
1F
100
AcDbEntity
  8
0
  6
SLD-Сплошная
 62
     7
370
    35
100
AcDbLine
 10
-296.9496164904
 20
304.4881213825
 30
0.0
 11
-296.9496164904
 21
307.9905821637
 31
0.0
  0
LINE
  5
1D7
330
1F
100
AcDbEntity
  8
0
  6
SLD-Сплошная
 62
     7
370
    35
100
AcDbLine
 10
-301.4783678556
 20
304.4881213825
 30
0.0
 11
-301.4783678556
 21
307.9905821637
 31
0.0
  0
SPLINE
  5
1D8
330
1F
100
AcDbEntity
  8
0
  6
SLD-Сплошная
 62
     7
370
    35
100
AcDbSpline
210
0.0
220
0.0
230
1.0
 70
     8
 71
     3
 72
     9
 73
     5
 74
     0
 42
0.000000001
 43
0.00000001
 40
0.0
 40
0.0
 40
0.0
 40
0.0
 40
0.2210460768286581
 40
0.9999999999999999
 40
0.9999999999999999
 40
0.9999999999999999
 40
0.9999999999999999
 10
-303.0035596103755
 20
308.3478477536239
 30
0.0
 10
-302.8894943535021
 20
308.3442655033141
 30
0.0
 10
-302.3734695567273
 20
308.3280596047017
 30
0.0
 10
-301.8703077325148
 20
308.1383540498864
 30
0.0
 10
-301.4783678555544
 20
307.9905821637157
 30
0.0
  0
LINE
  5
1D9
330
1F
100
AcDbEntity
  8
0
  6
SLD-Сплошная
 62
     7
370
    35
100
AcDbLine
 10
-303.0035596104
 20
308.3478477536
 30
0.0
 11
-299.213992173
 21
308.3478477536
 31
0.0
  0
LINE
  5
1DA
330
1F
100
AcDbEntity
  8
0
  6
SLD-Сплошная
 62
     7
370
    35
100
AcDbLine
 10
-296.9496164904
 20
307.9905821637
 30
0.0
 11
-296.2104325626
 21
308.3478477536
 31
0.0
  0
LINE
  5
1DB
330
1F
100
AcDbEntity
  8
0
  6
SLD-Сплошная
 62
     7
370
    35
100
AcDbLine
 10
-296.2104325626
 20
308.3478477536
 30
0.0
 11
-299.213992173
 21
308.3478477536
 31
0.0
  0
SPLINE
  5
1DC
330
1F
100
AcDbEntity
  8
0
  6
SLD-Сплошная
 62
     7
370
    35
100
AcDbSpline
210
0.0
220
0.0
230
1.0
 70
     8
 71
     3
 72
    12
 73
     8
 74
     0
 42
0.000000001
 43
0.00000001
 40
0.0
 40
0.0
 40
0.0
 40
0.0
 40
0.2361538550994253
 40
0.4713383997491399
 40
0.732367370117108
 40
0.9913325952635542
 40
1.0
 40
1.0
 40
1.0
 40
1.0
 10
-304.5287513651966
 20
304.4881213825051
 30
0.0
 10
-304.532312301811
 20
304.4549272856265
 30
0.0
 10
-304.5394195589197
 20
304.3886753394223
 30
0.0
 10
-304.5917248133517
 20
304.2980755813052
 30
0.0
 10
-304.6671111931123
 20
304.2240860852925
 30
0.0
 10
-304.732203638185
 20
304.1888655434943
 30
0.0
 10
-304.7666854316383
 20
304.1759502292629
 30
0.0
 10
-304.76780214024
 20
304.1755319609231
 30
0.0
  0
SPLINE
  5
1DD
330
1F
100
AcDbEntity
  8
0
  6
SLD-Сплошная
 62
     7
370
    35
100
AcDbSpline
210
0.0
220
0.0
230
1.0
 70
     8
 71
     3
 72
     9
 73
     5
 74
     0
 42
0.000000001
 43
0.00000001
 40
0.0
 40
0.0
 40
0.0
 40
0.0
 40
0.1972242043131774
 40
1.0
 40
1.0
 40
1.0
 40
1.0
 10
-304.5287513651966
 20
307.9905821637157
 30
0.0
 10
-304.4308375446973
 20
308.0322203206293
 30
0.0
 10
-303.9343780921658
 20
308.2433412479949
 30
0.0
 10
-303.4180529429058
 20
308.3013110220949
 30
0.0
 10
-303.0035596103755
 20
308.3478477536239
 30
0.0
  0
LINE
  5
1DE
330
1F
100
AcDbEntity
  8
0
  6
SLD-Сплошная
 62
     7
370
    35
100
AcDbLine
 10
-304.5287513652
 20
304.4881213825
 30
0.0
 11
-304.5287513652
 21
307.9905821637
 31
0.0
  0
SPLINE
  5
1DF
330
1F
100
AcDbEntity
  8
0
  6
SLD-Сплошная
 62
     7
370
    35
100
AcDbSpline
210
0.0
220
0.0
230
1.0
 70
     8
 71
     3
 72
    10
 73
     6
 74
     0
 42
0.000000001
 43
0.00000001
 40
0.0
 40
0.0
 40
0.0
 40
0.0
 40
0.2602598142129873
 40
0.6293692668822726
 40
0.9999999999999999
 40
0.9999999999999999
 40
0.9999999999999999
 40
0.9999999999999999
 10
-295.3578307971124
 20
304.2557644926208
 30
0.0
 10
-295.3750087778794
 20
304.2710988278554
 30
0.0
 10
-295.4165491639529
 20
304.30818084666
 30
0.0
 10
-295.4601580770813
 20
304.389154082637
 30
0.0
 10
-295.4675467173012
 20
304.4550870853344
 30
0.0
 10
-295.4712486348041
 20
304.4881213825051
 30
0.0
  0
LINE
  5
1E0
330
1F
100
AcDbEntity
  8
0
  6
SLD-Сплошная
 62
     7
370
    35
100
AcDbLine
 10
-301.5430787498
 20
290.9478477536
 30
0.0
 11
-297.945
 21
290.9478477536
 31
0.0
  0
LINE
  5
1E1
330
1F
100
AcDbEntity
  8
0
  6
SLD-Сплошная
 62
     7
370
    35
100
AcDbLine
 10
-302.055
 20
290.9478477536
 30
0.0
 11
-301.5430787498
 21
290.9478477536
 31
0.0
  0
LINE
  5
1E2
330
1F
100
AcDbEntity
  8
0
  6
SLD-Сплошная
 62
     7
370
    35
100
AcDbLine
 10
-301.8772247565
 20
291.3928477536
 30
0.0
 11
-297.5
 21
291.3928477536
 31
0.0
  0
LINE
  5
1E3
330
1F
100
AcDbEntity
  8
0
  6
SLD-Сплошная
 62
     7
370
    35
100
AcDbLine
 10
-302.5
 20
291.3928477536
 30
0.0
 11
-301.8772247565
 21
291.3928477536
 31
0.0
  0
SPLINE
  5
1E4
330
1F
100
AcDbEntity
  8
0
  6
SLD-Сплошная
 62
     7
370
    35
100
AcDbSpline
210
0.0
220
0.0
230
1.0
 70
     8
 71
     3
 72
     9
 73
     5
 74
     0
 42
0.000000001
 43
0.00000001
 40
0.0
 40
0.0
 40
0.0
 40
0.0
 40
0.1199201001169607
 40
1.0
 40
1.0
 40
1.0
 40
1.0
 10
-296.210432562581
 20
308.3478477536239
 30
0.0
 10
-296.192907548286
 20
308.3476972313543
 30
0.0
 10
-296.0467684583585
 20
308.346442043364
 30
0.0
 10
-295.9035581951272
 20
308.2414612553488
 30
0.0
 10
-295.7775217210003
 20
308.1490697739428
 30
0.0
  0
LINE
  5
1E5
330
1F
100
AcDbEntity
  8
0
  6
SLD-Сплошная
 62
     7
370
    35
100
AcDbLine
 10
-295.4712486348
 20
304.4881213825
 30
0.0
 11
-295.4712486348
 21
307.9905821637
 31
0.0
  0
LINE
  5
1E6
330
1F
100
AcDbEntity
  8
0
  6
SLD-Сплошная
 62
     7
370
    35
100
AcDbLine
 10
-304.222478279
 20
308.1490697739
 30
0.0
 11
-304.5287513652
 21
307.9905821637
 31
0.0
  0
LINE
  5
1E7
330
1F
100
AcDbEntity
  8
0
  6
SLD-Сплошная
 62
     7
370
    35
100
AcDbLine
 10
-303.0035596104
 20
308.3478477536
 30
0.0
 11
-304.0
 21
308.3478477536
 31
0.0
  0
LINE
  5
1E8
330
1F
100
AcDbEntity
  8
0
  6
SLD-Сплошная
 62
     7
370
    35
100
AcDbLine
 10
-296.0
 20
308.3478477536
 30
0.0
 11
-296.2104325626
 21
308.3478477536
 31
0.0
  0
LINE
  5
1E9
330
1F
100
AcDbEntity
  8
0
  6
SLD-Сплошная
 62
     7
370
    35
100
AcDbLine
 10
-700.0
 20
301.7478477536
 30
0.0
 11
-700.0
 21
302.9478477536
 31
0.0
  0
LINE
  5
1EA
330
1F
100
AcDbEntity
  8
0
  6
SLD-Сплошная
 62
     7
370
    35
100
AcDbLine
 10
-700.0
 20
302.9478477536
 30
0.0
 11
-695.0
 21
302.9478477536
 31
0.0
  0
LINE
  5
1EB
330
1F
100
AcDbEntity
  8
0
  6
SLD-Сплошная
 62
     7
370
    35
100
AcDbLine
 10
-695.0
 20
301.7478477536
 30
0.0
 11
-700.0
 21
301.7478477536
 31
0.0
  0
LINE
  5
1EC
330
1F
100
AcDbEntity
  8
0
  6
SLD-Сплошная
 62
     7
370
    35
100
AcDbLine
 10
695.0
 20
302.9478477536
 30
0.0
 11
-695.0
 21
302.9478477536
 31
0.0
  0
LINE
  5
1ED
330
1F
100
AcDbEntity
  8
0
  6
SLD-Сплошная
 62
     7
370
    35
100
AcDbLine
 10
695.0
 20
301.7478477536
 30
0.0
 11
-695.0
 21
301.7478477536
 31
0.0
  0
LINE
  5
1EE
330
1F
100
AcDbEntity
  8
0
  6
SLD-Сплошная
 62
     7
370
    35
100
AcDbLine
 10
695.0
 20
504.1478477536
 30
0.0
 11
-695.0
 21
504.1478477536
 31
0.0
  0
LINE
  5
1EF
330
1F
100
AcDbEntity
  8
0
  6
SLD-Сплошная
 62
     7
370
    35
100
AcDbLine
 10
695.0
 20
502.9478477536
 30
0.0
 11
-695.0
 21
502.9478477536
 31
0.0
  0
LINE
  5
1F0
330
1F
100
AcDbEntity
  8
0
  6
SLD-Сплошная
 62
     7
370
    35
100
AcDbLine
 10
700.0
 20
302.9478477536
 30
0.0
 11
700.0
 21
301.7478477536
 31
0.0
  0
LINE
  5
1F1
330
1F
100
AcDbEntity
  8
0
  6
SLD-Сплошная
 62
     7
370
    35
100
AcDbLine
 10
700.0
 20
301.7478477536
 30
0.0
 11
695.0
 21
301.7478477536
 31
0.0
  0
LINE
  5
1F2
330
1F
100
AcDbEntity
  8
0
  6
SLD-Сплошная
 62
     7
370
    35
100
AcDbLine
 10
695.0
 20
302.9478477536
 30
0.0
 11
700.0
 21
302.9478477536
 31
0.0
  0
LINE
  5
1F3
330
1F
100
AcDbEntity
  8
0
  6
SLD-Сплошная
 62
     7
370
    35
100
AcDbLine
 10
700.0
 20
504.1478477536
 30
0.0
 11
700.0
 21
502.9478477536
 31
0.0
  0
LINE
  5
1F4
330
1F
100
AcDbEntity
  8
0
  6
SLD-Сплошная
 62
     7
370
    35
100
AcDbLine
 10
700.0
 20
502.9478477536
 30
0.0
 11
695.0
 21
502.9478477536
 31
0.0
  0
LINE
  5
1F5
330
1F
100
AcDbEntity
  8
0
  6
SLD-Сплошная
 62
     7
370
    35
100
AcDbLine
 10
695.0
 20
504.1478477536
 30
0.0
 11
700.0
 21
504.1478477536
 31
0.0
  0
LINE
  5
1F6
330
1F
100
AcDbEntity
  8
0
  6
SLD-Сплошная
 62
     7
370
    35
100
AcDbLine
 10
-695.0
 20
502.9478477536
 30
0.0
 11
-700.0
 21
502.9478477536
 31
0.0
  0
LINE
  5
1F7
330
1F
100
AcDbEntity
  8
0
  6
SLD-Сплошная
 62
     7
370
    35
100
AcDbLine
 10
-700.0
 20
502.9478477536
 30
0.0
 11
-700.0
 21
504.1478477536
 31
0.0
  0
LINE
  5
1F8
330
1F
100
AcDbEntity
  8
0
  6
SLD-Сплошная
 62
     7
370
    35
100
AcDbLine
 10
-700.0
 20
504.1478477536
 30
0.0
 11
-695.0
 21
504.1478477536
 31
0.0
  0
CIRCLE
  5
1F9
330
1F
100
AcDbEntity
  8
0
  6
SLD-Сплошная
 62
     7
370
    35
100
AcDbCircle
 10
-902.0
 20
402.9478477536
 30
0.0
 40
2.050000000000011
  0
CIRCLE
  5
1FA
330
1F
100
AcDbEntity
  8
0
  6
SLD-Сплошная
 62
     7
370
    35
100
AcDbCircle
 10
902.0
 20
402.9478477536
 30
0.0
 40
2.050000000000011
  0
LINE
  5
1FB
330
1F
100
AcDbEntity
  8
0
  6
SLD-Сплошная
 62
     7
370
    35
100
AcDbLine
 10
-700.0
 20
303.9478477536
 30
0.0
 11
-700.0
 21
302.9478477536
 31
0.0
  0
LINE
  5
1FC
330
1F
100
AcDbEntity
  8
0
  6
SLD-Сплошная
 62
     7
370
    35
100
AcDbLine
 10
700.0
 20
302.9478477536
 30
0.0
 11
700.0
 21
303.9478477536
 31
0.0
  0
LINE
  5
1FD
330
1F
100
AcDbEntity
  8
0
  6
SLD-Сплошная
 62
     7
370
    35
100
AcDbLine
 10
700.0
 20
501.9478477536
 30
0.0
 11
700.0
 21
502.9478477536
 31
0.0
  0
LINE
  5
1FE
330
1F
100
AcDbEntity
  8
0
  6
SLD-Сплошная
 62
     7
370
    35
100
AcDbLine
 10
-700.0
 20
502.9478477536
 30
0.0
 11
-700.0
 21
501.9478477536
 31
0.0
  0
LINE
  5
1FF
330
1F
100
AcDbEntity
  8
0
  6
SLD-Сплошная
 62
     7
370
    35
100
AcDbLine
 10
-912.0
 20
303.9478477536
 30
0.0
 11
-887.0
 21
303.9478477536
 31
0.0
  0
ARC
  5
200
330
1F
100
AcDbEntity
  8
0
  6
SLD-Сплошная
 62
     7
370
    35
100
AcDbCircle
 10
-912.0
 20
308.9478477536
 30
0.0
 40
5.0
100
AcDbArc
 50
180.0
 51
270.0
  0
LINE
  5
201
330
1F
100
AcDbEntity
  8
0
  6
SLD-Сплошная
 62
     7
370
    35
100
AcDbLine
 10
-917.0
 20
496.9478477536
 30
0.0
 11
-917.0
 21
308.9478477536
 31
0.0
  0
ARC
  5
202
330
1F
100
AcDbEntity
  8
0
  6
SLD-Сплошная
 62
     7
370
    35
100
AcDbCircle
 10
-912.0
 20
496.9478477536
 30
0.0
 40
4.999999999999886
100
AcDbArc
 50
90.0
 51
180.0
  0
LINE
  5
203
330
1F
100
AcDbEntity
  8
0
  6
SLD-Сплошная
 62
     7
370
    35
100
AcDbLine
 10
-912.0
 20
501.9478477536
 30
0.0
 11
-887.0
 21
501.9478477536
 31
0.0
  0
LINE
  5
204
330
1F
100
AcDbEntity
  8
0
  6
SLD-Сплошная
 62
     7
370
    35
100
AcDbLine
 10
705.0
 20
501.9478477536
 30
0.0
 11
700.0
 21
501.9478477536
 31
0.0
  0
LINE
  5
205
330
1F
100
AcDbEntity
  8
0
  6
SLD-Сплошная
 62
     7
370
    35
100
AcDbLine
 10
912.0
 20
501.9478477536
 30
0.0
 11
887.0
 21
501.9478477536
 31
0.0
  0
ARC
  5
206
330
1F
100
AcDbEntity
  8
0
  6
SLD-Сплошная
 62
     7
370
    35
100
AcDbCircle
 10
912.0
 20
496.9478477536
 30
0.0
 40
4.999999999999886
100
AcDbArc
 50
0.0
 51
90.0
  0
LINE
  5
207
330
1F
100
AcDbEntity
  8
0
  6
SLD-Сплошная
 62
     7
370
    35
100
AcDbLine
 10
917.0
 20
496.9478477536
 30
0.0
 11
917.0
 21
308.9478477536
 31
0.0
  0
ARC
  5
208
330
1F
100
AcDbEntity
  8
0
  6
SLD-Сплошная
 62
     7
370
    35
100
AcDbCircle
 10
912.0
 20
308.9478477536
 30
0.0
 40
4.999999999999886
100
AcDbArc
 50
270.0
 51
0.0
  0
LINE
  5
209
330
1F
100
AcDbEntity
  8
0
  6
SLD-Сплошная
 62
     7
370
    35
100
AcDbLine
 10
912.0
 20
303.9478477536
 30
0.0
 11
887.0
 21
303.9478477536
 31
0.0
  0
LINE
  5
20A
330
1F
100
AcDbEntity
  8
0
  6
SLD-Сплошная
 62
     7
370
    35
100
AcDbLine
 10
700.0
 20
303.9478477536
 30
0.0
 11
705.0
 21
303.9478477536
 31
0.0
  0
LINE
  5
20B
330
1F
100
AcDbEntity
  8
0
  6
SLD-Сплошная
 62
     7
370
    35
100
AcDbLine
 10
-705.0
 20
303.9478477536
 30
0.0
 11
-700.0
 21
303.9478477536
 31
0.0
  0
LINE
  5
20C
330
1F
100
AcDbEntity
  8
0
  6
SLD-Сплошная
 62
     7
370
    35
100
AcDbLine
 10
-700.0
 20
501.9478477536
 30
0.0
 11
-705.0
 21
501.9478477536
 31
0.0
  0
LINE
  5
20D
330
1F
100
AcDbEntity
  8
0
  6
SLD-Сплошная
 62
     7
370
    35
100
AcDbLine
 10
887.0
 20
303.9478477536
 30
0.0
 11
887.0
 21
301.7478477536
 31
0.0
  0
LINE
  5
20E
330
1F
100
AcDbEntity
  8
0
  6
SLD-Сплошная
 62
     7
370
    35
100
AcDbLine
 10
887.0
 20
301.7478477536
 30
0.0
 11
705.0
 21
301.7478477536
 31
0.0
  0
LINE
  5
20F
330
1F
100
AcDbEntity
  8
0
  6
SLD-Сплошная
 62
     7
370
    35
100
AcDbLine
 10
705.0
 20
301.7478477536
 30
0.0
 11
705.0
 21
303.9478477536
 31
0.0
  0
LINE
  5
210
330
1F
100
AcDbEntity
  8
0
  6
SLD-Сплошная
 62
     7
370
    35
100
AcDbLine
 10
-887.0
 20
501.9478477536
 30
0.0
 11
-887.0
 21
504.1478477536
 31
0.0
  0
LINE
  5
211
330
1F
100
AcDbEntity
  8
0
  6
SLD-Сплошная
 62
     7
370
    35
100
AcDbLine
 10
-887.0
 20
504.1478477536
 30
0.0
 11
-705.0
 21
504.1478477536
 31
0.0
  0
LINE
  5
212
330
1F
100
AcDbEntity
  8
0
  6
SLD-Сплошная
 62
     7
370
    35
100
AcDbLine
 10
-705.0
 20
504.1478477536
 30
0.0
 11
-705.0
 21
501.9478477536
 31
0.0
  0
LINE
  5
213
330
1F
100
AcDbEntity
  8
0
  6
SLD-Сплошная
 62
     7
370
    35
100
AcDbLine
 10
-887.0
 20
301.7478477536
 30
0.0
 11
-705.0
 21
301.7478477536
 31
0.0
  0
LINE
  5
214
330
1F
100
AcDbEntity
  8
0
  6
SLD-Сплошная
 62
     7
370
    35
100
AcDbLine
 10
-887.0
 20
301.7478477536
 30
0.0
 11
-887.0
 21
303.9478477536
 31
0.0
  0
LINE
  5
215
330
1F
100
AcDbEntity
  8
0
  6
SLD-Сплошная
 62
     7
370
    35
100
AcDbLine
 10
-705.0
 20
303.9478477536
 30
0.0
 11
-705.0
 21
301.7478477536
 31
0.0
  0
LINE
  5
216
330
1F
100
AcDbEntity
  8
0
  6
SLD-Сплошная
 62
     7
370
    35
100
AcDbLine
 10
887.0
 20
504.1478477536
 30
0.0
 11
705.0
 21
504.1478477536
 31
0.0
  0
LINE
  5
217
330
1F
100
AcDbEntity
  8
0
  6
SLD-Сплошная
 62
     7
370
    35
100
AcDbLine
 10
705.0
 20
501.9478477536
 30
0.0
 11
705.0
 21
504.1478477536
 31
0.0
  0
LINE
  5
218
330
1F
100
AcDbEntity
  8
0
  6
SLD-Сплошная
 62
     7
370
    35
100
AcDbLine
 10
887.0
 20
504.1478477536
 30
0.0
 11
887.0
 21
501.9478477536
 31
0.0
  0
ARC
  5
219
330
1F
100
AcDbEntity
  8
0
  6
SLD-Сплошная
 62
     7
370
    35
100
AcDbCircle
 10
1199.9577386319
 20
-507.7977366586
 30
0.0
 40
0.2999999999999944
100
AcDbArc
 50
0.0
 51
45.0
  0
ARC
  5
21A
330
1F
100
AcDbEntity
  8
0
  6
SLD-Сплошная
 62
     7
370
    35
100
AcDbCircle
 10
1199.9577386319
 20
-490.3065678341
 30
0.0
 40
0.3000000000000346
100
AcDbArc
 50
315.0
 51
0.0
  0
LINE
  5
21B
330
1F
100
AcDbEntity
  8
0
  6
SLD-Сплошная
 62
     7
370
    35
100
AcDbLine
 10
1200.1698706662
 20
-507.5856046243
 30
0.0
 11
1199.6970784601
 21
-507.1128124182
 31
0.0
  0
LINE
  5
21C
330
1F
100
AcDbEntity
  8
0
  6
SLD-Сплошная
 62
     7
370
    35
100
AcDbLine
 10
1199.6970784601
 20
-490.9914920746
 30
0.0
 11
1200.1698706662
 21
-490.5186998685
 31
0.0
  0
ARC
  5
21D
330
1F
100
AcDbEntity
  8
0
  6
SLD-Сплошная
 62
     7
370
    35
100
AcDbCircle
 10
1200.7577386319
 20
-492.0521522464
 30
0.0
 40
1.500000000000133
100
AcDbArc
 50
135.0
 51
180.0
  0
ARC
  5
21E
330
1F
100
AcDbEntity
  8
0
  6
SLD-Сплошная
 62
     7
370
    35
100
AcDbCircle
 10
1200.7577386319
 20
-506.0521522464
 30
0.0
 40
1.500000000000133
100
AcDbArc
 50
180.0
 51
225.0
  0
LINE
  5
21F
330
1F
100
AcDbEntity
  8
0
  6
SLD-Сплошная
 62
     7
370
    35
100
AcDbLine
 10
1201.4577386319
 20
-495.8021522464
 30
0.0
 11
1202.057738632
 21
-495.8021522464
 31
0.0
  0
LINE
  5
220
330
1F
100
AcDbEntity
  8
0
  6
SLD-Сплошная
 62
     7
370
    35
100
AcDbLine
 10
1202.057738632
 20
-502.3021522464
 30
0.0
 11
1201.4577386319
 21
-502.3021522464
 31
0.0
  0
ARC
  5
221
330
1F
100
AcDbEntity
  8
0
  6
SLD-Сплошная
 62
     7
370
    35
100
AcDbCircle
 10
1187.0732842339
 20
300.0323021516
 30
0.0
 40
0.5155456020629134
100
AcDbArc
 50
90.0
 51
250.0
  0
ARC
  5
222
330
1F
100
AcDbEntity
  8
0
  6
SLD-Сплошная
 62
     7
370
    35
100
AcDbCircle
 10
1197.8421930298
 20
300.0323021516
 30
0.0
 40
0.5155456020629003
100
AcDbArc
 50
290.0
 51
90.0
  0
LINE
  5
223
330
1F
100
AcDbEntity
  8
0
  6
SLD-Сплошная
 62
     7
370
    35
100
AcDbLine
 10
1198.0185200105
 20
299.5478477536
 30
0.0
 11
1197.3203449039
 21
299.2937327965
 31
0.0
  0
LINE
  5
224
330
1F
100
AcDbEntity
  8
0
  6
SLD-Сплошная
 62
     7
370
    35
100
AcDbLine
 10
1187.5951323599
 20
299.2937327965
 30
0.0
 11
1186.8969572532
 21
299.5478477536
 31
0.0
  0
LINE
  5
225
330
1F
100
AcDbEntity
  8
0
  6
SLD-Сплошная
 62
     7
370
    35
100
AcDbLine
 10
1197.0765407854
 20
295.7978477536
 30
0.0
 11
1196.4577386319
 21
295.5478477536
 31
0.0
  0
LINE
  5
226
330
1F
100
AcDbEntity
  8
0
  6
SLD-Сплошная
 62
     7
370
    35
100
AcDbLine
 10
1188.4577386319
 20
295.5478477536
 30
0.0
 11
1187.8389364784
 21
295.7978477536
 31
0.0
  0
ARC
  5
227
330
1F
100
AcDbEntity
  8
0
  6
SLD-Сплошная
 62
     7
370
    35
100
AcDbCircle
 10
1197.8577386319
 20
303.4478477536
 30
0.0
 40
0.5
100
AcDbArc
 50
270.0
 51
70.0
  0
ARC
  5
228
330
1F
100
AcDbEntity
  8
0
  6
SLD-Сплошная
 62
     7
370
    35
100
AcDbCircle
 10
1187.0577386319
 20
303.4478477536
 30
0.0
 40
0.5
100
AcDbArc
 50
110.0
 51
270.0
  0
LINE
  5
229
330
1F
100
AcDbEntity
  8
0
  6
SLD-Сплошная
 62
     7
370
    35
100
AcDbLine
 10
1186.8867285602
 20
303.917694064
 30
0.0
 11
1188.0366487813
 21
304.3362307963
 31
0.0
  0
LINE
  5
22A
330
1F
100
AcDbEntity
  8
0
  6
SLD-Сплошная
 62
     7
370
    35
100
AcDbLine
 10
1196.7465510227
 20
304.3843758543
 30
0.0
 11
1198.0287487035
 21
303.917694064
 31
0.0
  0
LINE
  5
22B
330
1F
100
AcDbEntity
  8
0
  6
SLD-Сплошная
 62
     7
370
    35
100
AcDbLine
 10
1194.9577386319
 20
295.5478477536
 30
0.0
 11
1194.9577386319
 21
291.3928477536
 31
0.0
  0
LINE
  5
22C
330
1F
100
AcDbEntity
  8
0
  6
SLD-Сплошная
 62
     7
370
    35
100
AcDbLine
 10
1189.9577386319
 20
291.3928477536
 30
0.0
 11
1189.9577386319
 21
295.5478477536
 31
0.0
  0
LINE
  5
22D
330
1F
100
AcDbEntity
  8
0
  6
SLD-Сплошная
 62
     7
370
    35
100
AcDbLine
 10
1194.9577386319
 20
291.3928477536
 30
0.0
 11
1194.5127386319
 21
290.9478477536
 31
0.0
  0
LINE
  5
22E
330
1F
100
AcDbEntity
  8
0
  6
SLD-Сплошная
 62
     7
370
    35
100
AcDbLine
 10
1190.4027386319
 20
290.9478477536
 30
0.0
 11
1189.9577386319
 21
291.3928477536
 31
0.0
  0
ARC
  5
22F
330
1F
100
AcDbEntity
  8
0
  6
SLD-Сплошная
 62
     7
370
    35
100
AcDbCircle
 10
1199.9577386319
 20
394.2022633414
 30
0.0
 40
0.3000000000000748
100
AcDbArc
 50
0.0
 51
45.0
  0
ARC
  5
230
330
1F
100
AcDbEntity
  8
0
  6
SLD-Сплошная
 62
     7
370
    35
100
AcDbCircle
 10
1199.9577386319
 20
411.6934321659
 30
0.0
 40
0.3000000000000748
100
AcDbArc
 50
315.0
 51
0.0
  0
LINE
  5
231
330
1F
100
AcDbEntity
  8
0
  6
SLD-Сплошная
 62
     7
370
    35
100
AcDbLine
 10
1200.1698706662
 20
394.4143953757
 30
0.0
 11
1199.6970784601
 21
394.8871875818
 31
0.0
  0
LINE
  5
232
330
1F
100
AcDbEntity
  8
0
  6
SLD-Сплошная
 62
     7
370
    35
100
AcDbLine
 10
1199.6970784601
 20
411.0085079254
 30
0.0
 11
1200.1698706662
 21
411.4813001315
 31
0.0
  0
ARC
  5
233
330
1F
100
AcDbEntity
  8
0
  6
SLD-Сплошная
 62
     7
370
    35
100
AcDbCircle
 10
1200.7577386319
 20
409.9478477536
 30
0.0
 40
1.500000000000227
100
AcDbArc
 50
135.0
 51
180.0
  0
ARC
  5
234
330
1F
100
AcDbEntity
  8
0
  6
SLD-Сплошная
 62
     7
370
    35
100
AcDbCircle
 10
1200.7577386319
 20
395.9478477536
 30
0.0
 40
1.500000000000227
100
AcDbArc
 50
180.0
 51
225.0
  0
LINE
  5
235
330
1F
100
AcDbEntity
  8
0
  6
SLD-Сплошная
 62
     7
370
    35
100
AcDbLine
 10
1201.4577386319
 20
406.1978477536
 30
0.0
 11
1202.057738632
 21
406.1978477536
 31
0.0
  0
LINE
  5
236
330
1F
100
AcDbEntity
  8
0
  6
SLD-Сплошная
 62
     7
370
    35
100
AcDbLine
 10
1202.057738632
 20
399.6978477536
 30
0.0
 11
1201.4577386319
 21
399.6978477536
 31
0.0
  0
ARC
  5
237
330
1F
100
AcDbEntity
  8
0
  6
SLD-Сплошная
 62
     7
370
    35
100
AcDbCircle
 10
1199.2577386319
 20
299.5478477536
 30
0.0
 40
2.200000000000045
100
AcDbArc
 50
0.0
 51
90.0
  0
ARC
  5
238
330
1F
100
AcDbEntity
  8
0
  6
SLD-Сплошная
 62
     7
370
    35
100
AcDbCircle
 10
1199.2577386319
 20
299.5478477536
 30
0.0
 40
1.0
100
AcDbArc
 50
0.0
 51
90.0
  0
LINE
  5
239
330
1F
100
AcDbEntity
  8
0
  6
SLD-Сплошная
 62
     7
370
    35
100
AcDbLine
 10
1201.4577386319
 20
290.5224503495
 30
0.0
 11
1201.4577386319
 21
295.4267888776
 31
0.0
  0
LINE
  5
23A
330
1F
100
AcDbEntity
  8
0
  6
SLD-Сплошная
 62
     7
370
    35
100
AcDbLine
 10
1200.2577386319
 20
295.4267888776
 30
0.0
 11
1200.2577386319
 21
290.5224503495
 31
0.0
  0
LINE
  5
23B
330
1F
100
AcDbEntity
  8
0
  6
SLD-Сплошная
 62
     7
370
    35
100
AcDbLine
 10
1191.4577386319
 20
300.5478477536
 30
0.0
 11
1199.2577386319
 21
300.5478477536
 31
0.0
  0
LINE
  5
23C
330
1F
100
AcDbEntity
  8
0
  6
SLD-Сплошная
 62
     7
370
    35
100
AcDbLine
 10
1201.4577386319
 20
299.5478477536
 30
0.0
 11
1201.4577386319
 21
295.4267888776
 31
0.0
  0
LINE
  5
23D
330
1F
100
AcDbEntity
  8
0
  6
SLD-Сплошная
 62
     7
370
    35
100
AcDbLine
 10
1200.2577386319
 20
299.5478477536
 30
0.0
 11
1200.2577386319
 21
295.4267888776
 31
0.0
  0
LINE
  5
23E
330
1F
100
AcDbEntity
  8
0
  6
SLD-Сплошная
 62
     7
370
    35
100
AcDbLine
 10
1186.4577386319
 20
301.7478477536
 30
0.0
 11
1186.4577386319
 21
300.5478477536
 31
0.0
  0
LINE
  5
23F
330
1F
100
AcDbEntity
  8
0
  6
SLD-Сплошная
 62
     7
370
    35
100
AcDbLine
 10
1186.4577386319
 20
300.5478477536
 30
0.0
 11
1191.4577386319
 21
300.5478477536
 31
0.0
  0
LINE
  5
240
330
1F
100
AcDbEntity
  8
0
  6
SLD-Сплошная
 62
     7
370
    35
100
AcDbLine
 10
1201.4577386319
 20
290.5224503495
 30
0.0
 11
1201.4577386319
 21
-293.1020168105
 31
0.0
  0
LINE
  5
241
330
1F
100
AcDbEntity
  8
0
  6
SLD-Сплошная
 62
     7
370
    35
100
AcDbLine
 10
1200.2577386319
 20
290.5224503495
 30
0.0
 11
1200.2577386319
 21
-293.1020168105
 31
0.0
  0
ARC
  5
242
330
1F
100
AcDbEntity
  8
0
  6
SLD-Сплошная
 62
     7
370
    35
100
AcDbCircle
 10
1209.5720875626
 20
-464.0521522464
 30
0.0
 40
2.750000000000102
100
AcDbArc
 50
175.0714870831
 51
184.9285129169
  0
LINE
  5
243
330
1F
100
AcDbEntity
  8
0
  6
SLD-Сплошная
 62
     7
370
    35
100
AcDbLine
 10
1206.8322552323
 20
-302.0521522464
 30
0.0
 11
1202.4577386319
 21
-302.0521522464
 31
0.0
  0
LINE
  5
244
330
1F
100
AcDbEntity
  8
0
  6
SLD-Сплошная
 62
     7
370
    35
100
AcDbLine
 10
1202.4577386319
 20
-484.0521522464
 30
0.0
 11
1206.8322552323
 21
-484.0521522464
 31
0.0
  0
SPLINE
  5
245
330
1F
100
AcDbEntity
  8
0
  6
SLD-Сплошная
 62
     7
370
    35
100
AcDbSpline
210
0.0
220
0.0
230
1.0
 70
     8
 71
     3
 72
    11
 73
     7
 74
     0
 42
0.000000001
 43
0.00000001
 40
0.0
 40
0.0
 40
0.0
 40
0.0
 40
0.1999256775961999
 40
0.4255600785814861
 40
0.6896360664550044
 40
1.0
 40
1.0
 40
1.0
 40
1.0
 10
1206.832255232291
 20
-463.8158922166627
 30
0.0
 10
1206.88171853723
 20
-463.641496867757
 30
0.0
 10
1206.98700570289
 20
-463.2702804273433
 30
0.0
 10
1207.362046037482
 20
-462.7647559417136
 30
0.0
 10
1207.869500556033
 20
-462.2691817498163
 30
0.0
 10
1208.206053879654
 20
-461.9839632212489
 30
0.0
 10
1208.387890150902
 20
-461.829862607511
 30
0.0
  0
LINE
  5
246
330
1F
100
AcDbEntity
  8
0
  6
SLD-Сплошная
 62
     7
370
    35
100
AcDbLine
 10
1208.3878901509
 20
-302.0521522464
 30
0.0
 11
1206.8322552323
 21
-302.0521522464
 31
0.0
  0
LINE
  5
247
330
1F
100
AcDbEntity
  8
0
  6
SLD-Сплошная
 62
     7
370
    35
100
AcDbLine
 10
1206.8322552323
 20
-484.0521522464
 30
0.0
 11
1208.3878901509
 21
-484.0521522464
 31
0.0
  0
SPLINE
  5
248
330
1F
100
AcDbEntity
  8
0
  6
SLD-Сплошная
 62
     7
370
    35
100
AcDbSpline
210
0.0
220
0.0
230
1.0
 70
     8
 71
     3
 72
    11
 73
     7
 74
     0
 42
0.000000001
 43
0.00000001
 40
0.0
 40
0.0
 40
0.0
 40
0.0
 40
0.2648652271873394
 40
0.5126647275748566
 40
0.7539003475977979
 40
1.0
 40
1.0
 40
1.0
 40
1.0
 10
1208.387890150902
 20
-466.2744418852412
 30
0.0
 10
1208.226854546293
 20
-466.1569456190828
 30
0.0
 10
1207.915159140885
 20
-465.9295235753481
 30
0.0
 10
1207.439061097955
 20
-465.4597989423868
 30
0.0
 10
1207.056109340716
 20
-464.9139504747199
 30
0.0
 10
1206.907368124257
 20
-464.4983078346948
 30
0.0
 10
1206.832255232291
 20
-464.2884122760895
 30
0.0
  0
LINE
  5
249
330
1F
100
AcDbEntity
  8
0
  6
SLD-Сплошная
 62
     7
370
    35
100
AcDbLine
 10
1200.2577386319
 20
-484.0521522464
 30
0.0
 11
1202.4577386319
 21
-484.0521522464
 31
0.0
  0
LINE
  5
24A
330
1F
100
AcDbEntity
  8
0
  6
SLD-Сплошная
 62
     7
370
    35
100
AcDbLine
 10
1202.4577386319
 20
-302.0521522464
 30
0.0
 11
1200.2577386319
 21
-302.0521522464
 31
0.0
  0
LINE
  5
24B
330
1F
100
AcDbEntity
  8
0
  6
SLD-Сплошная
 62
     7
370
    35
100
AcDbLine
 10
1200.2577386319
 20
-484.0521522464
 30
0.0
 11
1200.2577386319
 21
-302.0521522464
 31
0.0
  0
LINE
  5
24C
330
1F
100
AcDbEntity
  8
0
  6
SLD-Сплошная
 62
     7
370
    35
100
AcDbLine
 10
1200.2577386319
 20
-296.7478300087
 30
0.0
 11
1201.4577386319
 21
-296.7478300087
 31
0.0
  0
LINE
  5
24D
330
1F
100
AcDbEntity
  8
0
  6
SLD-Сплошная
 62
     7
370
    35
100
AcDbLine
 10
1201.4577386319
 20
-296.7478300087
 30
0.0
 11
1201.4577386319
 21
-293.1020168105
 31
0.0
  0
LINE
  5
24E
330
1F
100
AcDbEntity
  8
0
  6
SLD-Сплошная
 62
     7
370
    35
100
AcDbLine
 10
1200.2577386319
 20
-293.1020168105
 30
0.0
 11
1200.2577386319
 21
-296.7478300087
 31
0.0
  0
ARC
  5
24F
330
1F
100
AcDbEntity
  8
0
  6
SLD-Сплошная
 62
     7
370
    35
100
AcDbCircle
 10
1210.1128843722
 20
-306.6082215242
 30
0.0
 40
4.92763356871328
100
AcDbArc
 50
354.831212758
 51
64.1056628133
  0
ARC
  5
250
330
1F
100
AcDbEntity
  8
0
  6
SLD-Сплошная
 62
     7
370
    35
100
AcDbCircle
 10
1210.9614125096
 20
-306.6082215242
 30
0.0
 40
4.927633568713317
100
AcDbArc
 50
354.831212758
 51
64.1056628133
  0
LINE
  5
251
330
1F
100
AcDbEntity
  8
0
  6
SLD-Сплошная
 62
     7
370
    35
100
AcDbLine
 10
1213.1133735505
 20
-302.1753177055
 30
0.0
 11
1212.2648454131
 21
-302.1753177055
 31
0.0
  0
ARC
  5
252
330
1F
100
AcDbEntity
  8
0
  6
SLD-Сплошная
 62
     7
370
    35
100
AcDbCircle
 10
1210.9614125096
 20
-479.4960829685
 30
0.0
 40
4.927633568713486
100
AcDbArc
 50
295.8943371867
 51
5.168787242
  0
ARC
  5
253
330
1F
100
AcDbEntity
  8
0
  6
SLD-Сплошная
 62
     7
370
    35
100
AcDbCircle
 10
1210.1128843722
 20
-479.4960829685
 30
0.0
 40
4.92763356871328
100
AcDbArc
 50
295.8943371867
 51
5.168787242
  0
LINE
  5
254
330
1F
100
AcDbEntity
  8
0
  6
SLD-Сплошная
 62
     7
370
    35
100
AcDbLine
 10
1212.2648454131
 20
-483.9289867873
 30
0.0
 11
1213.1133735505
 21
-483.9289867873
 31
0.0
  0
LINE
  5
255
330
1F
100
AcDbEntity
  8
0
  6
SLD-Сплошная
 62
     7
370
    35
100
AcDbLine
 10
1215.0204803317
 20
-479.0521522464
 30
0.0
 11
1215.0204803317
 21
-307.0521522464
 31
0.0
  0
LINE
  5
256
330
1F
100
AcDbEntity
  8
0
  6
SLD-Сплошная
 62
     7
370
    35
100
AcDbLine
 10
1215.8690084691
 20
-479.0521522464
 30
0.0
 11
1215.8690084691
 21
-307.0521522464
 31
0.0
  0
ARC
  5
257
330
1F
100
AcDbEntity
  8
0
  6
SLD-Сплошная
 62
     7
370
    35
100
AcDbCircle
 10
1209.5433995784
 20
-465.2381144901
 30
0.0
 40
1.552152217751242
100
AcDbArc
 50
221.8875833935
 51
327.3738309362
  0
LINE
  5
258
330
1F
100
AcDbEntity
  8
0
  6
SLD-Сплошная
 62
     7
370
    35
100
AcDbLine
 10
1208.3878901509
 20
-484.0521522464
 30
0.0
 11
1210.8506318507
 21
-484.0521522464
 31
0.0
  0
ARC
  5
259
330
1F
100
AcDbEntity
  8
0
  6
SLD-Сплошная
 62
     7
370
    35
100
AcDbCircle
 10
1208.5327956432
 20
-465.0234386653
 30
0.0
 40
1.806813699297328
100
AcDbArc
 50
288.5980100757
 51
324.4101594818
  0
LINE
  5
25A
330
1F
100
AcDbEntity
  8
0
  6
SLD-Сплошная
 62
     7
370
    35
100
AcDbLine
 10
1210.8506318507
 20
-466.0749659066
 30
0.0
 11
1210.0021037133
 21
-466.0749659066
 31
0.0
  0
ARC
  5
25B
330
1F
100
AcDbEntity
  8
0
  6
SLD-Сплошная
 62
     7
370
    35
100
AcDbCircle
 10
1209.5433995784
 20
-462.8661900027
 30
0.0
 40
1.552152217751191
100
AcDbArc
 50
32.6261690638
 51
138.1124166065
  0
ARC
  5
25C
330
1F
100
AcDbEntity
  8
0
  6
SLD-Сплошная
 62
     7
370
    35
100
AcDbCircle
 10
1208.5327956434
 20
-463.0808658272
 30
0.0
 40
1.806813699034258
100
AcDbArc
 50
35.5898405165
 51
71.4019899593
  0
LINE
  5
25D
330
1F
100
AcDbEntity
  8
0
  6
SLD-Сплошная
 62
     7
370
    35
100
AcDbLine
 10
1210.0021037133
 20
-462.0293385862
 30
0.0
 11
1210.8506318507
 21
-462.0293385862
 31
0.0
  0
LINE
  5
25E
330
1F
100
AcDbEntity
  8
0
  6
SLD-Сплошная
 62
     7
370
    35
100
AcDbLine
 10
1210.8506318507
 20
-302.0521522464
 30
0.0
 11
1208.3878901509
 21
-302.0521522464
 31
0.0
  0
LINE
  5
25F
330
1F
100
AcDbEntity
  8
0
  6
SLD-Сплошная
 62
     7
370
    35
100
AcDbLine
 10
1201.4577386319
 20
-301.5570383607
 30
0.0
 11
1200.2577386319
 21
-301.5570383607
 31
0.0
  0
LINE
  5
260
330
1F
100
AcDbEntity
  8
0
  6
SLD-Сплошная
 62
     7
370
    35
100
AcDbLine
 10
1201.4577386319
 20
-296.7478300087
 30
0.0
 11
1201.4577386319
 21
-301.5570383607
 31
0.0
  0
LINE
  5
261
330
1F
100
AcDbEntity
  8
0
  6
SLD-Сплошная
 62
     7
370
    35
100
AcDbLine
 10
1200.2577386319
 20
-301.5570383607
 30
0.0
 11
1200.2577386319
 21
-296.7478300087
 31
0.0
  0
LINE
  5
262
330
1F
100
AcDbEntity
  8
0
  6
SLD-Сплошная
 62
     7
370
    35
100
AcDbLine
 10
1201.4577386319
 20
-301.5570383607
 30
0.0
 11
1201.4577386319
 21
-302.0521522464
 31
0.0
  0
LINE
  5
263
330
1F
100
AcDbEntity
  8
0
  6
SLD-Сплошная
 62
     7
370
    35
100
AcDbLine
 10
1200.2577386319
 20
-301.5570383607
 30
0.0
 11
1200.2577386319
 21
-302.0521522464
 31
0.0
  0
LINE
  5
264
330
1F
100
AcDbEntity
  8
0
  6
SLD-Сплошная
 62
     7
370
    35
100
AcDbLine
 10
1200.2577386319
 20
-514.0521522464
 30
0.0
 11
1201.4577386319
 21
-514.0521522464
 31
0.0
  0
LINE
  5
265
330
1F
100
AcDbEntity
  8
0
  6
SLD-Сплошная
 62
     7
370
    35
100
AcDbLine
 10
1201.4577386319
 20
-514.0521522464
 30
0.0
 11
1201.4577386319
 21
-509.0521522464
 31
0.0
  0
LINE
  5
266
330
1F
100
AcDbEntity
  8
0
  6
SLD-Сплошная
 62
     7
370
    35
100
AcDbLine
 10
1200.2577386319
 20
-509.0521522464
 30
0.0
 11
1200.2577386319
 21
-514.0521522464
 31
0.0
  0
LINE
  5
267
330
1F
100
AcDbEntity
  8
0
  6
SLD-Сплошная
 62
     7
370
    35
100
AcDbLine
 10
1201.4577386319
 20
-509.0521522464
 30
0.0
 11
1201.4577386319
 21
-484.0521522464
 31
0.0
  0
LINE
  5
268
330
1F
100
AcDbEntity
  8
0
  6
SLD-Сплошная
 62
     7
370
    35
100
AcDbLine
 10
1200.2577386319
 20
-509.0521522464
 30
0.0
 11
1200.2577386319
 21
-484.0521522464
 31
0.0
  0
SPLINE
  5
269
330
1F
100
AcDbEntity
  8
0
  6
SLD-Сплошная
 62
     7
370
    35
100
AcDbSpline
210
0.0
220
0.0
230
1.0
 70
     8
 71
     3
 72
    11
 73
     7
 74
     0
 42
0.000000001
 43
0.00000001
 40
0.0
 40
0.0
 40
0.0
 40
0.0
 40
0.2499999999999994
 40
0.5000000000000058
 40
0.7500000000000012
 40
1.0
 40
1.0
 40
1.0
 40
1.0
 10
1211.584017756471
 20
-484.0521522463762
 30
0.0
 10
1211.725769253631
 20
-484.0418884581164
 30
0.0
 10
1212.009272247951
 20
-484.0213608815971
 30
0.0
 10
1212.416398957376
 20
-483.9905695168174
 30
0.0
 10
1212.795732457364
 20
-483.9597781520384
 30
0.0
 10
1213.007493186119
 20
-483.9392505755188
 30
0.0
 10
1213.113373550496
 20
-483.9289867872589
 30
0.0
  0
SPLINE
  5
26A
330
1F
100
AcDbEntity
  8
0
  6
SLD-Сплошная
 62
     7
370
    35
100
AcDbSpline
210
0.0
220
0.0
230
1.0
 70
     8
 71
     3
 72
    11
 73
     7
 74
     0
 42
0.000000001
 43
0.00000001
 40
0.0
 40
0.0
 40
0.0
 40
0.0
 40
0.2500000000000007
 40
0.5000000000000097
 40
0.7499999999999841
 40
1.0
 40
1.0
 40
1.0
 40
1.0
 10
1211.569683688515
 20
-484.0521522463762
 30
0.0
 10
1211.634116187224
 20
-484.0418884581166
 30
0.0
 10
1211.762981184643
 20
-484.0213608815968
 30
0.0
 10
1211.948038779836
 20
-483.9905695168176
 30
0.0
 10
1212.120463098012
 20
-483.9597781520382
 30
0.0
 10
1212.216717974719
 20
-483.9392505755187
 30
0.0
 10
1212.264845413072
 20
-483.9289867872589
 30
0.0
  0
SPLINE
  5
26B
330
1F
100
AcDbEntity
  8
0
  6
SLD-Сплошная
 62
     7
370
    35
100
AcDbSpline
210
0.0
220
0.0
230
1.0
 70
     8
 71
     3
 72
    15
 73
    11
 74
     0
 42
0.000000001
 43
0.00000001
 40
0.0
 40
0.0
 40
0.0
 40
0.0
 40
0.1475044205085344
 40
0.2753044498711074
 40
0.3901463070109681
 40
0.5012838998773298
 40
0.6035724100769455
 40
0.715738221123893
 40
0.8461103176465539
 40
1.0
 40
1.0
 40
1.0
 40
1.0
 10
1210.002103713276
 20
-462.0293385861521
 30
0.0
 10
1210.159678173512
 20
-462.1726523814124
 30
0.0
 10
1210.453777495684
 20
-462.4401353858343
 30
0.0
 10
1210.872535304596
 20
-462.9382412086623
 30
0.0
 10
1211.137820732324
 20
-463.4784577253961
 30
0.0
 10
1211.228994021132
 20
-464.0356053952487
 30
0.0
 10
1211.139429561222
 20
-464.588356462683
 30
0.0
 10
1210.870342868515
 20
-465.1098017900175
 30
0.0
 10
1210.453017461441
 20
-465.6197376356097
 30
0.0
 10
1210.160475827976
 20
-465.9150784242571
 30
0.0
 10
1210.002103713276
 20
-466.0749659066004
 30
0.0
  0
SPLINE
  5
26C
330
1F
100
AcDbEntity
  8
0
  6
SLD-Сплошная
 62
     7
370
    35
100
AcDbSpline
210
0.0
220
0.0
230
1.0
 70
     8
 71
     3
 72
    11
 73
     7
 74
     0
 42
0.000000001
 43
0.00000001
 40
0.0
 40
0.0
 40
0.0
 40
0.0
 40
0.2452493600103244
 40
0.5001890705420184
 40
0.7413618287577498
 40
1.0
 40
1.0
 40
1.0
 40
1.0
 10
1210.850631850699
 20
-462.0293385861521
 30
0.0
 10
1210.997031252405
 20
-462.33549940987
 30
0.0
 10
1211.295614623486
 20
-462.9599181559388
 30
0.0
 10
1211.447642203122
 20
-464.032205267538
 30
0.0
 10
1211.282203262388
 20
-465.1154045444558
 30
0.0
 10
1210.997801701091
 20
-465.7477465906691
 30
0.0
 10
1210.850631850699
 20
-466.0749659066004
 30
0.0
  0
LINE
  5
26D
330
1F
100
AcDbEntity
  8
0
  6
SLD-Сплошная
 62
     7
370
    35
100
AcDbLine
 10
1210.8506318507
 20
-484.0521522464
 30
0.0
 11
1211.5696836885
 21
-484.0521522464
 31
0.0
  0
SPLINE
  5
26E
330
1F
100
AcDbEntity
  8
0
  6
SLD-Сплошная
 62
     7
370
    35
100
AcDbSpline
210
0.0
220
0.0
230
1.0
 70
     8
 71
     3
 72
    11
 73
     7
 74
     0
 42
0.000000001
 43
0.00000001
 40
0.0
 40
0.0
 40
0.0
 40
0.0
 40
0.2500000000000214
 40
0.5000000000000127
 40
0.7500000000000161
 40
1.0
 40
1.0
 40
1.0
 40
1.0
 10
1212.264845413072
 20
-302.1753177054936
 30
0.0
 10
1212.216717974719
 20
-302.1650539172338
 30
0.0
 10
1212.120463098012
 20
-302.1445263407143
 30
0.0
 10
1211.948038779836
 20
-302.1137349759349
 30
0.0
 10
1211.762981184643
 20
-302.0829436111555
 30
0.0
 10
1211.634116187224
 20
-302.0624160346362
 30
0.0
 10
1211.569683688515
 20
-302.0521522463764
 30
0.0
  0
LINE
  5
26F
330
1F
100
AcDbEntity
  8
0
  6
SLD-Сплошная
 62
     7
370
    35
100
AcDbLine
 10
1211.5696836885
 20
-302.0521522464
 30
0.0
 11
1210.8506318507
 21
-302.0521522464
 31
0.0
  0
SPLINE
  5
270
330
1F
100
AcDbEntity
  8
0
  6
SLD-Сплошная
 62
     7
370
    35
100
AcDbSpline
210
0.0
220
0.0
230
1.0
 70
     8
 71
     3
 72
    11
 73
     7
 74
     0
 42
0.000000001
 43
0.00000001
 40
0.0
 40
0.0
 40
0.0
 40
0.0
 40
0.2500000000000032
 40
0.5000000000000006
 40
0.750000000000004
 40
1.0
 40
1.0
 40
1.0
 40
1.0
 10
1213.113373550496
 20
-302.1753177054936
 30
0.0
 10
1213.007493186119
 20
-302.1650539172338
 30
0.0
 10
1212.795732457364
 20
-302.1445263407142
 30
0.0
 10
1212.416398957376
 20
-302.113734975935
 30
0.0
 10
1212.009272247951
 20
-302.0829436111555
 30
0.0
 10
1211.725769253631
 20
-302.0624160346362
 30
0.0
 10
1211.584017756471
 20
-302.0521522463764
 30
0.0
  0
LINE
  5
271
330
1F
100
AcDbEntity
  8
0
  6
SLD-Сплошная
 62
     7
370
    35
100
AcDbLine
 10
1199.2577386319
 20
-492.0521530895
 30
0.0
 11
1199.2577386319
 21
-506.0521522464
 31
0.0
  0
LINE
  5
272
330
1F
100
AcDbEntity
  8
0
  6
SLD-Сплошная
 62
     7
370
    35
100
AcDbLine
 10
1202.057738632
 20
-502.3021522464
 30
0.0
 11
1202.057738632
 21
-495.8021522464
 31
0.0
  0
SPLINE
  5
273
330
1F
100
AcDbEntity
  8
0
  6
SLD-Сплошная
 62
     7
370
    35
100
AcDbSpline
210
0.0
220
0.0
230
1.0
 70
     8
 71
     3
 72
    12
 73
     8
 74
     0
 42
0.000000001
 43
0.00000001
 40
0.0
 40
0.0
 40
0.0
 40
0.0
 40
0.0086674047363283
 40
0.267632629882784
 40
0.5286616002507958
 40
0.7638461449005343
 40
0.9999999999999999
 40
0.9999999999999999
 40
0.9999999999999999
 40
0.9999999999999999
 10
1190.026435495869
 20
299.2937327965113
 30
0.0
 10
1190.027004952622
 20
299.2933145281717
 30
0.0
 10
1190.044588671513
 20
299.2803992139389
 30
0.0
 10
1190.077782051015
 20
299.2451786721423
 30
0.0
 10
1190.116224741407
 20
299.1711891761292
 30
0.0
 10
1190.142897393793
 20
299.080589418012
 30
0.0
 10
1190.146521683557
 20
299.014337471808
 30
0.0
 10
1190.148337555127
 20
298.9811433749293
 30
0.0
  0
SPLINE
  5
274
330
1F
100
AcDbEntity
  8
0
  6
SLD-Сплошная
 62
     7
370
    35
100
AcDbSpline
210
0.0
220
0.0
230
1.0
 70
     8
 71
     3
 72
    12
 73
     8
 74
     0
 42
0.000000001
 43
0.00000001
 40
0.0
 40
0.0
 40
0.0
 40
0.0
 40
0.0086674047363051
 40
0.267632629882791
 40
0.5286616002507979
 40
0.7638461449005334
 40
0.9999999999999999
 40
0.9999999999999999
 40
0.9999999999999999
 40
0.9999999999999999
 10
1194.889041767902
 20
299.2937327965113
 30
0.0
 10
1194.888472311149
 20
299.2933145281716
 30
0.0
 10
1194.870888592259
 20
299.2803992139393
 30
0.0
 10
1194.837695212756
 20
299.2451786721424
 30
0.0
 10
1194.799252522364
 20
299.1711891761291
 30
0.0
 10
1194.772579869979
 20
299.0805894180122
 30
0.0
 10
1194.768955580214
 20
299.0143374718079
 30
0.0
 10
1194.767139708644
 20
298.9811433749293
 30
0.0
  0
SPLINE
  5
275
330
1F
100
AcDbEntity
  8
0
  6
SLD-Сплошная
 62
     7
370
    35
100
AcDbSpline
210
0.0
220
0.0
230
1.0
 70
     8
 71
     3
 72
    12
 73
     8
 74
     0
 42
0.000000001
 43
0.00000001
 40
0.0
 40
0.0
 40
0.0
 40
0.0
 40
0.2361538550994128
 40
0.471338399749127
 40
0.7323673701170687
 40
0.9913325952635405
 40
1.0
 40
1.0
 40
1.0
 40
1.0
 10
1197.076540785403
 20
298.9811433749293
 30
0.0
 10
1197.080172528543
 20
299.014337471808
 30
0.0
 10
1197.087421108072
 20
299.080589418012
 30
0.0
 10
1197.140766412844
 20
299.1711891761291
 30
0.0
 10
1197.217651793626
 20
299.2451786721428
 30
0.0
 10
1197.284038552632
 20
299.2803992139383
 30
0.0
 10
1197.319205990413
 20
299.2933145281717
 30
0.0
 10
1197.320344903919
 20
299.2937327965113
 30
0.0
  0
SPLINE
  5
276
330
1F
100
AcDbEntity
  8
0
  6
SLD-Сплошная
 62
     7
370
    35
100
AcDbSpline
210
0.0
220
0.0
230
1.0
 70
     8
 71
     3
 72
    12
 73
     8
 74
     0
 42
0.000000001
 43
0.00000001
 40
0.0
 40
0.0
 40
0.0
 40
0.0
 40
0.0086674047364441
 40
0.2676326298829182
 40
0.528661600250874
 40
0.7638461449005823
 40
1.0
 40
1.0
 40
1.0
 40
1.0
 10
1187.595132359853
 20
299.2937327965113
 30
0.0
 10
1187.596271273359
 20
299.2933145281716
 30
0.0
 10
1187.631438711139
 20
299.2803992139393
 30
0.0
 10
1187.697825470145
 20
299.2451786721423
 30
0.0
 10
1187.774710850928
 20
299.1711891761292
 30
0.0
 10
1187.8280561557
 20
299.0805894180122
 30
0.0
 10
1187.835304735229
 20
299.014337471808
 30
0.0
 10
1187.838936478369
 20
298.9811433749293
 30
0.0
  0
SPLINE
  5
277
330
1F
100
AcDbEntity
  8
0
  6
SLD-Сплошная
 62
     7
370
    35
100
AcDbSpline
210
0.0
220
0.0
230
1.0
 70
     8
 71
     3
 72
     9
 73
     5
 74
     0
 42
0.000000001
 43
0.00000001
 40
0.0
 40
0.0
 40
0.0
 40
0.0
 40
0.6837814517460596
 40
1.0
 40
1.0
 40
1.0
 40
1.0
 10
1195.921840247024
 20
295.5478477536238
 30
0.0
 10
1195.656518481633
 20
295.5710739243812
 30
0.0
 10
1195.26849718519
 20
295.6050411674205
 30
0.0
 10
1194.887589715674
 20
295.7515264045866
 30
0.0
 10
1194.767139708644
 20
295.7978477536239
 30
0.0
  0
SPLINE
  5
278
330
1F
100
AcDbEntity
  8
0
  6
SLD-Сплошная
 62
     7
370
    35
100
AcDbSpline
210
0.0
220
0.0
230
1.0
 70
     8
 71
     3
 72
     9
 73
     5
 74
     0
 42
0.000000001
 43
0.00000001
 40
0.0
 40
0.0
 40
0.0
 40
0.0
 40
0.2537658352361424
 40
1.0
 40
1.0
 40
1.0
 40
1.0
 10
1194.767139708644
 20
295.7978477536239
 30
0.0
 10
1194.573961908951
 20
295.7602955429892
 30
0.0
 10
1193.812717592854
 20
295.6123157702206
 30
0.0
 10
1193.036774143625
 20
295.5753974588637
 30
0.0
 10
1192.457738631886
 20
295.5478477536238
 30
0.0
  0
LINE
  5
279
330
1F
100
AcDbEntity
  8
0
  6
SLD-Сплошная
 62
     7
370
    35
100
AcDbLine
 10
1195.921840247
 20
295.5478477536
 30
0.0
 11
1192.4577386319
 21
295.5478477536
 31
0.0
  0
LINE
  5
27A
330
1F
100
AcDbEntity
  8
0
  6
SLD-Сплошная
 62
     7
370
    35
100
AcDbLine
 10
1197.0765407854
 20
295.7978477536
 30
0.0
 11
1195.921840247
 21
295.5478477536
 31
0.0
  0
LINE
  5
27B
330
1F
100
AcDbEntity
  8
0
  6
SLD-Сплошная
 62
     7
370
    35
100
AcDbLine
 10
1197.0765407854
 20
298.9811433749
 30
0.0
 11
1197.0765407854
 21
295.7978477536
 31
0.0
  0
LINE
  5
27C
330
1F
100
AcDbEntity
  8
0
  6
SLD-Сплошная
 62
     7
370
    35
100
AcDbLine
 10
1194.7671397086
 20
298.9811433749
 30
0.0
 11
1194.7671397086
 21
295.7978477536
 31
0.0
  0
SPLINE
  5
27D
330
1F
100
AcDbEntity
  8
0
  6
SLD-Сплошная
 62
     7
370
    35
100
AcDbSpline
210
0.0
220
0.0
230
1.0
 70
     8
 71
     3
 72
     9
 73
     5
 74
     0
 42
0.000000001
 43
0.00000001
 40
0.0
 40
0.0
 40
0.0
 40
0.0
 40
0.8037424145840146
 40
1.0
 40
1.0
 40
1.0
 40
1.0
 10
1192.457738631886
 20
295.5478477536239
 30
0.0
 10
1191.83417767999
 20
295.5796680793009
 30
0.0
 10
1191.058355799024
 20
295.6192582827039
 30
0.0
 10
1190.297634818032
 20
295.7685484298237
 30
0.0
 10
1190.148337555127
 20
295.7978477536239
 30
0.0
  0
LINE
  5
27E
330
1F
100
AcDbEntity
  8
0
  6
SLD-Сплошная
 62
     7
370
    35
100
AcDbLine
 10
1190.1483375551
 20
298.9811433749
 30
0.0
 11
1190.1483375551
 21
295.7978477536
 31
0.0
  0
LINE
  5
27F
330
1F
100
AcDbEntity
  8
0
  6
SLD-Сплошная
 62
     7
370
    35
100
AcDbLine
 10
1190.1483375551
 20
295.7978477536
 30
0.0
 11
1188.9936370167
 21
295.5478477536
 31
0.0
  0
LINE
  5
280
330
1F
100
AcDbEntity
  8
0
  6
SLD-Сплошная
 62
     7
370
    35
100
AcDbLine
 10
1192.4577386319
 20
295.5478477536
 30
0.0
 11
1188.9936370167
 21
295.5478477536
 31
0.0
  0
SPLINE
  5
281
330
1F
100
AcDbEntity
  8
0
  6
SLD-Сплошная
 62
     7
370
    35
100
AcDbSpline
210
0.0
220
0.0
230
1.0
 70
     8
 71
     3
 72
     9
 73
     5
 74
     0
 42
0.000000001
 43
0.00000001
 40
0.0
 40
0.0
 40
0.0
 40
0.0
 40
0.6837814517460596
 40
1.0
 40
1.0
 40
1.0
 40
1.0
 10
1188.993637016748
 20
295.5478477536238
 30
0.0
 10
1188.728315251358
 20
295.5710739243812
 30
0.0
 10
1188.340293954915
 20
295.6050411674205
 30
0.0
 10
1187.959386485398
 20
295.7515264045866
 30
0.0
 10
1187.838936478369
 20
295.7978477536239
 30
0.0
  0
LINE
  5
282
330
1F
100
AcDbEntity
  8
0
  6
SLD-Сплошная
 62
     7
370
    35
100
AcDbLine
 10
1187.8389364784
 20
298.9811433749
 30
0.0
 11
1187.8389364784
 21
295.7978477536
 31
0.0
  0
LINE
  5
283
330
1F
100
AcDbEntity
  8
0
  6
SLD-Сплошная
 62
     7
370
    35
100
AcDbLine
 10
1196.4577386319
 20
295.5478477536
 30
0.0
 11
1195.921840247
 21
295.5478477536
 31
0.0
  0
LINE
  5
284
330
1F
100
AcDbEntity
  8
0
  6
SLD-Сплошная
 62
     7
370
    35
100
AcDbLine
 10
1188.9936370167
 20
295.5478477536
 30
0.0
 11
1188.4577386319
 21
295.5478477536
 31
0.0
  0
SPLINE
  5
285
330
1F
100
AcDbEntity
  8
0
  6
SLD-Сплошная
 62
     7
370
    35
100
AcDbSpline
210
0.0
220
0.0
230
1.0
 70
     8
 71
     3
 72
    10
 73
     6
 74
     0
 42
0.000000001
 43
0.00000001
 40
0.0
 40
0.0
 40
0.0
 40
0.0
 40
0.1826148160850937
 40
0.9162150326426237
 40
1.0
 40
1.0
 40
1.0
 40
1.0
 10
1196.109020581845
 20
304.1755319609231
 30
0.0
 10
1196.146010679726
 20
304.2093306462526
 30
0.0
 10
1196.331597394234
 20
304.3789054061019
 30
0.0
 10
1196.54183205098
 20
304.4978225402419
 30
0.0
 10
1196.722767309407
 20
304.3818721375798
 30
0.0
 10
1196.741313834374
 20
304.3699867977262
 30
0.0
  0
SPLINE
  5
286
330
1F
100
AcDbEntity
  8
0
  6
SLD-Сплошная
 62
     7
370
    35
100
AcDbSpline
210
0.0
220
0.0
230
1.0
 70
     8
 71
     3
 72
    12
 73
     8
 74
     0
 42
0.000000001
 43
0.00000001
 40
0.0
 40
0.0
 40
0.0
 40
0.0
 40
0.0086674047367107
 40
0.2676326298829941
 40
0.528661600250984
 40
0.7638461449006377
 40
1.0
 40
1.0
 40
1.0
 40
1.0
 10
1196.109020581845
 20
304.1755319609231
 30
0.0
 10
1196.108165383193
 20
304.1759502292628
 30
0.0
 10
1196.081758509264
 20
304.1888655434944
 30
0.0
 10
1196.03190936226
 20
304.2240860852925
 30
0.0
 10
1195.974176906173
 20
304.2980755813051
 30
0.0
 10
1195.934120455469
 20
304.3886753394223
 30
0.0
 10
1195.928677570292
 20
304.4549272856264
 30
0.0
 10
1195.92595053104
 20
304.4881213825051
 30
0.0
  0
SPLINE
  5
287
330
1F
100
AcDbEntity
  8
0
  6
SLD-Сплошная
 62
     7
370
    35
100
AcDbSpline
210
0.0
220
0.0
230
1.0
 70
     8
 71
     3
 72
    12
 73
     8
 74
     0
 42
0.000000001
 43
0.00000001
 40
0.0
 40
0.0
 40
0.0
 40
0.0
 40
0.2361538550995126
 40
0.4713383997491477
 40
0.7323673701173974
 40
0.9913325952638176
 40
1.0
 40
1.0
 40
1.0
 40
1.0
 10
1191.550134970827
 20
304.4881213825052
 30
0.0
 10
1191.549421326194
 20
304.4549272856265
 30
0.0
 10
1191.547996966133
 20
304.3886753394224
 30
0.0
 10
1191.537514509361
 20
304.2980755813053
 30
0.0
 10
1191.522406381591
 20
304.2240860852918
 30
0.0
 10
1191.509361253544
 20
304.1888655434956
 30
0.0
 10
1191.502450783205
 20
304.1759502292628
 30
0.0
 10
1191.502226984473
 20
304.1755319609231
 30
0.0
  0
LINE
  5
288
330
1F
100
AcDbEntity
  8
0
  6
SLD-Сплошная
 62
     7
370
    35
100
AcDbLine
 10
1195.925950531
 20
307.9905821637
 30
0.0
 11
1193.7380427509
 21
308.3478477536
 31
0.0
  0
SPLINE
  5
289
330
1F
100
AcDbEntity
  8
0
  6
SLD-Сплошная
 62
     7
370
    35
100
AcDbSpline
210
0.0
220
0.0
230
1.0
 70
     8
 71
     3
 72
     9
 73
     5
 74
     0
 42
0.000000001
 43
0.00000001
 40
0.0
 40
0.0
 40
0.0
 40
0.0
 40
0.0701852045454354
 40
1.0
 40
1.0
 40
1.0
 40
1.0
 10
1193.738042750934
 20
308.3478477536239
 30
0.0
 10
1193.686187760428
 20
308.3474910174743
 30
0.0
 10
1192.947356964938
 20
308.3424082346878
 30
0.0
 10
1192.223338267703
 20
308.1600974389571
 30
0.0
 10
1191.550134970827
 20
307.9905821637157
 30
0.0
  0
LINE
  5
28A
330
1F
100
AcDbEntity
  8
0
  6
SLD-Сплошная
 62
     7
370
    35
100
AcDbLine
 10
1191.5501349708
 20
304.4881213825
 30
0.0
 11
1191.5501349708
 21
307.9905821637
 31
0.0
  0
LINE
  5
28B
330
1F
100
AcDbEntity
  8
0
  6
SLD-Сплошная
 62
     7
370
    35
100
AcDbLine
 10
1195.925950531
 20
304.4881213825
 30
0.0
 11
1195.925950531
 21
307.9905821637
 31
0.0
  0
SPLINE
  5
28C
330
1F
100
AcDbEntity
  8
0
  6
SLD-Сплошная
 62
     7
370
    35
100
AcDbSpline
210
0.0
220
0.0
230
1.0
 70
     8
 71
     3
 72
     9
 73
     5
 74
     0
 42
0.000000001
 43
0.00000001
 40
0.0
 40
0.0
 40
0.0
 40
0.0
 40
0.1972242043131763
 40
1.0
 40
1.0
 40
1.0
 40
1.0
 10
1191.550134970827
 20
307.9905821637157
 30
0.0
 10
1191.438809337092
 20
308.0322203206292
 30
0.0
 10
1190.874347007921
 20
308.2433412479949
 30
0.0
 10
1190.287297864482
 20
308.3013110220949
 30
0.0
 10
1189.81602902125
 20
308.3478477536239
 30
0.0
  0
LINE
  5
28D
330
1F
100
AcDbEntity
  8
0
  6
SLD-Сплошная
 62
     7
370
    35
100
AcDbLine
 10
1189.8160290213
 20
308.3478477536
 30
0.0
 11
1193.7380427509
 21
308.3478477536
 31
0.0
  0
SPLINE
  5
28E
330
1F
100
AcDbEntity
  8
0
  6
SLD-Сплошная
 62
     7
370
    35
100
AcDbSpline
210
0.0
220
0.0
230
1.0
 70
     8
 71
     3
 72
    12
 73
     8
 74
     0
 42
0.000000001
 43
0.00000001
 40
0.0
 40
0.0
 40
0.0
 40
0.0
 40
0.2361538550994461
 40
0.4713383997492771
 40
0.7323673701169753
 40
0.991332595263715
 40
0.9999999999999999
 40
0.9999999999999999
 40
0.9999999999999999
 40
0.9999999999999999
 10
1188.081923071673
 20
304.4881213825051
 30
0.0
 10
1188.078482387787
 20
304.4549272856264
 30
0.0
 10
1188.071615142549
 20
304.3886753394222
 30
0.0
 10
1188.021076235074
 20
304.2980755813055
 30
0.0
 10
1187.948235651217
 20
304.2240860852917
 30
0.0
 10
1187.885341376165
 20
304.1888655434955
 30
0.0
 10
1187.852024031898
 20
304.1759502292628
 30
0.0
 10
1187.850945034514
 20
304.1755319609231
 30
0.0
  0
SPLINE
  5
28F
330
1F
100
AcDbEntity
  8
0
  6
SLD-Сплошная
 62
     7
370
    35
100
AcDbSpline
210
0.0
220
0.0
230
1.0
 70
     8
 71
     3
 72
     9
 73
     5
 74
     0
 42
0.000000001
 43
0.00000001
 40
0.0
 40
0.0
 40
0.0
 40
0.0
 40
0.0701852045454081
 40
1.0
 40
1.0
 40
1.0
 40
1.0
 10
1196.379752361569
 20
308.3478477536239
 30
0.0
 10
1196.368996931277
 20
308.3474910174743
 30
0.0
 10
1196.215753375725
 20
308.3424082346879
 30
0.0
 10
1196.065582050804
 20
308.1600974389571
 30
0.0
 10
1195.92595053104
 20
307.9905821637157
 30
0.0
  0
LINE
  5
290
330
1F
100
AcDbEntity
  8
0
  6
SLD-Сплошная
 62
     7
370
    35
100
AcDbLine
 10
1193.7380427509
 20
308.3478477536
 30
0.0
 11
1196.3797523616
 21
308.3478477536
 31
0.0
  0
SPLINE
  5
291
330
1F
100
AcDbEntity
  8
0
  6
SLD-Сплошная
 62
     7
370
    35
100
AcDbSpline
210
0.0
220
0.0
230
1.0
 70
     8
 71
     3
 72
     9
 73
     5
 74
     0
 42
0.000000001
 43
0.00000001
 40
0.0
 40
0.0
 40
0.0
 40
0.0
 40
0.2210460768286877
 40
1.0
 40
1.0
 40
1.0
 40
1.0
 10
1189.81602902125
 20
308.3478477536239
 30
0.0
 10
1189.68633959698
 20
308.3442655033141
 30
0.0
 10
1189.099631947015
 20
308.328059604702
 30
0.0
 10
1188.52754918417
 20
308.1383540498865
 30
0.0
 10
1188.081923071673
 20
307.9905821637157
 30
0.0
  0
LINE
  5
292
330
1F
100
AcDbEntity
  8
0
  6
SLD-Сплошная
 62
     7
370
    35
100
AcDbLine
 10
1188.0819230717
 20
304.4881213825
 30
0.0
 11
1188.0819230717
 21
307.9905821637
 31
0.0
  0
LINE
  5
293
330
1F
100
AcDbEntity
  8
0
  6
SLD-Сплошная
 62
     7
370
    35
100
AcDbLine
 10
1190.8066701252
 20
291.3928477536
 30
0.0
 11
1189.9577386319
 21
291.3928477536
 31
0.0
  0
LINE
  5
294
330
1F
100
AcDbEntity
  8
0
  6
SLD-Сплошная
 62
     7
370
    35
100
AcDbLine
 10
1194.9577386319
 20
291.3928477536
 30
0.0
 11
1190.8066701252
 21
291.3928477536
 31
0.0
  0
LINE
  5
295
330
1F
100
AcDbEntity
  8
0
  6
SLD-Сплошная
 62
     7
370
    35
100
AcDbLine
 10
1191.1005603194
 20
290.9478477536
 30
0.0
 11
1190.4027386319
 21
290.9478477536
 31
0.0
  0
LINE
  5
296
330
1F
100
AcDbEntity
  8
0
  6
SLD-Сплошная
 62
     7
370
    35
100
AcDbLine
 10
1194.5127386319
 20
290.9478477536
 30
0.0
 11
1191.1005603194
 21
290.9478477536
 31
0.0
  0
SPLINE
  5
297
330
1F
100
AcDbEntity
  8
0
  6
SLD-Сплошная
 62
     7
370
    35
100
AcDbSpline
210
0.0
220
0.0
230
1.0
 70
     8
 71
     3
 72
     9
 73
     5
 74
     0
 42
0.000000001
 43
0.00000001
 40
0.0
 40
0.0
 40
0.0
 40
0.0
 40
0.3849850956776656
 40
1.0
 40
1.0
 40
1.0
 40
1.0
 10
1196.878828482511
 20
304.3362307962554
 30
0.0
 10
1196.868168664373
 20
304.3538961927856
 30
0.0
 10
1196.840479753146
 20
304.3997821159772
 30
0.0
 10
1196.836191519626
 20
304.4544808474202
 30
0.0
 10
1196.833554192098
 20
304.4881213825051
 30
0.0
  0
LINE
  5
298
330
1F
100
AcDbEntity
  8
0
  6
SLD-Сплошная
 62
     7
370
    35
100
AcDbLine
 10
1196.8335541921
 20
307.9905821637
 30
0.0
 11
1196.3797523616
 21
308.3478477536
 31
0.0
  0
LINE
  5
299
330
1F
100
AcDbEntity
  8
0
  6
SLD-Сплошная
 62
     7
370
    35
100
AcDbLine
 10
1196.8335541921
 20
304.4881213825
 30
0.0
 11
1196.8335541921
 21
307.9905821637
 31
0.0
  0
LINE
  5
29A
330
1F
100
AcDbEntity
  8
0
  6
SLD-Сплошная
 62
     7
370
    35
100
AcDbLine
 10
1188.0819230717
 20
307.9905821637
 30
0.0
 11
1188.5357249022
 21
308.3478477536
 31
0.0
  0
LINE
  5
29B
330
1F
100
AcDbEntity
  8
0
  6
SLD-Сплошная
 62
     7
370
    35
100
AcDbLine
 10
1189.8160290213
 20
308.3478477536
 30
0.0
 11
1188.4659304841
 21
308.3478477536
 31
0.0
  0
LINE
  5
29C
330
1F
100
AcDbEntity
  8
0
  6
SLD-Сплошная
 62
     7
370
    35
100
AcDbLine
 10
1200.2577386319
 20
303.9478477536
 30
0.0
 11
1201.4577386319
 21
303.9478477536
 31
0.0
  0
LINE
  5
29D
330
1F
100
AcDbEntity
  8
0
  6
SLD-Сплошная
 62
     7
370
    35
100
AcDbLine
 10
1200.2577386319
 20
308.9478477536
 30
0.0
 11
1200.2577386319
 21
303.9478477536
 31
0.0
  0
LINE
  5
29E
330
1F
100
AcDbEntity
  8
0
  6
SLD-Сплошная
 62
     7
370
    35
100
AcDbLine
 10
1201.4577386319
 20
303.9478477536
 30
0.0
 11
1201.4577386319
 21
308.9478477536
 31
0.0
  0
LINE
  5
29F
330
1F
100
AcDbEntity
  8
0
  6
SLD-Сплошная
 62
     7
370
    35
100
AcDbLine
 10
1201.4577386319
 20
501.9478477536
 30
0.0
 11
1200.2577386319
 21
501.9478477536
 31
0.0
  0
LINE
  5
2A0
330
1F
100
AcDbEntity
  8
0
  6
SLD-Сплошная
 62
     7
370
    35
100
AcDbLine
 10
1200.2577386319
 20
501.9478477536
 30
0.0
 11
1200.2577386319
 21
496.9478477536
 31
0.0
  0
LINE
  5
2A1
330
1F
100
AcDbEntity
  8
0
  6
SLD-Сплошная
 62
     7
370
    35
100
AcDbLine
 10
1201.4577386319
 20
496.9478477536
 30
0.0
 11
1201.4577386319
 21
501.9478477536
 31
0.0
  0
LINE
  5
2A2
330
1F
100
AcDbEntity
  8
0
  6
SLD-Сплошная
 62
     7
370
    35
100
AcDbLine
 10
1200.2577386319
 20
496.9478477536
 30
0.0
 11
1200.2577386319
 21
308.9478477536
 31
0.0
  0
LINE
  5
2A3
330
1F
100
AcDbEntity
  8
0
  6
SLD-Сплошная
 62
     7
370
    35
100
AcDbLine
 10
1201.4577386319
 20
496.9478477536
 30
0.0
 11
1201.4577386319
 21
308.9478477536
 31
0.0
  0
LINE
  5
2A4
330
1F
100
AcDbEntity
  8
0
  6
SLD-Сплошная
 62
     7
370
    35
100
AcDbLine
 10
1199.2577386319
 20
409.9478469105
 30
0.0
 11
1199.2577386319
 21
395.9478477536
 31
0.0
  0
LINE
  5
2A5
330
1F
100
AcDbEntity
  8
0
  6
SLD-Сплошная
 62
     7
370
    35
100
AcDbLine
 10
1202.057738632
 20
399.6978477536
 30
0.0
 11
1202.057738632
 21
406.1978477536
 31
0.0
  0
LINE
  5
2A6
330
1F
100
AcDbEntity
  8
0
  6
SLD-Сплошная
 62
     7
370
    35
100
AcDbLine
 10
1211.6097730426
 20
500.7492024612
 30
0.0
 11
1211.6722143355
 21
499.5508281103
 31
0.0
  0
LINE
  5
2A7
330
1F
100
AcDbEntity
  8
0
  6
SLD-Сплошная
 62
     7
370
    35
100
AcDbLine
 10
1212.2648454131
 20
501.0407409724
 30
0.0
 11
1213.1133735505
 21
500.192212835
 31
0.0
  0
SPLINE
  5
2A8
330
1F
100
AcDbEntity
  8
0
  6
SLD-Сплошная
 62
     7
370
    35
100
AcDbSpline
210
0.0
220
0.0
230
1.0
 70
     8
 71
     3
 72
     9
 73
     5
 74
     0
 42
0.000000001
 43
0.00000001
 40
0.0
 40
0.0
 40
0.0
 40
0.0
 40
0.4999999999999836
 40
1.0
 40
1.0
 40
1.0
 40
1.0
 10
1211.60977304262
 20
500.7492024611902
 30
0.0
 10
1211.732465829419
 20
500.7674268036153
 30
0.0
 10
1211.977851403017
 20
500.8038754884658
 30
0.0
 10
1212.169180743054
 20
500.9617858111135
 30
0.0
 10
1212.264845413072
 20
501.0407409724372
 30
0.0
  0
SPLINE
  5
2A9
330
1F
100
AcDbEntity
  8
0
  6
SLD-Сплошная
 62
     7
370
    35
100
AcDbSpline
210
0.0
220
0.0
230
1.0
 70
     8
 71
     3
 72
     9
 73
     5
 74
     0
 42
0.000000001
 43
0.00000001
 40
0.0
 40
0.0
 40
0.0
 40
0.0
 40
0.4999999999999964
 40
1.0
 40
1.0
 40
1.0
 40
1.0
 10
1211.6722143355
 20
499.5508281102699
 30
0.0
 10
1211.942138466458
 20
499.5909216636056
 30
0.0
 10
1212.481986728375
 20
499.671108770277
 30
0.0
 10
1212.902911276456
 20
500.0185114801012
 30
0.0
 10
1213.113373550496
 20
500.1922128350135
 30
0.0
  0
ARC
  5
2AA
330
1F
100
AcDbEntity
  8
0
  6
SLD-Сплошная
 62
     7
370
    35
100
AcDbCircle
 10
1211.5577386319
 20
501.7478477536
 30
0.0
 40
0.9999999999999679
100
AcDbArc
 50
225.0
 51
272.9826991412
  0
ARC
  5
2AB
330
1F
100
AcDbEntity
  8
0
  6
SLD-Сплошная
 62
     7
370
    35
100
AcDbCircle
 10
1211.5577386319
 20
501.7478477536
 30
0.0
 40
2.199999999999946
100
AcDbArc
 50
225.0
 51
272.9826991412
  0
SPLINE
  5
2AC
330
1F
100
AcDbEntity
  8
0
  6
SLD-Сплошная
 62
     7
370
    35
100
AcDbSpline
210
0.0
220
0.0
230
1.0
 70
     8
 71
     3
 72
     9
 73
     5
 74
     0
 42
0.000000001
 43
0.00000001
 40
0.0
 40
0.0
 40
0.0
 40
0.0
 40
0.5000000000000144
 40
1.0
 40
1.0
 40
1.0
 40
1.0
 10
1213.113373550496
 20
305.7034826722343
 30
0.0
 10
1212.902911276455
 20
305.8771840271465
 30
0.0
 10
1212.481986728374
 20
306.2245867369709
 30
0.0
 10
1211.942138466457
 20
306.3047738436419
 30
0.0
 10
1211.672214335498
 20
306.3448673969774
 30
0.0
  0
LINE
  5
2AD
330
1F
100
AcDbEntity
  8
0
  6
SLD-Сплошная
 62
     7
370
    35
100
AcDbLine
 10
1211.6097730426
 20
305.1464930461
 30
0.0
 11
1211.6722143355
 21
306.344867397
 31
0.0
  0
LINE
  5
2AE
330
1F
100
AcDbEntity
  8
0
  6
SLD-Сплошная
 62
     7
370
    35
100
AcDbLine
 10
1213.1133735505
 20
305.7034826722
 30
0.0
 11
1212.2648454131
 21
304.8549545348
 31
0.0
  0
SPLINE
  5
2AF
330
1F
100
AcDbEntity
  8
0
  6
SLD-Сплошная
 62
     7
370
    35
100
AcDbSpline
210
0.0
220
0.0
230
1.0
 70
     8
 71
     3
 72
     9
 73
     5
 74
     0
 42
0.000000001
 43
0.00000001
 40
0.0
 40
0.0
 40
0.0
 40
0.0
 40
0.5000000000000012
 40
1.0
 40
1.0
 40
1.0
 40
1.0
 10
1212.264845413072
 20
304.8549545348102
 30
0.0
 10
1212.169180743053
 20
304.933909696134
 30
0.0
 10
1211.977851403017
 20
305.0918200187814
 30
0.0
 10
1211.732465829418
 20
305.128268703632
 30
0.0
 10
1211.609773042619
 20
305.1464930460572
 30
0.0
  0
ARC
  5
2B0
330
1F
100
AcDbEntity
  8
0
  6
SLD-Сплошная
 62
     7
370
    35
100
AcDbCircle
 10
1211.5577386319
 20
304.1478477536
 30
0.0
 40
2.200000000000026
100
AcDbArc
 50
87.0173008588
 51
135.0
  0
ARC
  5
2B1
330
1F
100
AcDbEntity
  8
0
  6
SLD-Сплошная
 62
     7
370
    35
100
AcDbCircle
 10
1211.5577386319
 20
304.1478477536
 30
0.0
 40
1.000000000000088
100
AcDbArc
 50
87.0173008588
 51
135.0
  0
ARC
  5
2B2
330
1F
100
AcDbEntity
  8
0
  6
SLD-Сплошная
 62
     7
370
    35
100
AcDbCircle
 10
1202.4577386319
 20
501.9478477536
 30
0.0
 40
2.200000000000045
100
AcDbArc
 50
90.0
 51
180.0
  0
ARC
  5
2B3
330
1F
100
AcDbEntity
  8
0
  6
SLD-Сплошная
 62
     7
370
    35
100
AcDbCircle
 10
1202.4577386319
 20
501.9478477536
 30
0.0
 40
1.0
100
AcDbArc
 50
90.0
 51
180.0
  0
ARC
  5
2B4
330
1F
100
AcDbEntity
  8
0
  6
SLD-Сплошная
 62
     7
370
    35
100
AcDbCircle
 10
1206.8322552323
 20
501.9478477536
 30
0.0
 40
0.9999999999998863
100
AcDbArc
 50
45.0
 51
90.0
  0
ARC
  5
2B5
330
1F
100
AcDbEntity
  8
0
  6
SLD-Сплошная
 62
     7
370
    35
100
AcDbCircle
 10
1206.8322552323
 20
501.9478477536
 30
0.0
 40
2.199999999999989
100
AcDbArc
 50
45.0
 51
90.0
  0
LINE
  5
2B6
330
1F
100
AcDbEntity
  8
0
  6
SLD-Сплошная
 62
     7
370
    35
100
AcDbLine
 10
1206.8322552323
 20
502.9478477536
 30
0.0
 11
1202.4577386319
 21
502.9478477536
 31
0.0
  0
LINE
  5
2B7
330
1F
100
AcDbEntity
  8
0
  6
SLD-Сплошная
 62
     7
370
    35
100
AcDbLine
 10
1202.4577386319
 20
504.1478477536
 30
0.0
 11
1206.8322552323
 21
504.1478477536
 31
0.0
  0
LINE
  5
2B8
330
1F
100
AcDbEntity
  8
0
  6
SLD-Сплошная
 62
     7
370
    35
100
AcDbLine
 10
1210.0021037133
 20
500.192212835
 30
0.0
 11
1207.5393620135
 21
502.6549545348
 31
0.0
  0
LINE
  5
2B9
330
1F
100
AcDbEntity
  8
0
  6
SLD-Сплошная
 62
     7
370
    35
100
AcDbLine
 10
1208.3878901509
 20
503.5034826722
 30
0.0
 11
1210.8506318507
 21
501.0407409724
 31
0.0
  0
ARC
  5
2BA
330
1F
100
AcDbEntity
  8
0
  6
SLD-Сплошная
 62
     7
370
    35
100
AcDbCircle
 10
1206.8322552323
 20
303.9478477536
 30
0.0
 40
1.0
100
AcDbArc
 50
270.0
 51
315.0
  0
ARC
  5
2BB
330
1F
100
AcDbEntity
  8
0
  6
SLD-Сплошная
 62
     7
370
    35
100
AcDbCircle
 10
1206.8322552323
 20
303.9478477536
 30
0.0
 40
2.199999999999989
100
AcDbArc
 50
270.0
 51
315.0
  0
ARC
  5
2BC
330
1F
100
AcDbEntity
  8
0
  6
SLD-Сплошная
 62
     7
370
    35
100
AcDbCircle
 10
1202.4577386319
 20
303.9478477536
 30
0.0
 40
1.0
100
AcDbArc
 50
180.0
 51
270.0
  0
ARC
  5
2BD
330
1F
100
AcDbEntity
  8
0
  6
SLD-Сплошная
 62
     7
370
    35
100
AcDbCircle
 10
1202.4577386319
 20
303.9478477536
 30
0.0
 40
2.200000000000045
100
AcDbArc
 50
180.0
 51
270.0
  0
LINE
  5
2BE
330
1F
100
AcDbEntity
  8
0
  6
SLD-Сплошная
 62
     7
370
    35
100
AcDbLine
 10
1210.0021037133
 20
305.7034826722
 30
0.0
 11
1207.5393620135
 21
303.2407409724
 31
0.0
  0
LINE
  5
2BF
330
1F
100
AcDbEntity
  8
0
  6
SLD-Сплошная
 62
     7
370
    35
100
AcDbLine
 10
1210.8506318507
 20
304.8549545348
 30
0.0
 11
1208.3878901509
 21
302.392212835
 31
0.0
  0
LINE
  5
2C0
330
1F
100
AcDbEntity
  8
0
  6
SLD-Сплошная
 62
     7
370
    35
100
AcDbLine
 10
1206.8322552323
 20
302.9478477536
 30
0.0
 11
1202.4577386319
 21
302.9478477536
 31
0.0
  0
LINE
  5
2C1
330
1F
100
AcDbEntity
  8
0
  6
SLD-Сплошная
 62
     7
370
    35
100
AcDbLine
 10
1206.8322552323
 20
301.7478477536
 30
0.0
 11
1202.4577386319
 21
301.7478477536
 31
0.0
  0
LINE
  5
2C2
330
1F
100
AcDbEntity
  8
0
  6
SLD-Сплошная
 62
     7
370
    35
100
AcDbLine
 10
1213.1133735505
 20
500.192212835
 30
0.0
 11
1215.8690084691
 21
502.9478477536
 31
0.0
  0
LINE
  5
2C3
330
1F
100
AcDbEntity
  8
0
  6
SLD-Сплошная
 62
     7
370
    35
100
AcDbLine
 10
1215.8690084691
 20
502.9478477536
 30
0.0
 11
1215.0204803317
 21
503.796375891
 31
0.0
  0
LINE
  5
2C4
330
1F
100
AcDbEntity
  8
0
  6
SLD-Сплошная
 62
     7
370
    35
100
AcDbLine
 10
1215.0204803317
 20
503.796375891
 30
0.0
 11
1212.2648454131
 21
501.0407409724
 31
0.0
  0
LINE
  5
2C5
330
1F
100
AcDbEntity
  8
0
  6
SLD-Сплошная
 62
     7
370
    35
100
AcDbLine
 10
1212.2648454131
 20
304.8549545348
 30
0.0
 11
1215.0204803317
 21
302.0993196162
 31
0.0
  0
LINE
  5
2C6
330
1F
100
AcDbEntity
  8
0
  6
SLD-Сплошная
 62
     7
370
    35
100
AcDbLine
 10
1215.0204803317
 20
302.0993196162
 30
0.0
 11
1215.8690084691
 21
302.9478477536
 31
0.0
  0
LINE
  5
2C7
330
1F
100
AcDbEntity
  8
0
  6
SLD-Сплошная
 62
     7
370
    35
100
AcDbLine
 10
1215.8690084691
 20
302.9478477536
 30
0.0
 11
1213.1133735505
 21
305.7034826722
 31
0.0
  0
ARC
  5
2C8
330
1F
100
AcDbEntity
  8
0
  6
SLD-Сплошная
 62
     7
370
    35
100
AcDbCircle
 10
1199.2577386319
 20
303.9478477536
 30
0.0
 40
2.199999999999989
100
AcDbArc
 50
270.0
 51
316.6582417728
  0
ARC
  5
2C9
330
1F
100
AcDbEntity
  8
0
  6
SLD-Сплошная
 62
     7
370
    35
100
AcDbCircle
 10
1199.2577386319
 20
303.9478477536
 30
0.0
 40
1.0
100
AcDbArc
 50
270.0
 51
0.0
  0
ARC
  5
2CA
330
1F
100
AcDbEntity
  8
0
  6
SLD-Сплошная
 62
     7
370
    35
100
AcDbCircle
 10
1199.2577386319
 20
501.9478477536
 30
0.0
 40
2.199999999999989
100
AcDbArc
 50
43.3417582752
 51
90.0
  0
ARC
  5
2CB
330
1F
100
AcDbEntity
  8
0
  6
SLD-Сплошная
 62
     7
370
    35
100
AcDbCircle
 10
1199.2577386319
 20
501.9478477536
 30
0.0
 40
1.0
100
AcDbArc
 50
0.0
 51
90.0
  0
LINE
  5
2CC
330
1F
100
AcDbEntity
  8
0
  6
SLD-Сплошная
 62
     7
370
    35
100
AcDbLine
 10
1191.4577386319
 20
302.9478477536
 30
0.0
 11
1199.2577386319
 21
302.9478477536
 31
0.0
  0
LINE
  5
2CD
330
1F
100
AcDbEntity
  8
0
  6
SLD-Сплошная
 62
     7
370
    35
100
AcDbLine
 10
1191.4577386319
 20
301.7478477536
 30
0.0
 11
1199.2577386319
 21
301.7478477536
 31
0.0
  0
LINE
  5
2CE
330
1F
100
AcDbEntity
  8
0
  6
SLD-Сплошная
 62
     7
370
    35
100
AcDbLine
 10
1191.4577386319
 20
504.1478477536
 30
0.0
 11
1199.2577386319
 21
504.1478477536
 31
0.0
  0
LINE
  5
2CF
330
1F
100
AcDbEntity
  8
0
  6
SLD-Сплошная
 62
     7
370
    35
100
AcDbLine
 10
1191.4577386319
 20
502.9478477536
 30
0.0
 11
1199.2577386319
 21
502.9478477536
 31
0.0
  0
LINE
  5
2D0
330
1F
100
AcDbEntity
  8
0
  6
SLD-Сплошная
 62
     7
370
    35
100
AcDbLine
 10
1186.4577386319
 20
302.9478477536
 30
0.0
 11
1186.4577386319
 21
301.7478477536
 31
0.0
  0
LINE
  5
2D1
330
1F
100
AcDbEntity
  8
0
  6
SLD-Сплошная
 62
     7
370
    35
100
AcDbLine
 10
1191.4577386319
 20
302.9478477536
 30
0.0
 11
1186.4577386319
 21
302.9478477536
 31
0.0
  0
LINE
  5
2D2
330
1F
100
AcDbEntity
  8
0
  6
SLD-Сплошная
 62
     7
370
    35
100
AcDbLine
 10
1186.4577386319
 20
301.7478477536
 30
0.0
 11
1191.4577386319
 21
301.7478477536
 31
0.0
  0
LINE
  5
2D3
330
1F
100
AcDbEntity
  8
0
  6
SLD-Сплошная
 62
     7
370
    35
100
AcDbLine
 10
1186.4577386319
 20
504.1478477536
 30
0.0
 11
1186.4577386319
 21
502.9478477536
 31
0.0
  0
LINE
  5
2D4
330
1F
100
AcDbEntity
  8
0
  6
SLD-Сплошная
 62
     7
370
    35
100
AcDbLine
 10
1191.4577386319
 20
504.1478477536
 30
0.0
 11
1186.4577386319
 21
504.1478477536
 31
0.0
  0
LINE
  5
2D5
330
1F
100
AcDbEntity
  8
0
  6
SLD-Сплошная
 62
     7
370
    35
100
AcDbLine
 10
1186.4577386319
 20
502.9478477536
 30
0.0
 11
1191.4577386319
 21
502.9478477536
 31
0.0
  0
SPLINE
  5
2D6
330
1F
100
AcDbEntity
  8
0
  6
SLD-Сплошная
 62
     7
370
    35
100
AcDbSpline
210
0.0
220
0.0
230
1.0
 70
     8
 71
     3
 72
     9
 73
     5
 74
     0
 42
0.000000001
 43
0.00000001
 40
0.0
 40
0.0
 40
0.0
 40
0.0
 40
0.0926884091994924
 40
1.0
 40
1.0
 40
1.0
 40
1.0
 10
1207.13446632986
 20
303.0067102077505
 30
0.0
 10
1207.119931861333
 20
302.9982009729881
 30
0.0
 10
1206.963121871261
 20
302.9063962388705
 30
0.0
 10
1206.940885542655
 20
302.9301843518438
 30
0.0
 10
1206.920710263974
 20
302.9517675824679
 30
0.0
  0
LINE
  5
2D7
330
1F
100
AcDbEntity
  8
0
  6
SLD-Сплошная
 62
     7
370
    35
100
AcDbLine
 10
3.25
 20
-1201.4577386319
 30
0.0
 11
3.25
 21
-1202.057738632
 31
0.0
  0
LINE
  5
2D8
330
1F
100
AcDbEntity
  8
0
  6
SLD-Сплошная
 62
     7
370
    35
100
AcDbLine
 10
-3.25
 20
-1202.057738632
 30
0.0
 11
-3.25
 21
-1201.4577386319
 31
0.0
  0
ARC
  5
2D9
330
1F
100
AcDbEntity
  8
0
  6
SLD-Сплошная
 62
     7
370
    35
100
AcDbCircle
 10
-500.0
 20
-1192.4577386319
 30
0.0
 40
5.900000000000074
100
AcDbArc
 50
167.5834389762
 51
192.4165610239
  0
LWPOLYLINE
  5
2DA
330
1F
100
AcDbEntity
  8
0
  6
SLD-Сплошная
 62
     7
370
    35
100
AcDbPolyline
 90
        3
 70
   128
 43
0.0
 10
-494.238
 20
-1191.1891346748
 10
-494.1026969858
 20
-1192.6361122821
 10
-494.238
 20
-1193.726342589
  0
ARC
  5
2DB
330
1F
100
AcDbEntity
  8
0
  6
SLD-Сплошная
 62
     7
370
    35
100
AcDbCircle
 10
100.0
 20
-1192.4577386319
 30
0.0
 40
5.90000000000001
100
AcDbArc
 50
167.5834389748
 51
192.4165610251
  0
LWPOLYLINE
  5
2DC
330
1F
100
AcDbEntity
  8
0
  6
SLD-Сплошная
 62
     7
370
    35
100
AcDbPolyline
 90
        3
 70
   128
 43
0.0
 10
105.762
 20
-1191.1891346747
 10
105.8973030142
 20
-1192.6361122821
 10
105.762
 20
-1193.726342589
  0
ARC
  5
2DD
330
1F
100
AcDbEntity
  8
0
  6
SLD-Сплошная
 62
     7
370
    35
100
AcDbCircle
 10
-100.0
 20
-1192.4577386319
 30
0.0
 40
5.90000000000003
100
AcDbArc
 50
167.5834389737
 51
192.4165610261
  0
LWPOLYLINE
  5
2DE
330
1F
100
AcDbEntity
  8
0
  6
SLD-Сплошная
 62
     7
370
    35
100
AcDbPolyline
 90
        3
 70
   128
 43
0.0
 10
-94.238
 20
-1191.1891346748
 10
-94.1026969858
 20
-1192.6361122821
 10
-94.238
 20
-1193.7263425889
  0
ARC
  5
2DF
330
1F
100
AcDbEntity
  8
0
  6
SLD-Сплошная
 62
     7
370
    35
100
AcDbCircle
 10
500.0
 20
-1192.4577386319
 30
0.0
 40
5.900000000000073
100
AcDbArc
 50
167.583438977
 51
192.416561023
  0
LWPOLYLINE
  5
2E0
330
1F
100
AcDbEntity
  8
0
  6
SLD-Сплошная
 62
     7
370
    35
100
AcDbPolyline
 90
        3
 70
   128
 43
0.0
 10
505.7619999999
 20
-1191.1891346745
 10
505.8973030142
 20
-1192.6361122821
 10
505.762
 20
-1193.7263425892
  0
ARC
  5
2E1
330
1F
100
AcDbEntity
  8
0
  6
SLD-Сплошная
 62
     7
370
    35
100
AcDbCircle
 10
300.0
 20
-1192.4577386319
 30
0.0
 40
5.899999999999988
100
AcDbArc
 50
167.5834389735
 51
192.4165610263
  0
LWPOLYLINE
  5
2E2
330
1F
100
AcDbEntity
  8
0
  6
SLD-Сплошная
 62
     7
370
    35
100
AcDbPolyline
 90
        3
 70
   128
 43
0.0
 10
305.762
 20
-1191.1891346746
 10
305.8973030142
 20
-1192.6361122821
 10
305.762
 20
-1193.7263425891
  0
ARC
  5
2E3
330
1F
100
AcDbEntity
  8
0
  6
SLD-Сплошная
 62
     7
370
    35
100
AcDbCircle
 10
-300.0
 20
-1192.4577386319
 30
0.0
 40
5.899999999999989
100
AcDbArc
 50
167.5834389728
 51
192.4165610269
  0
LWPOLYLINE
  5
2E4
330
1F
100
AcDbEntity
  8
0
  6
SLD-Сплошная
 62
     7
370
    35
100
AcDbPolyline
 90
        3
 70
   128
 43
0.0
 10
-294.238
 20
-1191.1891346747
 10
-294.1026969858
 20
-1192.6361122821
 10
-294.238
 20
-1193.7263425891
  0
ARC
  5
2E5
330
1F
100
AcDbEntity
  8
0
  6
SLD-Сплошная
 62
     7
370
    35
100
AcDbCircle
 10
893.2544155877
 20
-1199.9577386319
 30
0.0
 40
0.300000000000115
100
AcDbArc
 50
270.0
 51
315.0
  0
ARC
  5
2E6
330
1F
100
AcDbEntity
  8
0
  6
SLD-Сплошная
 62
     7
370
    35
100
AcDbCircle
 10
910.7455844123
 20
-1199.9577386319
 30
0.0
 40
0.3000000000000346
100
AcDbArc
 50
225.0
 51
270.0
  0
ARC
  5
2E7
330
1F
100
AcDbEntity
  8
0
  6
SLD-Сплошная
 62
     7
370
    35
100
AcDbCircle
 10
-910.7455844123
 20
-1199.9577386319
 30
0.0
 40
0.3000000000000346
100
AcDbArc
 50
270.0
 51
315.0
  0
ARC
  5
2E8
330
1F
100
AcDbEntity
  8
0
  6
SLD-Сплошная
 62
     7
370
    35
100
AcDbCircle
 10
-893.2544155877
 20
-1199.9577386319
 30
0.0
 40
0.300000000000115
100
AcDbArc
 50
225.0
 51
270.0
  0
LINE
  5
2E9
330
1F
100
AcDbEntity
  8
0
  6
SLD-Сплошная
 62
     7
370
    35
100
AcDbLine
 10
893.4665476221
 20
-1200.1698706662
 30
0.0
 11
893.9393398282
 21
-1199.6970784601
 31
0.0
  0
LINE
  5
2EA
330
1F
100
AcDbEntity
  8
0
  6
SLD-Сплошная
 62
     7
370
    35
100
AcDbLine
 10
910.0606601718
 20
-1199.6970784601
 30
0.0
 11
910.5334523779
 21
-1200.1698706662
 31
0.0
  0
LINE
  5
2EB
330
1F
100
AcDbEntity
  8
0
  6
SLD-Сплошная
 62
     7
370
    35
100
AcDbLine
 10
-910.5334523779
 20
-1200.1698706662
 30
0.0
 11
-910.0606601718
 21
-1199.6970784601
 31
0.0
  0
LINE
  5
2EC
330
1F
100
AcDbEntity
  8
0
  6
SLD-Сплошная
 62
     7
370
    35
100
AcDbLine
 10
-893.9393398282
 20
-1199.6970784601
 30
0.0
 11
-893.4665476221
 21
-1200.1698706662
 31
0.0
  0
ARC
  5
2ED
330
1F
100
AcDbEntity
  8
0
  6
SLD-Сплошная
 62
     7
370
    35
100
AcDbCircle
 10
909.0
 20
-1200.7577386319
 30
0.0
 40
1.5
100
AcDbArc
 50
45.0
 51
90.0
  0
ARC
  5
2EE
330
1F
100
AcDbEntity
  8
0
  6
SLD-Сплошная
 62
     7
370
    35
100
AcDbCircle
 10
895.0
 20
-1200.7577386319
 30
0.0
 40
1.500000000000093
100
AcDbArc
 50
90.0
 51
135.0
  0
ARC
  5
2EF
330
1F
100
AcDbEntity
  8
0
  6
SLD-Сплошная
 62
     7
370
    35
100
AcDbCircle
 10
-895.0
 20
-1200.7577386319
 30
0.0
 40
1.5
100
AcDbArc
 50
45.0
 51
90.0
  0
ARC
  5
2F0
330
1F
100
AcDbEntity
  8
0
  6
SLD-Сплошная
 62
     7
370
    35
100
AcDbCircle
 10
-909.0
 20
-1200.7577386319
 30
0.0
 40
1.500000000000093
100
AcDbArc
 50
90.0
 51
135.0
  0
LINE
  5
2F1
330
1F
100
AcDbEntity
  8
0
  6
SLD-Сплошная
 62
     7
370
    35
100
AcDbLine
 10
905.25
 20
-1201.4577386319
 30
0.0
 11
905.25
 21
-1202.057738632
 31
0.0
  0
LINE
  5
2F2
330
1F
100
AcDbEntity
  8
0
  6
SLD-Сплошная
 62
     7
370
    35
100
AcDbLine
 10
898.75
 20
-1202.057738632
 30
0.0
 11
898.75
 21
-1201.4577386319
 31
0.0
  0
LINE
  5
2F3
330
1F
100
AcDbEntity
  8
0
  6
SLD-Сплошная
 62
     7
370
    35
100
AcDbLine
 10
-898.75
 20
-1201.4577386319
 30
0.0
 11
-898.75
 21
-1202.057738632
 31
0.0
  0
LINE
  5
2F4
330
1F
100
AcDbEntity
  8
0
  6
SLD-Сплошная
 62
     7
370
    35
100
AcDbLine
 10
-905.25
 20
-1202.057738632
 30
0.0
 11
-905.25
 21
-1201.4577386319
 31
0.0
  0
LINE
  5
2F5
330
1F
100
AcDbEntity
  8
0
  6
SLD-Сплошная
 62
     7
370
    35
100
AcDbLine
 10
97.8000713447
 20
-1211.5696836885
 30
0.0
 11
96.6001569584
 21
-1211.5840177565
 31
0.0
  0
SPLINE
  5
2F6
330
1F
100
AcDbEntity
  8
0
  6
SLD-Сплошная
 62
     7
370
    35
100
AcDbSpline
210
0.0
220
0.0
230
1.0
 70
     8
 71
     3
 72
    11
 73
     7
 74
     0
 42
0.000000001
 43
0.00000001
 40
0.0
 40
0.0
 40
0.0
 40
0.0
 40
0.2500000000000036
 40
0.500000000000009
 40
0.7500000000000019
 40
1.0
 40
1.0
 40
1.0
 40
1.0
 10
96.60015695841479
 20
-1211.58401775647
 30
0.0
 10
96.60973255357197
 20
-1211.72576925363
 30
0.0
 10
96.6288837438865
 20
-1212.00927224795
 30
0.0
 10
96.76153277635879
 20
-1212.416398957374
 30
0.0
 10
96.96016313438527
 20
-1212.795732457363
 30
0.0
 10
97.14963109905489
 20
-1213.007493186117
 30
0.0
 10
97.24436508138967
 20
-1213.113373550495
 30
0.0
  0
LINE
  5
2F7
330
1F
100
AcDbEntity
  8
0
  6
SLD-Сплошная
 62
     7
370
    35
100
AcDbLine
 10
98.0928932188
 20
-1212.2648454131
 30
0.0
 11
97.2443650814
 21
-1213.1133735505
 31
0.0
  0
SPLINE
  5
2F8
330
1F
100
AcDbEntity
  8
0
  6
SLD-Сплошная
 62
     7
370
    35
100
AcDbSpline
210
0.0
220
0.0
230
1.0
 70
     8
 71
     3
 72
    11
 73
     7
 74
     0
 42
0.000000001
 43
0.00000001
 40
0.0
 40
0.0
 40
0.0
 40
0.0
 40
0.2499999999999965
 40
0.4999999999999883
 40
0.7499999999999916
 40
1.0
 40
1.0
 40
1.0
 40
1.0
 10
97.80007134473401
 20
-1211.569683688514
 30
0.0
 10
97.80442388798727
 20
-1211.634116187223
 30
0.0
 10
97.8131289744939
 20
-1211.762981184641
 30
0.0
 10
97.87342398925387
 20
-1211.948038779834
 30
0.0
 10
97.9637105156298
 20
-1212.120463098011
 30
0.0
 10
98.04983231775239
 20
-1212.216717974718
 30
0.0
 10
98.09289321881354
 20
-1212.264845413071
 30
0.0
  0
ARC
  5
2F9
330
1F
100
AcDbEntity
  8
0
  6
SLD-Сплошная
 62
     7
370
    35
100
AcDbCircle
 10
98.8
 20
-1211.5577386319
 30
0.0
 40
2.200000000000137
100
AcDbArc
 50
135.0
 51
180.6844176075
  0
ARC
  5
2FA
330
1F
100
AcDbEntity
  8
0
  6
SLD-Сплошная
 62
     7
370
    35
100
AcDbCircle
 10
98.8
 20
-1211.5577386319
 30
0.0
 40
1.000000000000099
100
AcDbArc
 50
135.0
 51
180.6844176075
  0
SPLINE
  5
2FB
330
1F
100
AcDbEntity
  8
0
  6
SLD-Сплошная
 62
     7
370
    35
100
AcDbSpline
210
0.0
220
0.0
230
1.0
 70
     8
 71
     3
 72
    11
 73
     7
 74
     0
 42
0.000000001
 43
0.00000001
 40
0.0
 40
0.0
 40
0.0
 40
0.0
 40
0.2500000000000032
 40
0.5000000000000006
 40
0.750000000000004
 40
1.0
 40
1.0
 40
1.0
 40
1.0
 10
-97.24436508138929
 20
-1213.113373550495
 30
0.0
 10
-97.1496310990545
 20
-1213.007493186117
 30
0.0
 10
-96.96016313438494
 20
-1212.795732457362
 30
0.0
 10
-96.76153277635824
 20
-1212.416398957374
 30
0.0
 10
-96.62888374388612
 20
-1212.009272247949
 30
0.0
 10
-96.60973255357163
 20
-1211.725769253629
 30
0.0
 10
-96.60015695841444
 20
-1211.584017756469
 30
0.0
  0
LINE
  5
2FC
330
1F
100
AcDbEntity
  8
0
  6
SLD-Сплошная
 62
     7
370
    35
100
AcDbLine
 10
-97.8000713447
 20
-1211.5696836885
 30
0.0
 11
-96.6001569584
 21
-1211.5840177565
 31
0.0
  0
SPLINE
  5
2FD
330
1F
100
AcDbEntity
  8
0
  6
SLD-Сплошная
 62
     7
370
    35
100
AcDbSpline
210
0.0
220
0.0
230
1.0
 70
     8
 71
     3
 72
    11
 73
     7
 74
     0
 42
0.000000001
 43
0.00000001
 40
0.0
 40
0.0
 40
0.0
 40
0.0
 40
0.2500000000000214
 40
0.5000000000000127
 40
0.7500000000000161
 40
1.0
 40
1.0
 40
1.0
 40
1.0
 10
-98.09289321881315
 20
-1212.264845413071
 30
0.0
 10
-98.04983231775188
 20
-1212.216717974718
 30
0.0
 10
-97.9637105156293
 20
-1212.120463098011
 30
0.0
 10
-97.87342398925358
 20
-1211.948038779834
 30
0.0
 10
-97.81312897449357
 20
-1211.762981184641
 30
0.0
 10
-97.80442388798689
 20
-1211.634116187223
 30
0.0
 10
-97.80007134473368
 20
-1211.569683688514
 30
0.0
  0
LINE
  5
2FE
330
1F
100
AcDbEntity
  8
0
  6
SLD-Сплошная
 62
     7
370
    35
100
AcDbLine
 10
-97.2443650814
 20
-1213.1133735505
 30
0.0
 11
-98.0928932188
 21
-1212.2648454131
 31
0.0
  0
ARC
  5
2FF
330
1F
100
AcDbEntity
  8
0
  6
SLD-Сплошная
 62
     7
370
    35
100
AcDbCircle
 10
-98.8
 20
-1211.5577386319
 30
0.0
 40
2.199999999999975
100
AcDbArc
 50
359.3155823925
 51
45.0
  0
ARC
  5
300
330
1F
100
AcDbEntity
  8
0
  6
SLD-Сплошная
 62
     7
370
    35
100
AcDbCircle
 10
-98.8
 20
-1211.5577386319
 30
0.0
 40
0.9999999999999679
100
AcDbArc
 50
359.3155823925
 51
45.0
  0
ARC
  5
301
330
1F
100
AcDbEntity
  8
0
  6
SLD-Сплошная
 62
     7
370
    35
100
AcDbCircle
 10
99.0
 20
-1206.8322552323
 30
0.0
 40
1.0
100
AcDbArc
 50
315.0
 51
0.0
  0
ARC
  5
302
330
1F
100
AcDbEntity
  8
0
  6
SLD-Сплошная
 62
     7
370
    35
100
AcDbCircle
 10
99.0
 20
-1206.8322552323
 30
0.0
 40
2.200000000000031
100
AcDbArc
 50
315.0
 51
0.0
  0
LINE
  5
303
330
1F
100
AcDbEntity
  8
0
  6
SLD-Сплошная
 62
     7
370
    35
100
AcDbLine
 10
98.0928932188
 20
-1210.8506318507
 30
0.0
 11
100.5556349186
 21
-1208.3878901509
 31
0.0
  0
LINE
  5
304
330
1F
100
AcDbEntity
  8
0
  6
SLD-Сплошная
 62
     7
370
    35
100
AcDbLine
 10
97.2443650814
 20
-1210.0021037133
 30
0.0
 11
99.7071067812
 21
-1207.5393620135
 31
0.0
  0
LINE
  5
305
330
1F
100
AcDbEntity
  8
0
  6
SLD-Сплошная
 62
     7
370
    35
100
AcDbLine
 10
100.0
 20
-1206.8322552323
 30
0.0
 11
100.0
 21
-1202.4577386319
 31
0.0
  0
LINE
  5
306
330
1F
100
AcDbEntity
  8
0
  6
SLD-Сплошная
 62
     7
370
    35
100
AcDbLine
 10
101.2
 20
-1206.8322552323
 30
0.0
 11
101.2
 21
-1202.4577386319
 31
0.0
  0
ARC
  5
307
330
1F
100
AcDbEntity
  8
0
  6
SLD-Сплошная
 62
     7
370
    35
100
AcDbCircle
 10
99.0
 20
-1202.4577386319
 30
0.0
 40
2.199999999999974
100
AcDbArc
 50
0.0
 51
27.0356917895
  0
ARC
  5
308
330
1F
100
AcDbEntity
  8
0
  6
SLD-Сплошная
 62
     7
370
    35
100
AcDbCircle
 10
99.0
 20
-1202.4577386319
 30
0.0
 40
1.000000000000227
100
AcDbArc
 50
0.0
 51
90.0
  0
ARC
  5
309
330
1F
100
AcDbEntity
  8
0
  6
SLD-Сплошная
 62
     7
370
    35
100
AcDbCircle
 10
-99.0
 20
-1206.8322552323
 30
0.0
 40
2.199999999999974
100
AcDbArc
 50
180.0
 51
225.0
  0
ARC
  5
30A
330
1F
100
AcDbEntity
  8
0
  6
SLD-Сплошная
 62
     7
370
    35
100
AcDbCircle
 10
-99.0
 20
-1206.8322552323
 30
0.0
 40
1.0
100
AcDbArc
 50
180.0
 51
225.0
  0
ARC
  5
30B
330
1F
100
AcDbEntity
  8
0
  6
SLD-Сплошная
 62
     7
370
    35
100
AcDbCircle
 10
-99.0
 20
-1202.4577386319
 30
0.0
 40
1.000000000000227
100
AcDbArc
 50
90.0
 51
180.0
  0
ARC
  5
30C
330
1F
100
AcDbEntity
  8
0
  6
SLD-Сплошная
 62
     7
370
    35
100
AcDbCircle
 10
-99.0
 20
-1202.4577386319
 30
0.0
 40
2.199999999999974
100
AcDbArc
 50
152.9643082105
 51
180.0
  0
LINE
  5
30D
330
1F
100
AcDbEntity
  8
0
  6
SLD-Сплошная
 62
     7
370
    35
100
AcDbLine
 10
-98.0928932188
 20
-1210.8506318507
 30
0.0
 11
-100.5556349186
 21
-1208.3878901509
 31
0.0
  0
LINE
  5
30E
330
1F
100
AcDbEntity
  8
0
  6
SLD-Сплошная
 62
     7
370
    35
100
AcDbLine
 10
-97.2443650814
 20
-1210.0021037133
 30
0.0
 11
-99.7071067812
 21
-1207.5393620135
 31
0.0
  0
LINE
  5
30F
330
1F
100
AcDbEntity
  8
0
  6
SLD-Сплошная
 62
     7
370
    35
100
AcDbLine
 10
-100.0
 20
-1206.8322552323
 30
0.0
 11
-100.0
 21
-1202.4577386319
 31
0.0
  0
LINE
  5
310
330
1F
100
AcDbEntity
  8
0
  6
SLD-Сплошная
 62
     7
370
    35
100
AcDbLine
 10
-101.2
 20
-1206.8322552323
 30
0.0
 11
-101.2
 21
-1202.4577386319
 31
0.0
  0
LINE
  5
311
330
1F
100
AcDbEntity
  8
0
  6
SLD-Сплошная
 62
     7
370
    35
100
AcDbLine
 10
100.0
 20
-1215.8690084691
 30
0.0
 11
100.8485281374
 21
-1215.0204803317
 31
0.0
  0
LINE
  5
312
330
1F
100
AcDbEntity
  8
0
  6
SLD-Сплошная
 62
     7
370
    35
100
AcDbLine
 10
97.2443650814
 20
-1213.1133735505
 30
0.0
 11
100.0
 21
-1215.8690084691
 31
0.0
  0
LINE
  5
313
330
1F
100
AcDbEntity
  8
0
  6
SLD-Сплошная
 62
     7
370
    35
100
AcDbLine
 10
100.8485281374
 20
-1215.0204803317
 30
0.0
 11
98.0928932188
 21
-1212.2648454131
 31
0.0
  0
LINE
  5
314
330
1F
100
AcDbEntity
  8
0
  6
SLD-Сплошная
 62
     7
370
    35
100
AcDbLine
 10
-98.0928932188
 20
-1212.2648454131
 30
0.0
 11
-100.8485281374
 21
-1215.0204803317
 31
0.0
  0
LINE
  5
315
330
1F
100
AcDbEntity
  8
0
  6
SLD-Сплошная
 62
     7
370
    35
100
AcDbLine
 10
-100.8485281374
 20
-1215.0204803317
 30
0.0
 11
-100.0
 21
-1215.8690084691
 31
0.0
  0
LINE
  5
316
330
1F
100
AcDbEntity
  8
0
  6
SLD-Сплошная
 62
     7
370
    35
100
AcDbLine
 10
-100.0
 20
-1215.8690084691
 30
0.0
 11
-97.2443650814
 21
-1213.1133735505
 31
0.0
  0
LINE
  5
317
330
1F
100
AcDbEntity
  8
0
  6
SLD-Сплошная
 62
     7
370
    35
100
AcDbLine
 10
-3.25
 20
-1202.057738632
 30
0.0
 11
3.25
 21
-1202.057738632
 31
0.0
  0
ARC
  5
318
330
1F
100
AcDbEntity
  8
0
  6
SLD-Сплошная
 62
     7
370
    35
100
AcDbCircle
 10
-500.0
 20
-1192.4577386319
 30
0.0
 40
4.000000000000178
100
AcDbArc
 50
318.6675229036
 51
18.6675229036
  0
SPLINE
  5
319
330
1F
100
AcDbEntity
  8
0
  6
SLD-Сплошная
 62
     7
370
    35
100
AcDbSpline
210
0.0
220
0.0
230
1.0
 70
    24
 71
     3
 72
     9
 73
     5
 74
     0
 42
0.000000001
 43
0.00000001
 40
0.0
 40
0.0
 40
0.0
 40
0.0
 40
0.0701852045454971
 40
1.0
 40
1.0
 40
1.0
 40
1.0
 10
-496.210432562581
 20
-1191.177434512836
 30
0.0
 10
-496.192913371002
 20
-1191.229289503342
 30
0.0
 10
-495.9432996284413
 20
-1191.968120298832
 30
0.0
 10
-495.6986901484285
 20
-1192.692138996067
 30
0.0
 10
-495.4712486348042
 20
-1193.365342292942
 30
0.0
  0
SPLINE
  5
31A
330
1F
100
AcDbEntity
  8
0
  6
SLD-Сплошная
 62
     7
370
    35
100
AcDbSpline
210
0.0
220
0.0
230
1.0
 70
    24
 71
     3
 72
     9
 73
     5
 74
     0
 42
0.000000001
 43
0.00000001
 40
0.0
 40
0.0
 40
0.0
 40
0.0
 40
0.7789539221069464
 40
1.0
 40
1.0
 40
1.0
 40
1.0
 10
-495.4712486348042
 20
-1193.365342292942
 30
0.0
 10
-495.86318851122
 20
-1193.810968404821
 30
0.0
 10
-496.366350335421
 20
-1194.383051167653
 30
0.0
 10
-496.8823751322014
 20
-1194.969758817624
 30
0.0
 10
-496.9964403896253
 20
-1195.09944824252
 30
0.0
  0
ARC
  5
31B
330
1F
100
AcDbEntity
  8
0
  6
SLD-Сплошная
 62
     7
370
    35
100
AcDbCircle
 10
-500.0
 20
-1192.4577386319
 30
0.0
 40
3.999999999999813
100
AcDbArc
 50
298.9550243719
 51
318.6675229036
  0
LINE
  5
31C
330
1F
100
AcDbEntity
  8
0
  6
SLD-Сплошная
 62
     7
370
    35
100
AcDbLine
 10
-496.9964403896
 20
-1195.0994482425
 30
0.0
 11
-497.7513293429
 21
-1195.9577386319
 31
0.0
  0
ARC
  5
31D
330
1F
100
AcDbEntity
  8
0
  6
SLD-Сплошная
 62
     7
370
    35
100
AcDbCircle
 10
-500.0
 20
-1192.4577386319
 30
0.0
 40
4.00000000000013
100
AcDbArc
 50
118.9550243718
 51
138.6675229036
  0
SPLINE
  5
31E
330
1F
100
AcDbEntity
  8
0
  6
SLD-Сплошная
 62
     7
370
    35
100
AcDbSpline
210
0.0
220
0.0
230
1.0
 70
    24
 71
     3
 72
     9
 73
     5
 74
     0
 42
0.000000001
 43
0.00000001
 40
0.0
 40
0.0
 40
0.0
 40
0.0
 40
0.3989708934728484
 40
1.0
 40
1.0
 40
1.0
 40
1.0
 10
-503.0035596103756
 20
-1189.816029021249
 30
0.0
 10
-502.8893257217212
 20
-1189.686147866743
 30
0.0
 10
-502.6030043621352
 20
-1189.360607441036
 30
0.0
 10
-502.3238096117022
 20
-1189.043169796696
 30
0.0
 10
-502.1560054403025
 20
-1188.852380532941
 30
0.0
  0
ARC
  5
31F
330
1F
100
AcDbEntity
  8
0
  6
SLD-Сплошная
 62
     7
370
    35
100
AcDbCircle
 10
-500.0
 20
-1192.4577386319
 30
0.0
 40
4.000000000000178
100
AcDbArc
 50
18.6675229036
 51
61.0449756282
  0
LINE
  5
320
330
1F
100
AcDbEntity
  8
0
  6
SLD-Сплошная
 62
     7
370
    35
100
AcDbLine
 10
-496.9496164904
 20
-1188.9895267327
 30
0.0
 11
-496.2104325626
 21
-1191.1774345128
 31
0.0
  0
ARC
  5
321
330
1F
100
AcDbEntity
  8
0
  6
SLD-Сплошная
 62
     7
370
    35
100
AcDbCircle
 10
-500.0
 20
-1192.4577386319
 30
0.0
 40
4.000000000000121
100
AcDbArc
 50
198.6675229036
 51
241.0449756281
  0
LINE
  5
322
330
1F
100
AcDbEntity
  8
0
  6
SLD-Сплошная
 62
     7
370
    35
100
AcDbLine
 10
-503.0503835096
 20
-1195.925950531
 30
0.0
 11
-503.7895674374
 21
-1193.7380427509
 31
0.0
  0
ARC
  5
323
330
1F
100
AcDbEntity
  8
0
  6
SLD-Сплошная
 62
     7
370
    35
100
AcDbCircle
 10
-500.0
 20
-1192.4577386319
 30
0.0
 40
4.00000000000013
100
AcDbArc
 50
138.6675229036
 51
198.6675229036
  0
SPLINE
  5
324
330
1F
100
AcDbEntity
  8
0
  6
SLD-Сплошная
 62
     7
370
    35
100
AcDbSpline
210
0.0
220
0.0
230
1.0
 70
    24
 71
     3
 72
     9
 73
     5
 74
     0
 42
0.000000001
 43
0.00000001
 40
0.0
 40
0.0
 40
0.0
 40
0.0
 40
0.0701852045454354
 40
1.0
 40
1.0
 40
1.0
 40
1.0
 10
-503.7895674374199
 20
-1193.738042750932
 30
0.0
 10
-503.8070866289988
 20
-1193.686187760426
 30
0.0
 10
-504.0567003715591
 20
-1192.947356964937
 30
0.0
 10
-504.3013098515721
 20
-1192.223338267701
 30
0.0
 10
-504.5287513651966
 20
-1191.550134970826
 30
0.0
  0
SPLINE
  5
325
330
1F
100
AcDbEntity
  8
0
  6
SLD-Сплошная
 62
     7
370
    35
100
AcDbSpline
210
0.0
220
0.0
230
1.0
 70
    24
 71
     3
 72
     9
 73
     5
 74
     0
 42
0.000000001
 43
0.00000001
 40
0.0
 40
0.0
 40
0.0
 40
0.0
 40
0.1972242043131763
 40
1.0
 40
1.0
 40
1.0
 40
1.0
 10
-504.5287513651966
 20
-1191.550134970826
 30
0.0
 10
-504.4308375446973
 20
-1191.438809337091
 30
0.0
 10
-503.934378092166
 20
-1190.874347007919
 30
0.0
 10
-503.418052942906
 20
-1190.28729786448
 30
0.0
 10
-503.0035596103756
 20
-1189.816029021249
 30
0.0
  0
SPLINE
  5
326
330
1F
100
AcDbEntity
  8
0
  6
SLD-Сплошная
 62
     7
370
    35
100
AcDbSpline
210
0.0
220
0.0
230
1.0
 70
     8
 71
     3
 72
    10
 73
     6
 74
     0
 42
0.000000001
 43
0.00000001
 40
0.0
 40
0.0
 40
0.0
 40
0.0
 40
0.1309609171392579
 40
0.6570570972497264
 40
1.0
 40
1.0
 40
1.0
 40
1.0
 10
-495.2321978597607
 20
-1193.413250279297
 30
0.0
 10
-495.2969174960268
 20
-1193.227217246705
 30
0.0
 10
-495.6216288470845
 20
-1192.293852338629
 30
0.0
 10
-496.1217454867298
 20
-1190.836499687014
 30
0.0
 10
-496.5316086069676
 20
-1189.587718656037
 30
0.0
 10
-496.6933500648107
 20
-1189.094920805964
 30
0.0
  0
SPLINE
  5
327
330
1F
100
AcDbEntity
  8
0
  6
SLD-Сплошная
 62
     7
370
    35
100
AcDbSpline
210
0.0
220
0.0
230
1.0
 70
    24
 71
     3
 72
    12
 73
     8
 74
     0
 42
0.000000001
 43
0.00000001
 40
0.0
 40
0.0
 40
0.0
 40
0.0
 40
0.0086674047366267
 40
0.2676326298828313
 40
0.5286616002509953
 40
0.7638461449005969
 40
1.0
 40
1.0
 40
1.0
 40
1.0
 10
-495.2321978597607
 20
-1193.413250279297
 30
0.0
 10
-495.2333145683625
 20
-1193.413026480565
 30
0.0
 10
-495.267796361816
 20
-1193.406116010227
 30
0.0
 10
-495.3328888068884
 20
-1193.393070882179
 30
0.0
 10
-495.4082751866492
 20
-1193.377962754409
 30
0.0
 10
-495.460580441081
 20
-1193.367480297637
 30
0.0
 10
-495.4676876981898
 20
-1193.366055937576
 30
0.0
 10
-495.4712486348042
 20
-1193.365342292942
 30
0.0
  0
SPLINE
  5
328
330
1F
100
AcDbEntity
  8
0
  6
SLD-Сплошная
 62
     7
370
    35
100
AcDbSpline
210
0.0
220
0.0
230
1.0
 70
     8
 71
     3
 72
     9
 73
     5
 74
     0
 42
0.000000001
 43
0.00000001
 40
0.0
 40
0.0
 40
0.0
 40
0.0
 40
0.4486782902497775
 40
1.0
 40
1.0
 40
1.0
 40
1.0
 10
-502.5234463950361
 20
-1188.962499625457
 30
0.0
 10
-502.8577016686589
 20
-1189.346725998378
 30
0.0
 10
-503.602679263712
 20
-1190.20307760101
 30
0.0
 10
-504.3537310083018
 20
-1191.040524389317
 30
0.0
 10
-504.76780214024
 20
-1191.502226984471
 30
0.0
  0
SPLINE
  5
329
330
1F
100
AcDbEntity
  8
0
  6
SLD-Сплошная
 62
     7
370
    35
100
AcDbSpline
210
0.0
220
0.0
230
1.0
 70
    24
 71
     3
 72
    12
 73
     8
 74
     0
 42
0.000000001
 43
0.00000001
 40
0.0
 40
0.0
 40
0.0
 40
0.0
 40
0.2361538550995046
 40
0.4713383997491316
 40
0.7323673701173702
 40
0.9913325952637844
 40
1.0
 40
1.0
 40
1.0
 40
1.0
 10
-504.5287513651966
 20
-1191.550134970826
 30
0.0
 10
-504.532312301811
 20
-1191.549421326192
 30
0.0
 10
-504.5394195589198
 20
-1191.547996966131
 30
0.0
 10
-504.5917248133516
 20
-1191.53751450936
 30
0.0
 10
-504.6671111931122
 20
-1191.522406381589
 30
0.0
 10
-504.7322036381853
 20
-1191.509361253543
 30
0.0
 10
-504.7666854316383
 20
-1191.502450783204
 30
0.0
 10
-504.76780214024
 20
-1191.502226984471
 30
0.0
  0
SPLINE
  5
32A
330
1F
100
AcDbEntity
  8
0
  6
SLD-Сплошная
 62
     7
370
    35
100
AcDbSpline
210
0.0
220
0.0
230
1.0
 70
     8
 71
     3
 72
    10
 73
     6
 74
     0
 42
0.000000001
 43
0.00000001
 40
0.0
 40
0.0
 40
0.0
 40
0.0
 40
0.130960917139308
 40
0.6570570972498783
 40
1.0
 40
1.0
 40
1.0
 40
1.0
 10
-504.76780214024
 20
-1191.502226984471
 30
0.0
 10
-504.7030825039739
 20
-1191.688260017063
 30
0.0
 10
-504.3783711529163
 20
-1192.62162492514
 30
0.0
 10
-503.8782545132711
 20
-1194.078977576754
 30
0.0
 10
-503.4683913930336
 20
-1195.327758607731
 30
0.0
 10
-503.3066499351905
 20
-1195.820556457804
 30
0.0
  0
SPLINE
  5
32B
330
1F
100
AcDbEntity
  8
0
  6
SLD-Сплошная
 62
     7
370
    35
100
AcDbSpline
210
0.0
220
0.0
230
1.0
 70
     8
 71
     3
 72
    11
 73
     7
 74
     0
 42
0.000000001
 43
0.00000001
 40
0.0
 40
0.0
 40
0.0
 40
0.0
 40
0.1265852332080283
 40
0.4692135075535057
 40
0.7339691201190551
 40
1.0
 40
1.0
 40
1.0
 40
1.0
 10
-497.5653917857783
 20
-1196.051204788604
 30
0.0
 10
-497.4681602548083
 20
-1195.939106599699
 30
0.0
 10
-497.1077521208178
 20
-1195.523592221966
 30
0.0
 10
-496.5333085706263
 20
-1194.871396357668
 30
0.0
 10
-495.8506480309989
 20
-1194.103897672569
 30
0.0
 10
-495.4386778499452
 20
-1193.643834526203
 30
0.0
 10
-495.2321978597607
 20
-1193.413250279297
 30
0.0
  0
LINE
  5
32C
330
1F
100
AcDbEntity
  8
0
  6
SLD-Сплошная
 62
     7
370
    35
100
AcDbLine
 10
103.0035596104
 20
-1195.0994482425
 30
0.0
 11
102.2486706571
 21
-1195.9577386319
 31
0.0
  0
ARC
  5
32D
330
1F
100
AcDbEntity
  8
0
  6
SLD-Сплошная
 62
     7
370
    35
100
AcDbCircle
 10
100.0
 20
-1192.4577386319
 30
0.0
 40
3.999999999999827
100
AcDbArc
 50
298.9550243719
 51
318.6675229036
  0
ARC
  5
32E
330
1F
100
AcDbEntity
  8
0
  6
SLD-Сплошная
 62
     7
370
    35
100
AcDbCircle
 10
100.0
 20
-1192.4577386319
 30
0.0
 40
4.000000000000151
100
AcDbArc
 50
318.6675229036
 51
18.6675229036
  0
SPLINE
  5
32F
330
1F
100
AcDbEntity
  8
0
  6
SLD-Сплошная
 62
     7
370
    35
100
AcDbSpline
210
0.0
220
0.0
230
1.0
 70
    24
 71
     3
 72
     9
 73
     5
 74
     0
 42
0.000000001
 43
0.00000001
 40
0.0
 40
0.0
 40
0.0
 40
0.0
 40
0.070185204545501
 40
1.0
 40
1.0
 40
1.0
 40
1.0
 10
103.789567437419
 20
-1191.177434512836
 30
0.0
 10
103.807086628998
 20
-1191.229289503342
 30
0.0
 10
104.0567003715591
 20
-1191.968120298832
 30
0.0
 10
104.3013098515717
 20
-1192.692138996067
 30
0.0
 10
104.5287513651958
 20
-1193.365342292942
 30
0.0
  0
SPLINE
  5
330
330
1F
100
AcDbEntity
  8
0
  6
SLD-Сплошная
 62
     7
370
    35
100
AcDbSpline
210
0.0
220
0.0
230
1.0
 70
    24
 71
     3
 72
     9
 73
     5
 74
     0
 42
0.000000001
 43
0.00000001
 40
0.0
 40
0.0
 40
0.0
 40
0.0
 40
0.7789539221069417
 40
1.0
 40
1.0
 40
1.0
 40
1.0
 10
104.5287513651958
 20
-1193.365342292942
 30
0.0
 10
104.1368114887801
 20
-1193.810968404821
 30
0.0
 10
103.633649664579
 20
-1194.383051167653
 30
0.0
 10
103.1176248677986
 20
-1194.969758817624
 30
0.0
 10
103.0035596103747
 20
-1195.09944824252
 30
0.0
  0
ARC
  5
331
330
1F
100
AcDbEntity
  8
0
  6
SLD-Сплошная
 62
     7
370
    35
100
AcDbCircle
 10
100.0
 20
-1192.4577386319
 30
0.0
 40
4.000000000000081
100
AcDbArc
 50
198.6675229036
 51
241.0449756281
  0
LINE
  5
332
330
1F
100
AcDbEntity
  8
0
  6
SLD-Сплошная
 62
     7
370
    35
100
AcDbLine
 10
96.9496164904
 20
-1195.925950531
 30
0.0
 11
96.2104325626
 21
-1193.7380427509
 31
0.0
  0
ARC
  5
333
330
1F
100
AcDbEntity
  8
0
  6
SLD-Сплошная
 62
     7
370
    35
100
AcDbCircle
 10
100.0
 20
-1192.4577386319
 30
0.0
 40
4.000000000000151
100
AcDbArc
 50
18.6675229036
 51
61.0449756282
  0
ARC
  5
334
330
1F
100
AcDbEntity
  8
0
  6
SLD-Сплошная
 62
     7
370
    35
100
AcDbCircle
 10
100.0
 20
-1192.4577386319
 30
0.0
 40
4.000000000000119
100
AcDbArc
 50
118.9550243718
 51
138.6675229036
  0
ARC
  5
335
330
1F
100
AcDbEntity
  8
0
  6
SLD-Сплошная
 62
     7
370
    35
100
AcDbCircle
 10
100.0
 20
-1192.4577386319
 30
0.0
 40
4.000000000000119
100
AcDbArc
 50
138.6675229036
 51
198.6675229036
  0
SPLINE
  5
336
330
1F
100
AcDbEntity
  8
0
  6
SLD-Сплошная
 62
     7
370
    35
100
AcDbSpline
210
0.0
220
0.0
230
1.0
 70
    24
 71
     3
 72
     9
 73
     5
 74
     0
 42
0.000000001
 43
0.00000001
 40
0.0
 40
0.0
 40
0.0
 40
0.0
 40
0.3989708934728418
 40
1.0
 40
1.0
 40
1.0
 40
1.0
 10
96.99644038962441
 20
-1189.816029021249
 30
0.0
 10
97.11067427827874
 20
-1189.686147866743
 30
0.0
 10
97.39699563786463
 20
-1189.360607441036
 30
0.0
 10
97.67619038829773
 20
-1189.043169796696
 30
0.0
 10
97.84399455969755
 20
-1188.852380532941
 30
0.0
  0
LINE
  5
337
330
1F
100
AcDbEntity
  8
0
  6
SLD-Сплошная
 62
     7
370
    35
100
AcDbLine
 10
103.0503835096
 20
-1188.9895267327
 30
0.0
 11
103.7895674374
 21
-1191.1774345128
 31
0.0
  0
SPLINE
  5
338
330
1F
100
AcDbEntity
  8
0
  6
SLD-Сплошная
 62
     7
370
    35
100
AcDbSpline
210
0.0
220
0.0
230
1.0
 70
    24
 71
     3
 72
     9
 73
     5
 74
     0
 42
0.000000001
 43
0.00000001
 40
0.0
 40
0.0
 40
0.0
 40
0.0
 40
0.0701852045454392
 40
1.0
 40
1.0
 40
1.0
 40
1.0
 10
96.21043256258017
 20
-1193.738042750932
 30
0.0
 10
96.19291337100117
 20
-1193.686187760426
 30
0.0
 10
95.9432996284405
 20
-1192.947356964937
 30
0.0
 10
95.69869014842769
 20
-1192.223338267701
 30
0.0
 10
95.47124863480344
 20
-1191.550134970826
 30
0.0
  0
SPLINE
  5
339
330
1F
100
AcDbEntity
  8
0
  6
SLD-Сплошная
 62
     7
370
    35
100
AcDbSpline
210
0.0
220
0.0
230
1.0
 70
    24
 71
     3
 72
     9
 73
     5
 74
     0
 42
0.000000001
 43
0.00000001
 40
0.0
 40
0.0
 40
0.0
 40
0.0
 40
0.1972242043131771
 40
1.0
 40
1.0
 40
1.0
 40
1.0
 10
95.47124863480344
 20
-1191.550134970826
 30
0.0
 10
95.56916245530262
 20
-1191.438809337091
 30
0.0
 10
96.06562190783424
 20
-1190.874347007919
 30
0.0
 10
96.58194705709433
 20
-1190.28729786448
 30
0.0
 10
96.99644038962441
 20
-1189.816029021249
 30
0.0
  0
SPLINE
  5
33A
330
1F
100
AcDbEntity
  8
0
  6
SLD-Сплошная
 62
     7
370
    35
100
AcDbSpline
210
0.0
220
0.0
230
1.0
 70
     8
 71
     3
 72
    10
 73
     6
 74
     0
 42
0.000000001
 43
0.00000001
 40
0.0
 40
0.0
 40
0.0
 40
0.0
 40
0.1318317034405393
 40
0.6614260061726717
 40
1.0
 40
1.0
 40
1.0
 40
1.0
 10
104.7678021402393
 20
-1193.413250279297
 30
0.0
 10
104.7030831585368
 20
-1193.227217715077
 30
0.0
 10
104.3783750915552
 20
-1192.293855156914
 30
0.0
 10
103.8814920978507
 20
-1190.846078816018
 30
0.0
 10
103.4747096199335
 20
-1189.606764614345
 30
0.0
 10
103.3160699083554
 20
-1189.123448694459
 30
0.0
  0
SPLINE
  5
33B
330
1F
100
AcDbEntity
  8
0
  6
SLD-Сплошная
 62
     7
370
    35
100
AcDbSpline
210
0.0
220
0.0
230
1.0
 70
    24
 71
     3
 72
    12
 73
     8
 74
     0
 42
0.000000001
 43
0.00000001
 40
0.0
 40
0.0
 40
0.0
 40
0.0
 40
0.0086674047365965
 40
0.2676326298827513
 40
0.5286616002510158
 40
0.7638461449005614
 40
1.0
 40
1.0
 40
1.0
 40
1.0
 10
104.7678021402393
 20
-1193.413250279297
 30
0.0
 10
104.7666854316375
 20
-1193.413026480565
 30
0.0
 10
104.7322036381833
 20
-1193.406116010227
 30
0.0
 10
104.6671111931118
 20
-1193.393070882179
 30
0.0
 10
104.5917248133508
 20
-1193.377962754409
 30
0.0
 10
104.539419558919
 20
-1193.367480297637
 30
0.0
 10
104.5323123018103
 20
-1193.366055937576
 30
0.0
 10
104.5287513651958
 20
-1193.365342292942
 30
0.0
  0
SPLINE
  5
33C
330
1F
100
AcDbEntity
  8
0
  6
SLD-Сплошная
 62
     7
370
    35
100
AcDbSpline
210
0.0
220
0.0
230
1.0
 70
     8
 71
     3
 72
    10
 73
     6
 74
     0
 42
0.000000001
 43
0.00000001
 40
0.0
 40
0.0
 40
0.0
 40
0.0
 40
0.131831703440573
 40
0.6614260061727347
 40
1.0
 40
1.0
 40
1.0
 40
1.0
 10
95.23219785976006
 20
-1191.502226984471
 30
0.0
 10
95.29691684146246
 20
-1191.688259548692
 30
0.0
 10
95.62162490844322
 20
-1192.621622106854
 30
0.0
 10
96.11850790214827
 20
-1194.06939844775
 30
0.0
 10
96.52529038006547
 20
-1195.308712649424
 30
0.0
 10
96.68393009164362
 20
-1195.79202856931
 30
0.0
  0
SPLINE
  5
33D
330
1F
100
AcDbEntity
  8
0
  6
SLD-Сплошная
 62
     7
370
    35
100
AcDbSpline
210
0.0
220
0.0
230
1.0
 70
    24
 71
     3
 72
    12
 73
     8
 74
     0
 42
0.000000001
 43
0.00000001
 40
0.0
 40
0.0
 40
0.0
 40
0.0
 40
0.2361538550995272
 40
0.4713383997491495
 40
0.7323673701174469
 40
0.9913325952638447
 40
0.9999999999999999
 40
0.9999999999999999
 40
0.9999999999999999
 40
0.9999999999999999
 10
95.47124863480344
 20
-1191.550134970826
 30
0.0
 10
95.46768769818902
 20
-1191.549421326192
 30
0.0
 10
95.4605804410803
 20
-1191.547996966131
 30
0.0
 10
95.40827518664818
 20
-1191.53751450936
 30
0.0
 10
95.33288880688839
 20
-1191.522406381589
 30
0.0
 10
95.26779636181348
 20
-1191.509361253543
 30
0.0
 10
95.23331456836182
 20
-1191.502450783204
 30
0.0
 10
95.23219785976006
 20
-1191.502226984471
 30
0.0
  0
SPLINE
  5
33E
330
1F
100
AcDbEntity
  8
0
  6
SLD-Сплошная
 62
     7
370
    35
100
AcDbSpline
210
0.0
220
0.0
230
1.0
 70
     8
 71
     3
 72
     9
 73
     5
 74
     0
 42
0.000000001
 43
0.00000001
 40
0.0
 40
0.0
 40
0.0
 40
0.0
 40
0.448873862770876
 40
1.0
 40
1.0
 40
1.0
 40
1.0
 10
97.47734765991994
 20
-1188.961590981119
 30
0.0
 10
97.1428282014905
 20
-1189.346121792212
 30
0.0
 10
96.39758663994252
 20
-1190.202778512476
 30
0.0
 10
95.64626877338634
 20
-1191.040523709857
 30
0.0
 10
95.23219785976006
 20
-1191.502226984471
 30
0.0
  0
SPLINE
  5
33F
330
1F
100
AcDbEntity
  8
0
  6
SLD-Сплошная
 62
     7
370
    35
100
AcDbSpline
210
0.0
220
0.0
230
1.0
 70
     8
 71
     3
 72
    11
 73
     7
 74
     0
 42
0.000000001
 43
0.00000001
 40
0.0
 40
0.0
 40
0.0
 40
0.0
 40
0.0936327416456139
 40
0.4491878129135721
 40
0.7239322159379801
 40
1.0
 40
1.0
 40
1.0
 40
1.0
 10
102.5185287343347
 20
-1195.954587559842
 30
0.0
 10
102.5878601845137
 20
-1195.874679802055
 30
0.0
 10
102.9204665135036
 20
-1195.491335361592
 30
0.0
 10
103.4667606980105
 20
-1194.8713819128
 30
0.0
 10
104.1493364548999
 20
-1194.103900907787
 30
0.0
 10
104.5613169704113
 20
-1193.643835606335
 30
0.0
 10
104.7678021402393
 20
-1193.413250279297
 30
0.0
  0
ARC
  5
340
330
1F
100
AcDbEntity
  8
0
  6
SLD-Сплошная
 62
     7
370
    35
100
AcDbCircle
 10
-100.0
 20
-1192.4577386319
 30
0.0
 40
4.000000000000151
100
AcDbArc
 50
318.6675229036
 51
18.6675229036
  0
SPLINE
  5
341
330
1F
100
AcDbEntity
  8
0
  6
SLD-Сплошная
 62
     7
370
    35
100
AcDbSpline
210
0.0
220
0.0
230
1.0
 70
    24
 71
     3
 72
     9
 73
     5
 74
     0
 42
0.000000001
 43
0.00000001
 40
0.0
 40
0.0
 40
0.0
 40
0.0
 40
0.778953922106945
 40
1.0
 40
1.0
 40
1.0
 40
1.0
 10
-95.47124863480421
 20
-1193.365342292942
 30
0.0
 10
-95.86318851122
 20
-1193.810968404821
 30
0.0
 10
-96.36635033542096
 20
-1194.383051167653
 30
0.0
 10
-96.88237513220155
 20
-1194.969758817624
 30
0.0
 10
-96.9964403896254
 20
-1195.09944824252
 30
0.0
  0
SPLINE
  5
342
330
1F
100
AcDbEntity
  8
0
  6
SLD-Сплошная
 62
     7
370
    35
100
AcDbSpline
210
0.0
220
0.0
230
1.0
 70
    24
 71
     3
 72
     9
 73
     5
 74
     0
 42
0.000000001
 43
0.00000001
 40
0.0
 40
0.0
 40
0.0
 40
0.0
 40
0.0701852045455005
 40
1.0
 40
1.0
 40
1.0
 40
1.0
 10
-96.2104325625811
 20
-1191.177434512836
 30
0.0
 10
-96.19291337100216
 20
-1191.229289503342
 30
0.0
 10
-95.94329962844061
 20
-1191.968120298832
 30
0.0
 10
-95.69869014842818
 20
-1192.692138996067
 30
0.0
 10
-95.47124863480417
 20
-1193.365342292942
 30
0.0
  0
ARC
  5
343
330
1F
100
AcDbEntity
  8
0
  6
SLD-Сплошная
 62
     7
370
    35
100
AcDbCircle
 10
-100.0
 20
-1192.4577386319
 30
0.0
 40
3.999999999999834
100
AcDbArc
 50
298.9550243719
 51
318.6675229036
  0
LINE
  5
344
330
1F
100
AcDbEntity
  8
0
  6
SLD-Сплошная
 62
     7
370
    35
100
AcDbLine
 10
-96.9964403896
 20
-1195.0994482425
 30
0.0
 11
-97.7513293429
 21
-1195.9577386319
 31
0.0
  0
ARC
  5
345
330
1F
100
AcDbEntity
  8
0
  6
SLD-Сплошная
 62
     7
370
    35
100
AcDbCircle
 10
-100.0
 20
-1192.4577386319
 30
0.0
 40
4.000000000000081
100
AcDbArc
 50
198.6675229036
 51
241.0449756281
  0
LINE
  5
346
330
1F
100
AcDbEntity
  8
0
  6
SLD-Сплошная
 62
     7
370
    35
100
AcDbLine
 10
-103.0503835096
 20
-1195.925950531
 30
0.0
 11
-103.7895674374
 21
-1193.7380427509
 31
0.0
  0
SPLINE
  5
347
330
1F
100
AcDbEntity
  8
0
  6
SLD-Сплошная
 62
     7
370
    35
100
AcDbSpline
210
0.0
220
0.0
230
1.0
 70
    24
 71
     3
 72
     9
 73
     5
 74
     0
 42
0.000000001
 43
0.00000001
 40
0.0
 40
0.0
 40
0.0
 40
0.0
 40
0.0701852045454392
 40
1.0
 40
1.0
 40
1.0
 40
1.0
 10
-103.7895674374199
 20
-1193.738042750932
 30
0.0
 10
-103.8070866289988
 20
-1193.686187760426
 30
0.0
 10
-104.0567003715595
 20
-1192.947356964937
 30
0.0
 10
-104.3013098515723
 20
-1192.223338267701
 30
0.0
 10
-104.5287513651966
 20
-1191.550134970826
 30
0.0
  0
ARC
  5
348
330
1F
100
AcDbEntity
  8
0
  6
SLD-Сплошная
 62
     7
370
    35
100
AcDbCircle
 10
-100.0
 20
-1192.4577386319
 30
0.0
 40
4.000000000000119
100
AcDbArc
 50
138.6675229036
 51
198.6675229036
  0
SPLINE
  5
349
330
1F
100
AcDbEntity
  8
0
  6
SLD-Сплошная
 62
     7
370
    35
100
AcDbSpline
210
0.0
220
0.0
230
1.0
 70
    24
 71
     3
 72
     9
 73
     5
 74
     0
 42
0.000000001
 43
0.00000001
 40
0.0
 40
0.0
 40
0.0
 40
0.0
 40
0.1972242043131771
 40
1.0
 40
1.0
 40
1.0
 40
1.0
 10
-104.5287513651966
 20
-1191.550134970826
 30
0.0
 10
-104.4308375446974
 20
-1191.438809337091
 30
0.0
 10
-103.9343780921659
 20
-1190.874347007919
 30
0.0
 10
-103.418052942906
 20
-1190.28729786448
 30
0.0
 10
-103.0035596103757
 20
-1189.816029021249
 30
0.0
  0
ARC
  5
34A
330
1F
100
AcDbEntity
  8
0
  6
SLD-Сплошная
 62
     7
370
    35
100
AcDbCircle
 10
-100.0
 20
-1192.4577386319
 30
0.0
 40
4.000000000000119
100
AcDbArc
 50
118.9550243718
 51
138.6675229036
  0
SPLINE
  5
34B
330
1F
100
AcDbEntity
  8
0
  6
SLD-Сплошная
 62
     7
370
    35
100
AcDbSpline
210
0.0
220
0.0
230
1.0
 70
    24
 71
     3
 72
     9
 73
     5
 74
     0
 42
0.000000001
 43
0.00000001
 40
0.0
 40
0.0
 40
0.0
 40
0.0
 40
0.3989708934728418
 40
1.0
 40
1.0
 40
1.0
 40
1.0
 10
-103.0035596103757
 20
-1189.816029021249
 30
0.0
 10
-102.8893257217213
 20
-1189.686147866743
 30
0.0
 10
-102.6030043621354
 20
-1189.360607441036
 30
0.0
 10
-102.3238096117024
 20
-1189.043169796696
 30
0.0
 10
-102.1560054403025
 20
-1188.852380532941
 30
0.0
  0
ARC
  5
34C
330
1F
100
AcDbEntity
  8
0
  6
SLD-Сплошная
 62
     7
370
    35
100
AcDbCircle
 10
-100.0
 20
-1192.4577386319
 30
0.0
 40
4.000000000000151
100
AcDbArc
 50
18.6675229036
 51
61.0449756282
  0
LINE
  5
34D
330
1F
100
AcDbEntity
  8
0
  6
SLD-Сплошная
 62
     7
370
    35
100
AcDbLine
 10
-96.9496164904
 20
-1188.9895267327
 30
0.0
 11
-96.2104325626
 21
-1191.1774345128
 31
0.0
  0
SPLINE
  5
34E
330
1F
100
AcDbEntity
  8
0
  6
SLD-Сплошная
 62
     7
370
    35
100
AcDbSpline
210
0.0
220
0.0
230
1.0
 70
     8
 71
     3
 72
    10
 73
     6
 74
     0
 42
0.000000001
 43
0.00000001
 40
0.0
 40
0.0
 40
0.0
 40
0.0
 40
0.1309609171392814
 40
0.6570570972498396
 40
1.0
 40
1.0
 40
1.0
 40
1.0
 10
-95.23219785976079
 20
-1193.413250279297
 30
0.0
 10
-95.29691749602692
 20
-1193.227217246705
 30
0.0
 10
-95.62162884708475
 20
-1192.293852338629
 30
0.0
 10
-96.12174548672986
 20
-1190.836499687014
 30
0.0
 10
-96.53160860696741
 20
-1189.587718656037
 30
0.0
 10
-96.6933500648105
 20
-1189.094920805965
 30
0.0
  0
SPLINE
  5
34F
330
1F
100
AcDbEntity
  8
0
  6
SLD-Сплошная
 62
     7
370
    35
100
AcDbSpline
210
0.0
220
0.0
230
1.0
 70
    24
 71
     3
 72
    12
 73
     8
 74
     0
 42
0.000000001
 43
0.00000001
 40
0.0
 40
0.0
 40
0.0
 40
0.0
 40
0.0086674047365962
 40
0.2676326298828555
 40
0.5286616002510169
 40
0.7638461449006164
 40
1.0
 40
1.0
 40
1.0
 40
1.0
 10
-95.23219785976079
 20
-1193.413250279297
 30
0.0
 10
-95.23331456836253
 20
-1193.413026480565
 30
0.0
 10
-95.2677963618156
 20
-1193.406116010227
 30
0.0
 10
-95.33288880688873
 20
-1193.393070882179
 30
0.0
 10
-95.40827518664929
 20
-1193.377962754409
 30
0.0
 10
-95.46058044108113
 20
-1193.367480297637
 30
0.0
 10
-95.46768769818986
 20
-1193.366055937576
 30
0.0
 10
-95.47124863480417
 20
-1193.365342292942
 30
0.0
  0
SPLINE
  5
350
330
1F
100
AcDbEntity
  8
0
  6
SLD-Сплошная
 62
     7
370
    35
100
AcDbSpline
210
0.0
220
0.0
230
1.0
 70
     8
 71
     3
 72
    11
 73
     7
 74
     0
 42
0.000000001
 43
0.00000001
 40
0.0
 40
0.0
 40
0.0
 40
0.0
 40
0.1265852332080181
 40
0.4692135075535014
 40
0.7339691201190529
 40
1.0
 40
1.0
 40
1.0
 40
1.0
 10
-97.56539178577839
 20
-1196.051204788604
 30
0.0
 10
-97.46816025480837
 20
-1195.939106599699
 30
0.0
 10
-97.10775212081802
 20
-1195.523592221966
 30
0.0
 10
-96.5333085706263
 20
-1194.871396357668
 30
0.0
 10
-95.85064803099903
 20
-1194.103897672569
 30
0.0
 10
-95.43867784994536
 20
-1193.643834526203
 30
0.0
 10
-95.23219785976079
 20
-1193.413250279297
 30
0.0
  0
SPLINE
  5
351
330
1F
100
AcDbEntity
  8
0
  6
SLD-Сплошная
 62
     7
370
    35
100
AcDbSpline
210
0.0
220
0.0
230
1.0
 70
     8
 71
     3
 72
     9
 73
     5
 74
     0
 42
0.000000001
 43
0.00000001
 40
0.0
 40
0.0
 40
0.0
 40
0.0
 40
0.4486782902497745
 40
1.0
 40
1.0
 40
1.0
 40
1.0
 10
-102.5234463950362
 20
-1188.962499625457
 30
0.0
 10
-102.8577016686591
 20
-1189.346725998378
 30
0.0
 10
-103.6026792637122
 20
-1190.20307760101
 30
0.0
 10
-104.3537310083019
 20
-1191.040524389317
 30
0.0
 10
-104.76780214024
 20
-1191.502226984471
 30
0.0
  0
SPLINE
  5
352
330
1F
100
AcDbEntity
  8
0
  6
SLD-Сплошная
 62
     7
370
    35
100
AcDbSpline
210
0.0
220
0.0
230
1.0
 70
    24
 71
     3
 72
    12
 73
     8
 74
     0
 42
0.000000001
 43
0.00000001
 40
0.0
 40
0.0
 40
0.0
 40
0.0
 40
0.2361538550995272
 40
0.4713383997491495
 40
0.7323673701174469
 40
0.9913325952638447
 40
0.9999999999999999
 40
0.9999999999999999
 40
0.9999999999999999
 40
0.9999999999999999
 10
-104.5287513651966
 20
-1191.550134970826
 30
0.0
 10
-104.532312301811
 20
-1191.549421326192
 30
0.0
 10
-104.5394195589198
 20
-1191.547996966131
 30
0.0
 10
-104.5917248133518
 20
-1191.53751450936
 30
0.0
 10
-104.6671111931121
 20
-1191.522406381589
 30
0.0
 10
-104.7322036381856
 20
-1191.509361253543
 30
0.0
 10
-104.7666854316383
 20
-1191.502450783204
 30
0.0
 10
-104.76780214024
 20
-1191.502226984471
 30
0.0
  0
SPLINE
  5
353
330
1F
100
AcDbEntity
  8
0
  6
SLD-Сплошная
 62
     7
370
    35
100
AcDbSpline
210
0.0
220
0.0
230
1.0
 70
     8
 71
     3
 72
    10
 73
     6
 74
     0
 42
0.000000001
 43
0.00000001
 40
0.0
 40
0.0
 40
0.0
 40
0.0
 40
0.130960917139307
 40
0.6570570972498831
 40
1.0
 40
1.0
 40
1.0
 40
1.0
 10
-104.76780214024
 20
-1191.502226984471
 30
0.0
 10
-104.703082503974
 20
-1191.688260017063
 30
0.0
 10
-104.3783711529164
 20
-1192.62162492514
 30
0.0
 10
-103.8782545132711
 20
-1194.078977576754
 30
0.0
 10
-103.4683913930336
 20
-1195.327758607731
 30
0.0
 10
-103.3066499351904
 20
-1195.820556457804
 30
0.0
  0
ARC
  5
354
330
1F
100
AcDbEntity
  8
0
  6
SLD-Сплошная
 62
     7
370
    35
100
AcDbCircle
 10
500.0
 20
-1192.4577386319
 30
0.0
 40
4.000000000000178
100
AcDbArc
 50
318.6675229036
 51
18.6675229036
  0
SPLINE
  5
355
330
1F
100
AcDbEntity
  8
0
  6
SLD-Сплошная
 62
     7
370
    35
100
AcDbSpline
210
0.0
220
0.0
230
1.0
 70
    24
 71
     3
 72
     9
 73
     5
 74
     0
 42
0.000000001
 43
0.00000001
 40
0.0
 40
0.0
 40
0.0
 40
0.0
 40
0.778953922106926
 40
1.0
 40
1.0
 40
1.0
 40
1.0
 10
504.5287513651958
 20
-1193.365342292942
 30
0.0
 10
504.1368114887802
 20
-1193.810968404821
 30
0.0
 10
503.6336496645791
 20
-1194.383051167653
 30
0.0
 10
503.1176248677986
 20
-1194.969758817624
 30
0.0
 10
503.0035596103748
 20
-1195.09944824252
 30
0.0
  0
SPLINE
  5
356
330
1F
100
AcDbEntity
  8
0
  6
SLD-Сплошная
 62
     7
370
    35
100
AcDbSpline
210
0.0
220
0.0
230
1.0
 70
    24
 71
     3
 72
     9
 73
     5
 74
     0
 42
0.000000001
 43
0.00000001
 40
0.0
 40
0.0
 40
0.0
 40
0.0
 40
0.070185204545501
 40
1.0
 40
1.0
 40
1.0
 40
1.0
 10
503.789567437419
 20
-1191.177434512836
 30
0.0
 10
503.8070866289979
 20
-1191.229289503342
 30
0.0
 10
504.0567003715595
 20
-1191.968120298832
 30
0.0
 10
504.3013098515719
 20
-1192.692138996067
 30
0.0
 10
504.5287513651958
 20
-1193.365342292942
 30
0.0
  0
LINE
  5
357
330
1F
100
AcDbEntity
  8
0
  6
SLD-Сплошная
 62
     7
370
    35
100
AcDbLine
 10
503.0035596104
 20
-1195.0994482425
 30
0.0
 11
502.2486706571
 21
-1195.9577386319
 31
0.0
  0
ARC
  5
358
330
1F
100
AcDbEntity
  8
0
  6
SLD-Сплошная
 62
     7
370
    35
100
AcDbCircle
 10
500.0
 20
-1192.4577386319
 30
0.0
 40
3.999999999999813
100
AcDbArc
 50
298.9550243719
 51
318.6675229036
  0
ARC
  5
359
330
1F
100
AcDbEntity
  8
0
  6
SLD-Сплошная
 62
     7
370
    35
100
AcDbCircle
 10
500.0
 20
-1192.4577386319
 30
0.0
 40
4.000000000000178
100
AcDbArc
 50
18.6675229036
 51
61.0449756282
  0
LINE
  5
35A
330
1F
100
AcDbEntity
  8
0
  6
SLD-Сплошная
 62
     7
370
    35
100
AcDbLine
 10
503.0503835096
 20
-1188.9895267327
 30
0.0
 11
503.7895674374
 21
-1191.1774345128
 31
0.0
  0
SPLINE
  5
35B
330
1F
100
AcDbEntity
  8
0
  6
SLD-Сплошная
 62
     7
370
    35
100
AcDbSpline
210
0.0
220
0.0
230
1.0
 70
    24
 71
     3
 72
     9
 73
     5
 74
     0
 42
0.000000001
 43
0.00000001
 40
0.0
 40
0.0
 40
0.0
 40
0.0
 40
0.070185204545424
 40
1.0
 40
1.0
 40
1.0
 40
1.0
 10
496.2104325625801
 20
-1193.738042750932
 30
0.0
 10
496.1929133710012
 20
-1193.686187760426
 30
0.0
 10
495.9432996284418
 20
-1192.947356964937
 30
0.0
 10
495.6986901484283
 20
-1192.223338267701
 30
0.0
 10
495.4712486348035
 20
-1191.550134970826
 30
0.0
  0
ARC
  5
35C
330
1F
100
AcDbEntity
  8
0
  6
SLD-Сплошная
 62
     7
370
    35
100
AcDbCircle
 10
500.0
 20
-1192.4577386319
 30
0.0
 40
4.00000000000013
100
AcDbArc
 50
138.6675229036
 51
198.6675229036
  0
SPLINE
  5
35D
330
1F
100
AcDbEntity
  8
0
  6
SLD-Сплошная
 62
     7
370
    35
100
AcDbSpline
210
0.0
220
0.0
230
1.0
 70
    24
 71
     3
 72
     9
 73
     5
 74
     0
 42
0.000000001
 43
0.00000001
 40
0.0
 40
0.0
 40
0.0
 40
0.0
 40
0.197224204313174
 40
1.0
 40
1.0
 40
1.0
 40
1.0
 10
495.4712486348034
 20
-1191.550134970826
 30
0.0
 10
495.5691624553027
 20
-1191.438809337091
 30
0.0
 10
496.065621907834
 20
-1190.874347007919
 30
0.0
 10
496.5819470570941
 20
-1190.28729786448
 30
0.0
 10
496.9964403896245
 20
-1189.816029021249
 30
0.0
  0
ARC
  5
35E
330
1F
100
AcDbEntity
  8
0
  6
SLD-Сплошная
 62
     7
370
    35
100
AcDbCircle
 10
500.0
 20
-1192.4577386319
 30
0.0
 40
4.000000000000121
100
AcDbArc
 50
198.6675229036
 51
241.0449756281
  0
LINE
  5
35F
330
1F
100
AcDbEntity
  8
0
  6
SLD-Сплошная
 62
     7
370
    35
100
AcDbLine
 10
496.9496164904
 20
-1195.925950531
 30
0.0
 11
496.2104325626
 21
-1193.7380427509
 31
0.0
  0
ARC
  5
360
330
1F
100
AcDbEntity
  8
0
  6
SLD-Сплошная
 62
     7
370
    35
100
AcDbCircle
 10
500.0
 20
-1192.4577386319
 30
0.0
 40
4.00000000000013
100
AcDbArc
 50
118.9550243718
 51
138.6675229036
  0
SPLINE
  5
361
330
1F
100
AcDbEntity
  8
0
  6
SLD-Сплошная
 62
     7
370
    35
100
AcDbSpline
210
0.0
220
0.0
230
1.0
 70
    24
 71
     3
 72
     9
 73
     5
 74
     0
 42
0.000000001
 43
0.00000001
 40
0.0
 40
0.0
 40
0.0
 40
0.0
 40
0.4483176756057719
 40
1.0
 40
1.0
 40
1.0
 40
1.0
 10
496.9964403896244
 20
-1189.816029021249
 30
0.0
 10
497.1107210476723
 20
-1189.68609469108
 30
0.0
 10
497.3656310462425
 20
-1189.396268219273
 30
0.0
 10
497.614198868772
 20
-1189.113652647455
 30
0.0
 10
497.7513293428745
 20
-1188.957738631884
 30
0.0
  0
SPLINE
  5
362
330
1F
100
AcDbEntity
  8
0
  6
SLD-Сплошная
 62
     7
370
    35
100
AcDbSpline
210
0.0
220
0.0
230
1.0
 70
     8
 71
     3
 72
     9
 73
     5
 74
     0
 42
0.000000001
 43
0.00000001
 40
0.0
 40
0.0
 40
0.0
 40
0.0
 40
0.4693058646424609
 40
0.9999999999999999
 40
0.9999999999999999
 40
0.9999999999999999
 40
0.9999999999999999
 10
497.56352923998
 20
-1188.862972611956
 30
0.0
 10
497.2003377608704
 20
-1189.28054792885
 30
0.0
 10
496.4264469862761
 20
-1190.170320140009
 30
0.0
 10
495.6462459657519
 20
-1191.04045272476
 30
0.0
 10
495.23219785976
 20
-1191.502226984471
 30
0.0
  0
SPLINE
  5
363
330
1F
100
AcDbEntity
  8
0
  6
SLD-Сплошная
 62
     7
370
    35
100
AcDbSpline
210
0.0
220
0.0
230
1.0
 70
    24
 71
     3
 72
    12
 73
     8
 74
     0
 42
0.000000001
 43
0.00000001
 40
0.0
 40
0.0
 40
0.0
 40
0.0
 40
0.2361538550994791
 40
0.4713383997490767
 40
0.7323673701173464
 40
0.9913325952636025
 40
1.0
 40
1.0
 40
1.0
 40
1.0
 10
495.4712486348034
 20
-1191.550134970826
 30
0.0
 10
495.467687698189
 20
-1191.549421326193
 30
0.0
 10
495.4605804410802
 20
-1191.547996966131
 30
0.0
 10
495.4082751866482
 20
-1191.53751450936
 30
0.0
 10
495.332888806888
 20
-1191.522406381589
 30
0.0
 10
495.2677963618142
 20
-1191.509361253542
 30
0.0
 10
495.2333145683618
 20
-1191.502450783204
 30
0.0
 10
495.23219785976
 20
-1191.502226984471
 30
0.0
  0
SPLINE
  5
364
330
1F
100
AcDbEntity
  8
0
  6
SLD-Сплошная
 62
     7
370
    35
100
AcDbSpline
210
0.0
220
0.0
230
1.0
 70
     8
 71
     3
 72
    11
 73
     7
 74
     0
 42
0.000000001
 43
0.00000001
 40
0.0
 40
0.0
 40
0.0
 40
0.0
 40
0.0936327416456235
 40
0.449187812913578
 40
0.7239322159379831
 40
1.0
 40
1.0
 40
1.0
 40
1.0
 10
502.5185287343347
 20
-1195.954587559842
 30
0.0
 10
502.5878601845135
 20
-1195.874679802055
 30
0.0
 10
502.9204665135039
 20
-1195.491335361592
 30
0.0
 10
503.4667606980108
 20
-1194.8713819128
 30
0.0
 10
504.1493364548996
 20
-1194.103900907787
 30
0.0
 10
504.561316970411
 20
-1193.643835606335
 30
0.0
 10
504.7678021402393
 20
-1193.413250279297
 30
0.0
  0
SPLINE
  5
365
330
1F
100
AcDbEntity
  8
0
  6
SLD-Сплошная
 62
     7
370
    35
100
AcDbSpline
210
0.0
220
0.0
230
1.0
 70
    24
 71
     3
 72
    12
 73
     8
 74
     0
 42
0.000000001
 43
0.00000001
 40
0.0
 40
0.0
 40
0.0
 40
0.0
 40
0.0086674047365965
 40
0.2676326298827513
 40
0.5286616002510158
 40
0.7638461449005614
 40
1.0
 40
1.0
 40
1.0
 40
1.0
 10
504.7678021402393
 20
-1193.413250279297
 30
0.0
 10
504.7666854316375
 20
-1193.413026480565
 30
0.0
 10
504.7322036381851
 20
-1193.406116010227
 30
0.0
 10
504.6671111931109
 20
-1193.393070882179
 30
0.0
 10
504.5917248133509
 20
-1193.377962754409
 30
0.0
 10
504.539419558919
 20
-1193.367480297637
 30
0.0
 10
504.5323123018103
 20
-1193.366055937576
 30
0.0
 10
504.5287513651958
 20
-1193.365342292942
 30
0.0
  0
SPLINE
  5
366
330
1F
100
AcDbEntity
  8
0
  6
SLD-Сплошная
 62
     7
370
    35
100
AcDbSpline
210
0.0
220
0.0
230
1.0
 70
     8
 71
     3
 72
    10
 73
     6
 74
     0
 42
0.000000001
 43
0.00000001
 40
0.0
 40
0.0
 40
0.0
 40
0.0
 40
0.1318317034405791
 40
0.6614260061727297
 40
1.0
 40
1.0
 40
1.0
 40
1.0
 10
495.23219785976
 20
-1191.502226984471
 30
0.0
 10
495.2969168414625
 20
-1191.688259548692
 30
0.0
 10
495.6216249084433
 20
-1192.621622106854
 30
0.0
 10
496.1185079021483
 20
-1194.06939844775
 30
0.0
 10
496.5252903800655
 20
-1195.308712649424
 30
0.0
 10
496.6839300916437
 20
-1195.79202856931
 30
0.0
  0
SPLINE
  5
367
330
1F
100
AcDbEntity
  8
0
  6
SLD-Сплошная
 62
     7
370
    35
100
AcDbSpline
210
0.0
220
0.0
230
1.0
 70
     8
 71
     3
 72
    10
 73
     6
 74
     0
 42
0.000000001
 43
0.00000001
 40
0.0
 40
0.0
 40
0.0
 40
0.0
 40
0.1318317034405395
 40
0.6614260061726726
 40
1.0
 40
1.0
 40
1.0
 40
1.0
 10
504.7678021402393
 20
-1193.413250279297
 30
0.0
 10
504.7030831585369
 20
-1193.227217715077
 30
0.0
 10
504.3783750915557
 20
-1192.293855156914
 30
0.0
 10
503.8814920978509
 20
-1190.846078816018
 30
0.0
 10
503.4747096199333
 20
-1189.606764614345
 30
0.0
 10
503.3160699083554
 20
-1189.123448694459
 30
0.0
  0
LINE
  5
368
330
1F
100
AcDbEntity
  8
0
  6
SLD-Сплошная
 62
     7
370
    35
100
AcDbLine
 10
303.0035596104
 20
-1195.0994482425
 30
0.0
 11
302.2486706571
 21
-1195.9577386319
 31
0.0
  0
ARC
  5
369
330
1F
100
AcDbEntity
  8
0
  6
SLD-Сплошная
 62
     7
370
    35
100
AcDbCircle
 10
300.0
 20
-1192.4577386319
 30
0.0
 40
3.999999999999813
100
AcDbArc
 50
298.9550243719
 51
318.6675229036
  0
ARC
  5
36A
330
1F
100
AcDbEntity
  8
0
  6
SLD-Сплошная
 62
     7
370
    35
100
AcDbCircle
 10
300.0
 20
-1192.4577386319
 30
0.0
 40
4.000000000000123
100
AcDbArc
 50
318.6675229036
 51
18.6675229036
  0
SPLINE
  5
36B
330
1F
100
AcDbEntity
  8
0
  6
SLD-Сплошная
 62
     7
370
    35
100
AcDbSpline
210
0.0
220
0.0
230
1.0
 70
    24
 71
     3
 72
     9
 73
     5
 74
     0
 42
0.000000001
 43
0.00000001
 40
0.0
 40
0.0
 40
0.0
 40
0.0
 40
0.778953922106926
 40
1.0
 40
1.0
 40
1.0
 40
1.0
 10
304.5287513651958
 20
-1193.365342292942
 30
0.0
 10
304.13681148878
 20
-1193.810968404821
 30
0.0
 10
303.633649664579
 20
-1194.383051167653
 30
0.0
 10
303.1176248677987
 20
-1194.969758817624
 30
0.0
 10
303.0035596103747
 20
-1195.09944824252
 30
0.0
  0
SPLINE
  5
36C
330
1F
100
AcDbEntity
  8
0
  6
SLD-Сплошная
 62
     7
370
    35
100
AcDbSpline
210
0.0
220
0.0
230
1.0
 70
    24
 71
     3
 72
     9
 73
     5
 74
     0
 42
0.000000001
 43
0.00000001
 40
0.0
 40
0.0
 40
0.0
 40
0.0
 40
0.070185204545501
 40
1.0
 40
1.0
 40
1.0
 40
1.0
 10
303.7895674374189
 20
-1191.177434512836
 30
0.0
 10
303.8070866289979
 20
-1191.229289503342
 30
0.0
 10
304.0567003715593
 20
-1191.968120298832
 30
0.0
 10
304.3013098515718
 20
-1192.692138996067
 30
0.0
 10
304.5287513651958
 20
-1193.365342292942
 30
0.0
  0
ARC
  5
36D
330
1F
100
AcDbEntity
  8
0
  6
SLD-Сплошная
 62
     7
370
    35
100
AcDbCircle
 10
300.0
 20
-1192.4577386319
 30
0.0
 40
4.000000000000123
100
AcDbArc
 50
18.6675229036
 51
61.0449756282
  0
ARC
  5
36E
330
1F
100
AcDbEntity
  8
0
  6
SLD-Сплошная
 62
     7
370
    35
100
AcDbCircle
 10
300.0
 20
-1192.4577386319
 30
0.0
 40
4.00000000000013
100
AcDbArc
 50
118.9550243718
 51
138.6675229036
  0
ARC
  5
36F
330
1F
100
AcDbEntity
  8
0
  6
SLD-Сплошная
 62
     7
370
    35
100
AcDbCircle
 10
300.0
 20
-1192.4577386319
 30
0.0
 40
4.00000000000013
100
AcDbArc
 50
138.6675229036
 51
198.6675229036
  0
ARC
  5
370
330
1F
100
AcDbEntity
  8
0
  6
SLD-Сплошная
 62
     7
370
    35
100
AcDbCircle
 10
300.0
 20
-1192.4577386319
 30
0.0
 40
4.000000000000121
100
AcDbArc
 50
198.6675229036
 51
241.0449756281
  0
LINE
  5
371
330
1F
100
AcDbEntity
  8
0
  6
SLD-Сплошная
 62
     7
370
    35
100
AcDbLine
 10
296.9496164904
 20
-1195.925950531
 30
0.0
 11
296.2104325626
 21
-1193.7380427509
 31
0.0
  0
SPLINE
  5
372
330
1F
100
AcDbEntity
  8
0
  6
SLD-Сплошная
 62
     7
370
    35
100
AcDbSpline
210
0.0
220
0.0
230
1.0
 70
    24
 71
     3
 72
     9
 73
     5
 74
     0
 42
0.000000001
 43
0.00000001
 40
0.0
 40
0.0
 40
0.0
 40
0.0
 40
0.070185204545424
 40
1.0
 40
1.0
 40
1.0
 40
1.0
 10
296.2104325625801
 20
-1193.738042750932
 30
0.0
 10
296.1929133710012
 20
-1193.686187760426
 30
0.0
 10
295.9432996284419
 20
-1192.947356964937
 30
0.0
 10
295.6986901484284
 20
-1192.223338267701
 30
0.0
 10
295.4712486348034
 20
-1191.550134970826
 30
0.0
  0
SPLINE
  5
373
330
1F
100
AcDbEntity
  8
0
  6
SLD-Сплошная
 62
     7
370
    35
100
AcDbSpline
210
0.0
220
0.0
230
1.0
 70
    24
 71
     3
 72
     9
 73
     5
 74
     0
 42
0.000000001
 43
0.00000001
 40
0.0
 40
0.0
 40
0.0
 40
0.0
 40
0.197224204313174
 40
1.0
 40
1.0
 40
1.0
 40
1.0
 10
295.4712486348033
 20
-1191.550134970826
 30
0.0
 10
295.5691624553025
 20
-1191.438809337091
 30
0.0
 10
296.065621907834
 20
-1190.874347007919
 30
0.0
 10
296.5819470570941
 20
-1190.28729786448
 30
0.0
 10
296.9964403896245
 20
-1189.816029021249
 30
0.0
  0
LINE
  5
374
330
1F
100
AcDbEntity
  8
0
  6
SLD-Сплошная
 62
     7
370
    35
100
AcDbLine
 10
303.0503835096
 20
-1188.9895267327
 30
0.0
 11
303.7895674374
 21
-1191.1774345128
 31
0.0
  0
SPLINE
  5
375
330
1F
100
AcDbEntity
  8
0
  6
SLD-Сплошная
 62
     7
370
    35
100
AcDbSpline
210
0.0
220
0.0
230
1.0
 70
    24
 71
     3
 72
     9
 73
     5
 74
     0
 42
0.000000001
 43
0.00000001
 40
0.0
 40
0.0
 40
0.0
 40
0.0
 40
0.3989708934729018
 40
1.0
 40
1.0
 40
1.0
 40
1.0
 10
296.9964403896244
 20
-1189.816029021249
 30
0.0
 10
297.1106742782787
 20
-1189.686147866743
 30
0.0
 10
297.3969956378648
 20
-1189.360607441036
 30
0.0
 10
297.6761903882976
 20
-1189.043169796697
 30
0.0
 10
297.8439945596974
 20
-1188.852380532941
 30
0.0
  0
SPLINE
  5
376
330
1F
100
AcDbEntity
  8
0
  6
SLD-Сплошная
 62
     7
370
    35
100
AcDbSpline
210
0.0
220
0.0
230
1.0
 70
     8
 71
     3
 72
     9
 73
     5
 74
     0
 42
0.000000001
 43
0.00000001
 40
0.0
 40
0.0
 40
0.0
 40
0.0
 40
0.4488738627708653
 40
1.0
 40
1.0
 40
1.0
 40
1.0
 10
297.4773476599199
 20
-1188.961590981119
 30
0.0
 10
297.1428282014903
 20
-1189.346121792212
 30
0.0
 10
296.3975866399423
 20
-1190.202778512476
 30
0.0
 10
295.6462687733862
 20
-1191.040523709857
 30
0.0
 10
295.2321978597599
 20
-1191.502226984471
 30
0.0
  0
SPLINE
  5
377
330
1F
100
AcDbEntity
  8
0
  6
SLD-Сплошная
 62
     7
370
    35
100
AcDbSpline
210
0.0
220
0.0
230
1.0
 70
    24
 71
     3
 72
    12
 73
     8
 74
     0
 42
0.000000001
 43
0.00000001
 40
0.0
 40
0.0
 40
0.0
 40
0.0
 40
0.2361538550994791
 40
0.4713383997490767
 40
0.7323673701173464
 40
0.9913325952636025
 40
1.0
 40
1.0
 40
1.0
 40
1.0
 10
295.4712486348033
 20
-1191.550134970826
 30
0.0
 10
295.4676876981887
 20
-1191.549421326193
 30
0.0
 10
295.46058044108
 20
-1191.547996966131
 30
0.0
 10
295.4082751866482
 20
-1191.53751450936
 30
0.0
 10
295.332888806888
 20
-1191.522406381589
 30
0.0
 10
295.2677963618142
 20
-1191.509361253542
 30
0.0
 10
295.2333145683618
 20
-1191.502450783204
 30
0.0
 10
295.2321978597599
 20
-1191.502226984471
 30
0.0
  0
SPLINE
  5
378
330
1F
100
AcDbEntity
  8
0
  6
SLD-Сплошная
 62
     7
370
    35
100
AcDbSpline
210
0.0
220
0.0
230
1.0
 70
     8
 71
     3
 72
    11
 73
     7
 74
     0
 42
0.000000001
 43
0.00000001
 40
0.0
 40
0.0
 40
0.0
 40
0.0
 40
0.0936327416456277
 40
0.4491878129135805
 40
0.7239322159379843
 40
0.9999999999999999
 40
0.9999999999999999
 40
0.9999999999999999
 40
0.9999999999999999
 10
302.5185287343346
 20
-1195.954587559842
 30
0.0
 10
302.5878601845135
 20
-1195.874679802055
 30
0.0
 10
302.9204665135036
 20
-1195.491335361592
 30
0.0
 10
303.4667606980106
 20
-1194.8713819128
 30
0.0
 10
304.1493364548998
 20
-1194.103900907787
 30
0.0
 10
304.5613169704111
 20
-1193.643835606335
 30
0.0
 10
304.7678021402393
 20
-1193.413250279297
 30
0.0
  0
SPLINE
  5
379
330
1F
100
AcDbEntity
  8
0
  6
SLD-Сплошная
 62
     7
370
    35
100
AcDbSpline
210
0.0
220
0.0
230
1.0
 70
    24
 71
     3
 72
    12
 73
     8
 74
     0
 42
0.000000001
 43
0.00000001
 40
0.0
 40
0.0
 40
0.0
 40
0.0
 40
0.0086674047365965
 40
0.2676326298827513
 40
0.5286616002510158
 40
0.7638461449005614
 40
1.0
 40
1.0
 40
1.0
 40
1.0
 10
304.7678021402393
 20
-1193.413250279297
 30
0.0
 10
304.7666854316374
 20
-1193.413026480565
 30
0.0
 10
304.7322036381839
 20
-1193.406116010227
 30
0.0
 10
304.6671111931115
 20
-1193.393070882179
 30
0.0
 10
304.5917248133506
 20
-1193.377962754409
 30
0.0
 10
304.5394195589191
 20
-1193.367480297637
 30
0.0
 10
304.5323123018102
 20
-1193.366055937576
 30
0.0
 10
304.5287513651958
 20
-1193.365342292942
 30
0.0
  0
SPLINE
  5
37A
330
1F
100
AcDbEntity
  8
0
  6
SLD-Сплошная
 62
     7
370
    35
100
AcDbSpline
210
0.0
220
0.0
230
1.0
 70
     8
 71
     3
 72
    10
 73
     6
 74
     0
 42
0.000000001
 43
0.00000001
 40
0.0
 40
0.0
 40
0.0
 40
0.0
 40
0.1318317034405798
 40
0.6614260061727336
 40
1.0
 40
1.0
 40
1.0
 40
1.0
 10
295.2321978597599
 20
-1191.502226984471
 30
0.0
 10
295.2969168414624
 20
-1191.688259548692
 30
0.0
 10
295.6216249084433
 20
-1192.621622106854
 30
0.0
 10
296.1185079021482
 20
-1194.06939844775
 30
0.0
 10
296.5252903800654
 20
-1195.308712649424
 30
0.0
 10
296.6839300916436
 20
-1195.79202856931
 30
0.0
  0
SPLINE
  5
37B
330
1F
100
AcDbEntity
  8
0
  6
SLD-Сплошная
 62
     7
370
    35
100
AcDbSpline
210
0.0
220
0.0
230
1.0
 70
     8
 71
     3
 72
    10
 73
     6
 74
     0
 42
0.000000001
 43
0.00000001
 40
0.0
 40
0.0
 40
0.0
 40
0.0
 40
0.131831703440539
 40
0.6614260061726698
 40
1.0
 40
1.0
 40
1.0
 40
1.0
 10
304.7678021402393
 20
-1193.413250279297
 30
0.0
 10
304.7030831585368
 20
-1193.227217715077
 30
0.0
 10
304.3783750915557
 20
-1192.293855156914
 30
0.0
 10
303.881492097851
 20
-1190.846078816018
 30
0.0
 10
303.4747096199334
 20
-1189.606764614345
 30
0.0
 10
303.3160699083554
 20
-1189.123448694459
 30
0.0
  0
ARC
  5
37C
330
1F
100
AcDbEntity
  8
0
  6
SLD-Сплошная
 62
     7
370
    35
100
AcDbCircle
 10
-300.0
 20
-1192.4577386319
 30
0.0
 40
3.999999999999813
100
AcDbArc
 50
298.9550243719
 51
318.6675229036
  0
LINE
  5
37D
330
1F
100
AcDbEntity
  8
0
  6
SLD-Сплошная
 62
     7
370
    35
100
AcDbLine
 10
-296.9964403896
 20
-1195.0994482425
 30
0.0
 11
-297.8439945597
 21
-1196.0630967308
 31
0.0
  0
ARC
  5
37E
330
1F
100
AcDbEntity
  8
0
  6
SLD-Сплошная
 62
     7
370
    35
100
AcDbCircle
 10
-300.0
 20
-1192.4577386319
 30
0.0
 40
4.000000000000178
100
AcDbArc
 50
318.6675229036
 51
18.6675229036
  0
SPLINE
  5
37F
330
1F
100
AcDbEntity
  8
0
  6
SLD-Сплошная
 62
     7
370
    35
100
AcDbSpline
210
0.0
220
0.0
230
1.0
 70
    24
 71
     3
 72
     9
 73
     5
 74
     0
 42
0.000000001
 43
0.00000001
 40
0.0
 40
0.0
 40
0.0
 40
0.0
 40
0.0701852045454971
 40
1.0
 40
1.0
 40
1.0
 40
1.0
 10
-296.210432562581
 20
-1191.177434512836
 30
0.0
 10
-296.1929133710021
 20
-1191.229289503342
 30
0.0
 10
-295.9432996284414
 20
-1191.968120298832
 30
0.0
 10
-295.6986901484285
 20
-1192.692138996067
 30
0.0
 10
-295.4712486348042
 20
-1193.365342292942
 30
0.0
  0
SPLINE
  5
380
330
1F
100
AcDbEntity
  8
0
  6
SLD-Сплошная
 62
     7
370
    35
100
AcDbSpline
210
0.0
220
0.0
230
1.0
 70
    24
 71
     3
 72
     9
 73
     5
 74
     0
 42
0.000000001
 43
0.00000001
 40
0.0
 40
0.0
 40
0.0
 40
0.0
 40
0.7789539221069464
 40
1.0
 40
1.0
 40
1.0
 40
1.0
 10
-295.4712486348042
 20
-1193.365342292942
 30
0.0
 10
-295.8631885112201
 20
-1193.810968404821
 30
0.0
 10
-296.366350335421
 20
-1194.383051167653
 30
0.0
 10
-296.8823751322015
 20
-1194.969758817624
 30
0.0
 10
-296.9964403896254
 20
-1195.09944824252
 30
0.0
  0
ARC
  5
381
330
1F
100
AcDbEntity
  8
0
  6
SLD-Сплошная
 62
     7
370
    35
100
AcDbCircle
 10
-300.0
 20
-1192.4577386319
 30
0.0
 40
4.000000000000178
100
AcDbArc
 50
18.6675229036
 51
61.0449756282
  0
LINE
  5
382
330
1F
100
AcDbEntity
  8
0
  6
SLD-Сплошная
 62
     7
370
    35
100
AcDbLine
 10
-296.9496164904
 20
-1188.9895267327
 30
0.0
 11
-296.2104325626
 21
-1191.1774345128
 31
0.0
  0
ARC
  5
383
330
1F
100
AcDbEntity
  8
0
  6
SLD-Сплошная
 62
     7
370
    35
100
AcDbCircle
 10
-300.0
 20
-1192.4577386319
 30
0.0
 40
4.000000000000087
100
AcDbArc
 50
118.9550243718
 51
138.6675229036
  0
SPLINE
  5
384
330
1F
100
AcDbEntity
  8
0
  6
SLD-Сплошная
 62
     7
370
    35
100
AcDbSpline
210
0.0
220
0.0
230
1.0
 70
    24
 71
     3
 72
     9
 73
     5
 74
     0
 42
0.000000001
 43
0.00000001
 40
0.0
 40
0.0
 40
0.0
 40
0.0
 40
0.5184892206980236
 40
1.0
 40
1.0
 40
1.0
 40
1.0
 10
-303.0035596103756
 20
-1189.816029021249
 30
0.0
 10
-302.8892124458513
 20
-1189.686019074833
 30
0.0
 10
-302.6686733103022
 20
-1189.435271438766
 30
0.0
 10
-302.453618010304
 20
-1189.190758790414
 30
0.0
 10
-302.3500665652088
 20
-1189.073023314557
 30
0.0
  0
ARC
  5
385
330
1F
100
AcDbEntity
  8
0
  6
SLD-Сплошная
 62
     7
370
    35
100
AcDbCircle
 10
-300.0
 20
-1192.4577386319
 30
0.0
 40
4.000000000000087
100
AcDbArc
 50
138.6675229036
 51
198.6675229036
  0
ARC
  5
386
330
1F
100
AcDbEntity
  8
0
  6
SLD-Сплошная
 62
     7
370
    35
100
AcDbCircle
 10
-300.0
 20
-1192.4577386319
 30
0.0
 40
4.000000000000067
100
AcDbArc
 50
198.6675229036
 51
241.0449756281
  0
SPLINE
  5
387
330
1F
100
AcDbEntity
  8
0
  6
SLD-Сплошная
 62
     7
370
    35
100
AcDbSpline
210
0.0
220
0.0
230
1.0
 70
    24
 71
     3
 72
     9
 73
     5
 74
     0
 42
0.000000001
 43
0.00000001
 40
0.0
 40
0.0
 40
0.0
 40
0.0
 40
0.0701852045454354
 40
1.0
 40
1.0
 40
1.0
 40
1.0
 10
-303.7895674374199
 20
-1193.738042750932
 30
0.0
 10
-303.8070866289988
 20
-1193.686187760426
 30
0.0
 10
-304.0567003715592
 20
-1192.947356964937
 30
0.0
 10
-304.3013098515721
 20
-1192.223338267701
 30
0.0
 10
-304.5287513651966
 20
-1191.550134970826
 30
0.0
  0
SPLINE
  5
388
330
1F
100
AcDbEntity
  8
0
  6
SLD-Сплошная
 62
     7
370
    35
100
AcDbSpline
210
0.0
220
0.0
230
1.0
 70
    24
 71
     3
 72
     9
 73
     5
 74
     0
 42
0.000000001
 43
0.00000001
 40
0.0
 40
0.0
 40
0.0
 40
0.0
 40
0.1972242043131763
 40
1.0
 40
1.0
 40
1.0
 40
1.0
 10
-304.5287513651966
 20
-1191.550134970826
 30
0.0
 10
-304.4308375446973
 20
-1191.438809337091
 30
0.0
 10
-303.9343780921661
 20
-1190.874347007919
 30
0.0
 10
-303.4180529429059
 20
-1190.28729786448
 30
0.0
 10
-303.0035596103756
 20
-1189.816029021249
 30
0.0
  0
LINE
  5
389
330
1F
100
AcDbEntity
  8
0
  6
SLD-Сплошная
 62
     7
370
    35
100
AcDbLine
 10
-303.0503835096
 20
-1195.925950531
 30
0.0
 11
-303.7895674374
 21
-1193.7380427509
 31
0.0
  0
SPLINE
  5
38A
330
1F
100
AcDbEntity
  8
0
  6
SLD-Сплошная
 62
     7
370
    35
100
AcDbSpline
210
0.0
220
0.0
230
1.0
 70
     8
 71
     3
 72
     9
 73
     5
 74
     0
 42
0.000000001
 43
0.00000001
 40
0.0
 40
0.0
 40
0.0
 40
0.0
 40
0.4558269934710197
 40
1.0
 40
1.0
 40
1.0
 40
1.0
 10
-302.4940506814515
 20
-1188.92886184193
 30
0.0
 10
-302.8380859078156
 20
-1189.324358756305
 30
0.0
 10
-303.5928354757258
 20
-1190.192005736498
 30
0.0
 10
-304.353738988186
 20
-1191.04049955321
 30
0.0
 10
-304.76780214024
 20
-1191.502226984471
 30
0.0
  0
SPLINE
  5
38B
330
1F
100
AcDbEntity
  8
0
  6
SLD-Сплошная
 62
     7
370
    35
100
AcDbSpline
210
0.0
220
0.0
230
1.0
 70
    24
 71
     3
 72
    12
 73
     8
 74
     0
 42
0.000000001
 43
0.00000001
 40
0.0
 40
0.0
 40
0.0
 40
0.0
 40
0.2361538550995046
 40
0.4713383997491316
 40
0.7323673701173702
 40
0.9913325952637844
 40
1.0
 40
1.0
 40
1.0
 40
1.0
 10
-304.5287513651966
 20
-1191.550134970826
 30
0.0
 10
-304.532312301811
 20
-1191.549421326192
 30
0.0
 10
-304.5394195589199
 20
-1191.547996966131
 30
0.0
 10
-304.5917248133516
 20
-1191.53751450936
 30
0.0
 10
-304.6671111931123
 20
-1191.522406381589
 30
0.0
 10
-304.7322036381852
 20
-1191.509361253543
 30
0.0
 10
-304.7666854316383
 20
-1191.502450783204
 30
0.0
 10
-304.76780214024
 20
-1191.502226984471
 30
0.0
  0
SPLINE
  5
38C
330
1F
100
AcDbEntity
  8
0
  6
SLD-Сплошная
 62
     7
370
    35
100
AcDbSpline
210
0.0
220
0.0
230
1.0
 70
     8
 71
     3
 72
    11
 73
     7
 74
     0
 42
0.000000001
 43
0.00000001
 40
0.0
 40
0.0
 40
0.0
 40
0.0
 40
0.0933699559174495
 40
0.4490281143142096
 40
0.7238521747924291
 40
1.0
 40
1.0
 40
1.0
 40
1.0
 10
-297.4808265442325
 20
-1195.953845295636
 30
0.0
 10
-297.4117094987961
 20
-1195.874184854484
 30
0.0
 10
-297.0793167470347
 20
-1195.49108755809
 30
0.0
 10
-296.533238718725
 20
-1194.871381791169
 30
0.0
 10
-295.8506636757339
 20
-1194.103900935029
 30
0.0
 10
-295.4386830732031
 20
-1193.64383561543
 30
0.0
 10
-295.2321978597607
 20
-1193.413250279297
 30
0.0
  0
SPLINE
  5
38D
330
1F
100
AcDbEntity
  8
0
  6
SLD-Сплошная
 62
     7
370
    35
100
AcDbSpline
210
0.0
220
0.0
230
1.0
 70
    24
 71
     3
 72
    12
 73
     8
 74
     0
 42
0.000000001
 43
0.00000001
 40
0.0
 40
0.0
 40
0.0
 40
0.0
 40
0.0086674047366267
 40
0.2676326298828313
 40
0.5286616002509953
 40
0.7638461449005969
 40
1.0
 40
1.0
 40
1.0
 40
1.0
 10
-295.2321978597607
 20
-1193.413250279297
 30
0.0
 10
-295.2333145683625
 20
-1193.413026480565
 30
0.0
 10
-295.2677963618161
 20
-1193.406116010227
 30
0.0
 10
-295.3328888068884
 20
-1193.393070882179
 30
0.0
 10
-295.4082751866492
 20
-1193.377962754409
 30
0.0
 10
-295.4605804410811
 20
-1193.367480297637
 30
0.0
 10
-295.4676876981899
 20
-1193.366055937576
 30
0.0
 10
-295.4712486348042
 20
-1193.365342292942
 30
0.0
  0
SPLINE
  5
38E
330
1F
100
AcDbEntity
  8
0
  6
SLD-Сплошная
 62
     7
370
    35
100
AcDbSpline
210
0.0
220
0.0
230
1.0
 70
     8
 71
     3
 72
    10
 73
     6
 74
     0
 42
0.000000001
 43
0.00000001
 40
0.0
 40
0.0
 40
0.0
 40
0.0
 40
0.1309609171393086
 40
0.6570570972498812
 40
1.0
 40
1.0
 40
1.0
 40
1.0
 10
-304.76780214024
 20
-1191.502226984471
 30
0.0
 10
-304.7030825039739
 20
-1191.688260017063
 30
0.0
 10
-304.3783711529164
 20
-1192.62162492514
 30
0.0
 10
-303.8782545132712
 20
-1194.078977576754
 30
0.0
 10
-303.4683913930336
 20
-1195.327758607731
 30
0.0
 10
-303.3066499351905
 20
-1195.820556457804
 30
0.0
  0
SPLINE
  5
38F
330
1F
100
AcDbEntity
  8
0
  6
SLD-Сплошная
 62
     7
370
    35
100
AcDbSpline
210
0.0
220
0.0
230
1.0
 70
     8
 71
     3
 72
    10
 73
     6
 74
     0
 42
0.000000001
 43
0.00000001
 40
0.0
 40
0.0
 40
0.0
 40
0.0
 40
0.1309609171392803
 40
0.6570570972498393
 40
1.0
 40
1.0
 40
1.0
 40
1.0
 10
-295.2321978597607
 20
-1193.413250279297
 30
0.0
 10
-295.2969174960268
 20
-1193.227217246705
 30
0.0
 10
-295.6216288470846
 20
-1192.293852338629
 30
0.0
 10
-296.1217454867298
 20
-1190.836499687014
 30
0.0
 10
-296.5316086069674
 20
-1189.587718656037
 30
0.0
 10
-296.6933500648104
 20
-1189.094920805965
 30
0.0
  0
LINE
  5
390
330
1F
100
AcDbEntity
  8
0
  6
SLD-Сплошная
 62
     7
370
    35
100
AcDbLine
 10
887.0
 20
-1202.4577386319
 30
0.0
 11
887.0
 21
-1200.2577386319
 31
0.0
  0
LINE
  5
391
330
1F
100
AcDbEntity
  8
0
  6
SLD-Сплошная
 62
     7
370
    35
100
AcDbLine
 10
887.0
 20
-1200.2577386319
 30
0.0
 11
705.0
 21
-1200.2577386319
 31
0.0
  0
LINE
  5
392
330
1F
100
AcDbEntity
  8
0
  6
SLD-Сплошная
 62
     7
370
    35
100
AcDbLine
 10
705.0
 20
-1200.2577386319
 30
0.0
 11
705.0
 21
-1202.4577386319
 31
0.0
  0
LINE
  5
393
330
1F
100
AcDbEntity
  8
0
  6
SLD-Сплошная
 62
     7
370
    35
100
AcDbLine
 10
887.0
 20
-1206.8322552323
 30
0.0
 11
887.0
 21
-1202.4577386319
 31
0.0
  0
LINE
  5
394
330
1F
100
AcDbEntity
  8
0
  6
SLD-Сплошная
 62
     7
370
    35
100
AcDbLine
 10
705.0
 20
-1206.8322552323
 30
0.0
 11
705.0
 21
-1202.4577386319
 31
0.0
  0
LINE
  5
395
330
1F
100
AcDbEntity
  8
0
  6
SLD-Сплошная
 62
     7
370
    35
100
AcDbLine
 10
887.0
 20
-1208.3878901509
 30
0.0
 11
887.0
 21
-1206.8322552323
 31
0.0
  0
SPLINE
  5
396
330
1F
100
AcDbEntity
  8
0
  6
SLD-Сплошная
 62
     7
370
    35
100
AcDbSpline
210
0.0
220
0.0
230
1.0
 70
     8
 71
     3
 72
    15
 73
    11
 74
     0
 42
0.000000001
 43
0.00000001
 40
0.0
 40
0.0
 40
0.0
 40
0.0
 40
0.1546081434543175
 40
0.2840352202989785
 40
0.3937333083316709
 40
0.4926684878679579
 40
0.5928369951382105
 40
0.7058429720360369
 40
0.8399293945958507
 40
1.0
 40
1.0
 40
1.0
 40
1.0
 10
864.8724136762851
 20
-1208.387890150902
 30
0.0
 10
865.0340819119817
 20
-1208.210049642285
 30
0.0
 10
865.3310874377944
 20
-1207.883333552726
 30
0.0
 10
865.8507814248751
 20
-1207.406326792964
 30
0.0
 10
866.3865814004956
 20
-1207.099607785364
 30
0.0
 10
866.9479559640258
 20
-1206.992027021696
 30
0.0
 10
867.5144503758761
 20
-1207.101686778441
 30
0.0
 10
868.0689141143572
 20
-1207.407430499315
 30
0.0
 10
868.6222592384592
 20
-1207.883025998094
 30
0.0
 10
868.9495081828846
 20
-1208.209975148269
 30
0.0
 10
869.1275863237156
 20
-1208.387890150902
 30
0.0
  0
LINE
  5
397
330
1F
100
AcDbEntity
  8
0
  6
SLD-Сплошная
 62
     7
370
    35
100
AcDbLine
 10
705.0
 20
-1206.8322552323
 30
0.0
 11
705.0
 21
-1208.3878901509
 31
0.0
  0
LINE
  5
398
330
1F
100
AcDbEntity
  8
0
  6
SLD-Сплошная
 62
     7
370
    35
100
AcDbLine
 10
-705.0
 20
-1206.8322552323
 30
0.0
 11
-705.0
 21
-1202.4577386319
 31
0.0
  0
LINE
  5
399
330
1F
100
AcDbEntity
  8
0
  6
SLD-Сплошная
 62
     7
370
    35
100
AcDbLine
 10
-887.0
 20
-1202.4577386319
 30
0.0
 11
-887.0
 21
-1206.8322552323
 31
0.0
  0
LINE
  5
39A
330
1F
100
AcDbEntity
  8
0
  6
SLD-Сплошная
 62
     7
370
    35
100
AcDbLine
 10
-297.5
 20
-1188.9577386319
 30
0.0
 11
-302.5
 21
-1188.9577386319
 31
0.0
  0
ARC
  5
39B
330
1F
100
AcDbEntity
  8
0
  6
SLD-Сплошная
 62
     7
370
    35
100
AcDbCircle
 10
-297.5
 20
-1192.4577386319
 30
0.0
 40
3.5
100
AcDbArc
 50
270.0
 51
90.0
  0
LINE
  5
39C
330
1F
100
AcDbEntity
  8
0
  6
SLD-Сплошная
 62
     7
370
    35
100
AcDbLine
 10
-302.5
 20
-1195.9577386319
 30
0.0
 11
-297.5
 21
-1195.9577386319
 31
0.0
  0
ARC
  5
39D
330
1F
100
AcDbEntity
  8
0
  6
SLD-Сплошная
 62
     7
370
    35
100
AcDbCircle
 10
-302.5
 20
-1192.4577386319
 30
0.0
 40
3.5
100
AcDbArc
 50
90.0
 51
270.0
  0
LINE
  5
39E
330
1F
100
AcDbEntity
  8
0
  6
SLD-Сплошная
 62
     7
370
    35
100
AcDbLine
 10
-97.5
 20
-1188.9577386319
 30
0.0
 11
-102.5
 21
-1188.9577386319
 31
0.0
  0
ARC
  5
39F
330
1F
100
AcDbEntity
  8
0
  6
SLD-Сплошная
 62
     7
370
    35
100
AcDbCircle
 10
-97.5
 20
-1192.4577386319
 30
0.0
 40
3.5
100
AcDbArc
 50
270.0
 51
90.0
  0
LINE
  5
3A0
330
1F
100
AcDbEntity
  8
0
  6
SLD-Сплошная
 62
     7
370
    35
100
AcDbLine
 10
-102.5
 20
-1195.9577386319
 30
0.0
 11
-97.5
 21
-1195.9577386319
 31
0.0
  0
ARC
  5
3A1
330
1F
100
AcDbEntity
  8
0
  6
SLD-Сплошная
 62
     7
370
    35
100
AcDbCircle
 10
-102.5
 20
-1192.4577386319
 30
0.0
 40
3.5
100
AcDbArc
 50
90.0
 51
270.0
  0
ARC
  5
3A2
330
1F
100
AcDbEntity
  8
0
  6
SLD-Сплошная
 62
     7
370
    35
100
AcDbCircle
 10
-695.0
 20
-1191.4577386319
 30
0.0
 40
5.000000000000114
100
AcDbArc
 50
90.0
 51
180.0
  0
LINE
  5
3A3
330
1F
100
AcDbEntity
  8
0
  6
SLD-Сплошная
 62
     7
370
    35
100
AcDbLine
 10
-700.0
 20
-1191.4577386319
 30
0.0
 11
-700.0
 21
-1199.2577386319
 31
0.0
  0
LINE
  5
3A4
330
1F
100
AcDbEntity
  8
0
  6
SLD-Сплошная
 62
     7
370
    35
100
AcDbLine
 10
700.0
 20
-1199.2577386319
 30
0.0
 11
700.0
 21
-1191.4577386319
 31
0.0
  0
ARC
  5
3A5
330
1F
100
AcDbEntity
  8
0
  6
SLD-Сплошная
 62
     7
370
    35
100
AcDbCircle
 10
695.0
 20
-1191.4577386319
 30
0.0
 40
4.999999999999886
100
AcDbArc
 50
0.0
 51
90.0
  0
LINE
  5
3A6
330
1F
100
AcDbEntity
  8
0
  6
SLD-Сплошная
 62
     7
370
    35
100
AcDbLine
 10
695.0
 20
-1186.4577386319
 30
0.0
 11
-695.0
 21
-1186.4577386319
 31
0.0
  0
LINE
  5
3A7
330
1F
100
AcDbEntity
  8
0
  6
SLD-Сплошная
 62
     7
370
    35
100
AcDbLine
 10
-497.5
 20
-1188.9577386319
 30
0.0
 11
-502.5
 21
-1188.9577386319
 31
0.0
  0
ARC
  5
3A8
330
1F
100
AcDbEntity
  8
0
  6
SLD-Сплошная
 62
     7
370
    35
100
AcDbCircle
 10
-497.5
 20
-1192.4577386319
 30
0.0
 40
3.5
100
AcDbArc
 50
270.0
 51
90.0
  0
LINE
  5
3A9
330
1F
100
AcDbEntity
  8
0
  6
SLD-Сплошная
 62
     7
370
    35
100
AcDbLine
 10
-502.5
 20
-1195.9577386319
 30
0.0
 11
-497.5
 21
-1195.9577386319
 31
0.0
  0
ARC
  5
3AA
330
1F
100
AcDbEntity
  8
0
  6
SLD-Сплошная
 62
     7
370
    35
100
AcDbCircle
 10
-502.5
 20
-1192.4577386319
 30
0.0
 40
3.5
100
AcDbArc
 50
90.0
 51
270.0
  0
ARC
  5
3AB
330
1F
100
AcDbEntity
  8
0
  6
SLD-Сплошная
 62
     7
370
    35
100
AcDbCircle
 10
497.5
 20
-1192.4577386319
 30
0.0
 40
3.5
100
AcDbArc
 50
90.0
 51
270.0
  0
LINE
  5
3AC
330
1F
100
AcDbEntity
  8
0
  6
SLD-Сплошная
 62
     7
370
    35
100
AcDbLine
 10
497.5
 20
-1188.9577386319
 30
0.0
 11
502.5
 21
-1188.9577386319
 31
0.0
  0
ARC
  5
3AD
330
1F
100
AcDbEntity
  8
0
  6
SLD-Сплошная
 62
     7
370
    35
100
AcDbCircle
 10
502.5
 20
-1192.4577386319
 30
0.0
 40
3.5
100
AcDbArc
 50
270.0
 51
90.0
  0
LINE
  5
3AE
330
1F
100
AcDbEntity
  8
0
  6
SLD-Сплошная
 62
     7
370
    35
100
AcDbLine
 10
502.5
 20
-1195.9577386319
 30
0.0
 11
497.5
 21
-1195.9577386319
 31
0.0
  0
ARC
  5
3AF
330
1F
100
AcDbEntity
  8
0
  6
SLD-Сплошная
 62
     7
370
    35
100
AcDbCircle
 10
297.5
 20
-1192.4577386319
 30
0.0
 40
3.5
100
AcDbArc
 50
90.0
 51
270.0
  0
LINE
  5
3B0
330
1F
100
AcDbEntity
  8
0
  6
SLD-Сплошная
 62
     7
370
    35
100
AcDbLine
 10
297.5
 20
-1188.9577386319
 30
0.0
 11
302.5
 21
-1188.9577386319
 31
0.0
  0
ARC
  5
3B1
330
1F
100
AcDbEntity
  8
0
  6
SLD-Сплошная
 62
     7
370
    35
100
AcDbCircle
 10
302.5
 20
-1192.4577386319
 30
0.0
 40
3.5
100
AcDbArc
 50
270.0
 51
90.0
  0
LINE
  5
3B2
330
1F
100
AcDbEntity
  8
0
  6
SLD-Сплошная
 62
     7
370
    35
100
AcDbLine
 10
302.5
 20
-1195.9577386319
 30
0.0
 11
297.5
 21
-1195.9577386319
 31
0.0
  0
ARC
  5
3B3
330
1F
100
AcDbEntity
  8
0
  6
SLD-Сплошная
 62
     7
370
    35
100
AcDbCircle
 10
97.5
 20
-1192.4577386319
 30
0.0
 40
3.5
100
AcDbArc
 50
90.0
 51
270.0
  0
LINE
  5
3B4
330
1F
100
AcDbEntity
  8
0
  6
SLD-Сплошная
 62
     7
370
    35
100
AcDbLine
 10
97.5
 20
-1188.9577386319
 30
0.0
 11
102.5
 21
-1188.9577386319
 31
0.0
  0
ARC
  5
3B5
330
1F
100
AcDbEntity
  8
0
  6
SLD-Сплошная
 62
     7
370
    35
100
AcDbCircle
 10
102.5
 20
-1192.4577386319
 30
0.0
 40
3.5
100
AcDbArc
 50
270.0
 51
90.0
  0
LINE
  5
3B6
330
1F
100
AcDbEntity
  8
0
  6
SLD-Сплошная
 62
     7
370
    35
100
AcDbLine
 10
102.5
 20
-1195.9577386319
 30
0.0
 11
97.5
 21
-1195.9577386319
 31
0.0
  0
SPLINE
  5
3B7
330
1F
100
AcDbEntity
  8
0
  6
SLD-Сплошная
 62
     7
370
    35
100
AcDbSpline
210
0.0
220
0.0
230
1.0
 70
     8
 71
     3
 72
    15
 73
    11
 74
     0
 42
0.000000001
 43
0.00000001
 40
0.0
 40
0.0
 40
0.0
 40
0.0
 40
0.1546081434543162
 40
0.2840352202989502
 40
0.393733308331658
 40
0.4926684878679071
 40
0.5928369951381228
 40
0.7058429720359665
 40
0.8399293945957836
 40
1.0
 40
1.0
 40
1.0
 40
1.0
 10
-869.1275863237154
 20
-1208.387890150903
 30
0.0
 10
-868.9659180880185
 20
-1208.210049642285
 30
0.0
 10
-868.6689125622061
 20
-1207.883333552727
 30
0.0
 10
-868.1492185751252
 20
-1207.406326792964
 30
0.0
 10
-867.6134185995048
 20
-1207.099607785364
 30
0.0
 10
-867.0520440359745
 20
-1206.992027021695
 30
0.0
 10
-866.485549624124
 20
-1207.101686778441
 30
0.0
 10
-865.9310858856435
 20
-1207.407430499315
 30
0.0
 10
-865.3777407615408
 20
-1207.883025998095
 30
0.0
 10
-865.0504918171149
 20
-1208.209975148269
 30
0.0
 10
-864.8724136762842
 20
-1208.387890150903
 30
0.0
  0
LINE
  5
3B8
330
1F
100
AcDbEntity
  8
0
  6
SLD-Сплошная
 62
     7
370
    35
100
AcDbLine
 10
-705.0
 20
-1208.3878901509
 30
0.0
 11
-705.0
 21
-1206.8322552323
 31
0.0
  0
LINE
  5
3B9
330
1F
100
AcDbEntity
  8
0
  6
SLD-Сплошная
 62
     7
370
    35
100
AcDbLine
 10
-887.0
 20
-1206.8322552323
 30
0.0
 11
-887.0
 21
-1208.3878901509
 31
0.0
  0
LINE
  5
3BA
330
1F
100
AcDbEntity
  8
0
  6
SLD-Сплошная
 62
     7
370
    35
100
AcDbLine
 10
700.0
 20
-1201.4577386319
 30
0.0
 11
700.0
 21
-1199.2577386319
 31
0.0
  0
LINE
  5
3BB
330
1F
100
AcDbEntity
  8
0
  6
SLD-Сплошная
 62
     7
370
    35
100
AcDbLine
 10
-700.0
 20
-1201.4577386319
 30
0.0
 11
700.0
 21
-1201.4577386319
 31
0.0
  0
LINE
  5
3BC
330
1F
100
AcDbEntity
  8
0
  6
SLD-Сплошная
 62
     7
370
    35
100
AcDbLine
 10
-700.0
 20
-1199.2577386319
 30
0.0
 11
-700.0
 21
-1201.4577386319
 31
0.0
  0
LINE
  5
3BD
330
1F
100
AcDbEntity
  8
0
  6
SLD-Сплошная
 62
     7
370
    35
100
AcDbLine
 10
-887.0
 20
-1200.2577386319
 30
0.0
 11
-705.0
 21
-1200.2577386319
 31
0.0
  0
LINE
  5
3BE
330
1F
100
AcDbEntity
  8
0
  6
SLD-Сплошная
 62
     7
370
    35
100
AcDbLine
 10
-887.0
 20
-1200.2577386319
 30
0.0
 11
-887.0
 21
-1202.4577386319
 31
0.0
  0
LINE
  5
3BF
330
1F
100
AcDbEntity
  8
0
  6
SLD-Сплошная
 62
     7
370
    35
100
AcDbLine
 10
-705.0
 20
-1202.4577386319
 30
0.0
 11
-705.0
 21
-1200.2577386319
 31
0.0
  0
ARC
  5
3C0
330
1F
100
AcDbEntity
  8
0
  6
SLD-Сплошная
 62
     7
370
    35
100
AcDbCircle
 10
709.5560692778
 20
-1210.9614125096
 30
0.0
 40
4.927633568712658
100
AcDbArc
 50
205.8943371867
 51
275.168787242
  0
ARC
  5
3C1
330
1F
100
AcDbEntity
  8
0
  6
SLD-Сплошная
 62
     7
370
    35
100
AcDbCircle
 10
709.5560692778
 20
-1210.1128843722
 30
0.0
 40
4.927633568713267
100
AcDbArc
 50
205.8943371867
 51
275.168787242
  0
LINE
  5
3C2
330
1F
100
AcDbEntity
  8
0
  6
SLD-Сплошная
 62
     7
370
    35
100
AcDbLine
 10
705.1231654591
 20
-1212.2648454131
 30
0.0
 11
705.1231654591
 21
-1213.1133735505
 31
0.0
  0
ARC
  5
3C3
330
1F
100
AcDbEntity
  8
0
  6
SLD-Сплошная
 62
     7
370
    35
100
AcDbCircle
 10
882.4439307222
 20
-1210.1128843722
 30
0.0
 40
4.927633568713167
100
AcDbArc
 50
264.831212758
 51
334.1056628133
  0
LINE
  5
3C4
330
1F
100
AcDbEntity
  8
0
  6
SLD-Сплошная
 62
     7
370
    35
100
AcDbLine
 10
882.0
 20
-1215.0204803317
 30
0.0
 11
710.0
 21
-1215.0204803317
 31
0.0
  0
ARC
  5
3C5
330
1F
100
AcDbEntity
  8
0
  6
SLD-Сплошная
 62
     7
370
    35
100
AcDbCircle
 10
882.4439307222
 20
-1210.9614125096
 30
0.0
 40
4.927633568712463
100
AcDbArc
 50
264.831212758
 51
334.1056628133
  0
LINE
  5
3C6
330
1F
100
AcDbEntity
  8
0
  6
SLD-Сплошная
 62
     7
370
    35
100
AcDbLine
 10
886.8768345409
 20
-1213.1133735505
 30
0.0
 11
886.8768345409
 21
-1212.2648454131
 31
0.0
  0
ARC
  5
3C7
330
1F
100
AcDbEntity
  8
0
  6
SLD-Сплошная
 62
     7
370
    35
100
AcDbCircle
 10
-882.4439307222
 20
-1210.9614125096
 30
0.0
 40
4.927633568713272
100
AcDbArc
 50
205.8943371867
 51
275.168787242
  0
ARC
  5
3C8
330
1F
100
AcDbEntity
  8
0
  6
SLD-Сплошная
 62
     7
370
    35
100
AcDbCircle
 10
-882.4439307222
 20
-1210.1128843722
 30
0.0
 40
4.927633568713272
100
AcDbArc
 50
205.8943371867
 51
275.168787242
  0
LINE
  5
3C9
330
1F
100
AcDbEntity
  8
0
  6
SLD-Сплошная
 62
     7
370
    35
100
AcDbLine
 10
-886.8768345409
 20
-1212.2648454131
 30
0.0
 11
-886.8768345409
 21
-1213.1133735505
 31
0.0
  0
ARC
  5
3CA
330
1F
100
AcDbEntity
  8
0
  6
SLD-Сплошная
 62
     7
370
    35
100
AcDbCircle
 10
-709.5560692778
 20
-1210.1128843722
 30
0.0
 40
4.927633568713167
100
AcDbArc
 50
264.831212758
 51
334.1056628133
  0
ARC
  5
3CB
330
1F
100
AcDbEntity
  8
0
  6
SLD-Сплошная
 62
     7
370
    35
100
AcDbCircle
 10
-709.5560692778
 20
-1210.9614125096
 30
0.0
 40
4.927633568712632
100
AcDbArc
 50
264.831212758
 51
334.1056628133
  0
LINE
  5
3CC
330
1F
100
AcDbEntity
  8
0
  6
SLD-Сплошная
 62
     7
370
    35
100
AcDbLine
 10
-705.1231654591
 20
-1213.1133735505
 30
0.0
 11
-705.1231654591
 21
-1212.2648454131
 31
0.0
  0
LINE
  5
3CD
330
1F
100
AcDbEntity
  8
0
  6
SLD-Сплошная
 62
     7
370
    35
100
AcDbLine
 10
-882.0
 20
-1215.0204803317
 30
0.0
 11
-710.0
 21
-1215.0204803317
 31
0.0
  0
LINE
  5
3CE
330
1F
100
AcDbEntity
  8
0
  6
SLD-Сплошная
 62
     7
370
    35
100
AcDbLine
 10
882.0
 20
-1215.8690084691
 30
0.0
 11
710.0
 21
-1215.8690084691
 31
0.0
  0
LINE
  5
3CF
330
1F
100
AcDbEntity
  8
0
  6
SLD-Сплошная
 62
     7
370
    35
100
AcDbLine
 10
-882.0
 20
-1215.8690084691
 30
0.0
 11
-710.0
 21
-1215.8690084691
 31
0.0
  0
ARC
  5
3D0
330
1F
100
AcDbEntity
  8
0
  6
SLD-Сплошная
 62
     7
370
    35
100
AcDbCircle
 10
868.1929139273
 20
-1209.6198547917
 30
0.0
 40
1.546398837499559
100
AcDbArc
 50
307.2597629339
 51
52.8129754466
  0
ARC
  5
3D1
330
1F
100
AcDbEntity
  8
0
  6
SLD-Сплошная
 62
     7
370
    35
100
AcDbCircle
 10
867.9937387435
 20
-1208.6273412913
 30
0.0
 40
1.783011352242235
100
AcDbArc
 50
309.5531654696
 51
341.4127788049
  0
LINE
  5
3D2
330
1F
100
AcDbEntity
  8
0
  6
SLD-Сплошная
 62
     7
370
    35
100
AcDbLine
 10
869.1291495791
 20
-1210.0021037133
 30
0.0
 11
869.1291495791
 21
-1210.8506318507
 31
0.0
  0
LINE
  5
3D3
330
1F
100
AcDbEntity
  8
0
  6
SLD-Сплошная
 62
     7
370
    35
100
AcDbLine
 10
705.0
 20
-1210.8506318507
 30
0.0
 11
705.0
 21
-1208.3878901509
 31
0.0
  0
ARC
  5
3D4
330
1F
100
AcDbEntity
  8
0
  6
SLD-Сплошная
 62
     7
370
    35
100
AcDbCircle
 10
865.8070860727
 20
-1209.6198547917
 30
0.0
 40
1.546398837499495
100
AcDbArc
 50
127.1870245534
 51
232.7402370661
  0
ARC
  5
3D5
330
1F
100
AcDbEntity
  8
0
  6
SLD-Сплошная
 62
     7
370
    35
100
AcDbCircle
 10
-867.9937387415
 20
-1208.6273412895
 30
0.0
 40
1.783011354970474
100
AcDbArc
 50
198.5872215547
 51
230.4468345166
  0
ARC
  5
3D6
330
1F
100
AcDbEntity
  8
0
  6
SLD-Сплошная
 62
     7
370
    35
100
AcDbCircle
 10
-868.1929139273
 20
-1209.6198547917
 30
0.0
 40
1.54639883749909
100
AcDbArc
 50
127.1870245534
 51
232.7402370661
  0
LINE
  5
3D7
330
1F
100
AcDbEntity
  8
0
  6
SLD-Сплошная
 62
     7
370
    35
100
AcDbLine
 10
-869.1291495791
 20
-1210.8506318507
 30
0.0
 11
-869.1291495791
 21
-1210.0021037133
 31
0.0
  0
ARC
  5
3D8
330
1F
100
AcDbEntity
  8
0
  6
SLD-Сплошная
 62
     7
370
    35
100
AcDbCircle
 10
866.0062612564
 20
-1208.6273412913
 30
0.0
 40
1.783011352213682
100
AcDbArc
 50
198.5872211912
 51
230.4468345306
  0
LINE
  5
3D9
330
1F
100
AcDbEntity
  8
0
  6
SLD-Сплошная
 62
     7
370
    35
100
AcDbLine
 10
864.8708504209
 20
-1210.8506318507
 30
0.0
 11
864.8708504209
 21
-1210.0021037133
 31
0.0
  0
LINE
  5
3DA
330
1F
100
AcDbEntity
  8
0
  6
SLD-Сплошная
 62
     7
370
    35
100
AcDbLine
 10
887.0
 20
-1210.8506318507
 30
0.0
 11
887.0
 21
-1208.3878901509
 31
0.0
  0
ARC
  5
3DB
330
1F
100
AcDbEntity
  8
0
  6
SLD-Сплошная
 62
     7
370
    35
100
AcDbCircle
 10
-865.8070860727
 20
-1209.6198547917
 30
0.0
 40
1.546398837499189
100
AcDbArc
 50
307.2597629339
 51
52.8129754466
  0
ARC
  5
3DC
330
1F
100
AcDbEntity
  8
0
  6
SLD-Сплошная
 62
     7
370
    35
100
AcDbCircle
 10
-866.0062612584
 20
-1208.6273412896
 30
0.0
 40
1.783011354836175
100
AcDbArc
 50
309.5531654827
 51
341.412778464
  0
LINE
  5
3DD
330
1F
100
AcDbEntity
  8
0
  6
SLD-Сплошная
 62
     7
370
    35
100
AcDbLine
 10
-864.8708504209
 20
-1210.0021037133
 30
0.0
 11
-864.8708504209
 21
-1210.8506318507
 31
0.0
  0
LINE
  5
3DE
330
1F
100
AcDbEntity
  8
0
  6
SLD-Сплошная
 62
     7
370
    35
100
AcDbLine
 10
-705.0
 20
-1210.8506318507
 30
0.0
 11
-705.0
 21
-1208.3878901509
 31
0.0
  0
LINE
  5
3DF
330
1F
100
AcDbEntity
  8
0
  6
SLD-Сплошная
 62
     7
370
    35
100
AcDbLine
 10
-887.0
 20
-1208.3878901509
 30
0.0
 11
-887.0
 21
-1210.8506318507
 31
0.0
  0
LINE
  5
3E0
330
1F
100
AcDbEntity
  8
0
  6
SLD-Сплошная
 62
     7
370
    35
100
AcDbLine
 10
-700.0
 20
-1200.2577386319
 30
0.0
 11
-705.0
 21
-1200.2577386319
 31
0.0
  0
LINE
  5
3E1
330
1F
100
AcDbEntity
  8
0
  6
SLD-Сплошная
 62
     7
370
    35
100
AcDbLine
 10
-700.0
 20
-1201.4577386319
 30
0.0
 11
-705.0
 21
-1201.4577386319
 31
0.0
  0
LINE
  5
3E2
330
1F
100
AcDbEntity
  8
0
  6
SLD-Сплошная
 62
     7
370
    35
100
AcDbLine
 10
917.0
 20
-1201.4577386319
 30
0.0
 11
917.0
 21
-1200.2577386319
 31
0.0
  0
LINE
  5
3E3
330
1F
100
AcDbEntity
  8
0
  6
SLD-Сплошная
 62
     7
370
    35
100
AcDbLine
 10
917.0
 20
-1200.2577386319
 30
0.0
 11
912.0
 21
-1200.2577386319
 31
0.0
  0
LINE
  5
3E4
330
1F
100
AcDbEntity
  8
0
  6
SLD-Сплошная
 62
     7
370
    35
100
AcDbLine
 10
912.0
 20
-1201.4577386319
 30
0.0
 11
917.0
 21
-1201.4577386319
 31
0.0
  0
LINE
  5
3E5
330
1F
100
AcDbEntity
  8
0
  6
SLD-Сплошная
 62
     7
370
    35
100
AcDbLine
 10
912.0
 20
-1200.2577386319
 30
0.0
 11
887.0
 21
-1200.2577386319
 31
0.0
  0
LINE
  5
3E6
330
1F
100
AcDbEntity
  8
0
  6
SLD-Сплошная
 62
     7
370
    35
100
AcDbLine
 10
912.0
 20
-1201.4577386319
 30
0.0
 11
887.0
 21
-1201.4577386319
 31
0.0
  0
LINE
  5
3E7
330
1F
100
AcDbEntity
  8
0
  6
SLD-Сплошная
 62
     7
370
    35
100
AcDbLine
 10
-912.0
 20
-1200.2577386319
 30
0.0
 11
-887.0
 21
-1200.2577386319
 31
0.0
  0
LINE
  5
3E8
330
1F
100
AcDbEntity
  8
0
  6
SLD-Сплошная
 62
     7
370
    35
100
AcDbLine
 10
-912.0
 20
-1201.4577386319
 30
0.0
 11
-887.0
 21
-1201.4577386319
 31
0.0
  0
LINE
  5
3E9
330
1F
100
AcDbEntity
  8
0
  6
SLD-Сплошная
 62
     7
370
    35
100
AcDbLine
 10
-917.0
 20
-1200.2577386319
 30
0.0
 11
-917.0
 21
-1201.4577386319
 31
0.0
  0
LINE
  5
3EA
330
1F
100
AcDbEntity
  8
0
  6
SLD-Сплошная
 62
     7
370
    35
100
AcDbLine
 10
-912.0
 20
-1200.2577386319
 30
0.0
 11
-917.0
 21
-1200.2577386319
 31
0.0
  0
LINE
  5
3EB
330
1F
100
AcDbEntity
  8
0
  6
SLD-Сплошная
 62
     7
370
    35
100
AcDbLine
 10
-917.0
 20
-1201.4577386319
 30
0.0
 11
-912.0
 21
-1201.4577386319
 31
0.0
  0
LINE
  5
3EC
330
1F
100
AcDbEntity
  8
0
  6
SLD-Сплошная
 62
     7
370
    35
100
AcDbLine
 10
705.0
 20
-1200.2577386319
 30
0.0
 11
700.0
 21
-1200.2577386319
 31
0.0
  0
LINE
  5
3ED
330
1F
100
AcDbEntity
  8
0
  6
SLD-Сплошная
 62
     7
370
    35
100
AcDbLine
 10
705.0
 20
-1201.4577386319
 30
0.0
 11
700.0
 21
-1201.4577386319
 31
0.0
  0
SPLINE
  5
3EE
330
1F
100
AcDbEntity
  8
0
  6
SLD-Сплошная
 62
     7
370
    35
100
AcDbSpline
210
0.0
220
0.0
230
1.0
 70
     8
 71
     3
 72
     9
 73
     5
 74
     0
 42
0.000000001
 43
0.00000001
 40
0.0
 40
0.0
 40
0.0
 40
0.0
 40
0.5000000000000282
 40
1.0
 40
1.0
 40
1.0
 40
1.0
 10
886.8768345408829
 20
-1213.113373550494
 30
0.0
 10
886.8973621174023
 20
-1212.902911276453
 30
0.0
 10
886.9384172704415
 20
-1212.481986728372
 30
0.0
 10
886.9794724234807
 20
-1211.942138466455
 30
0.0
 10
887.0
 20
-1211.672214335497
 30
0.0
  0
SPLINE
  5
3EF
330
1F
100
AcDbEntity
  8
0
  6
SLD-Сплошная
 62
     7
370
    35
100
AcDbSpline
210
0.0
220
0.0
230
1.0
 70
     8
 71
     3
 72
     9
 73
     5
 74
     0
 42
0.000000001
 43
0.00000001
 40
0.0
 40
0.0
 40
0.0
 40
0.0
 40
0.5000000000000218
 40
1.0
 40
1.0
 40
1.0
 40
1.0
 10
886.8768345408829
 20
-1212.26484541307
 30
0.0
 10
886.8973621174025
 20
-1212.169180743052
 30
0.0
 10
886.9384172704417
 20
-1211.977851403015
 30
0.0
 10
886.9794724234803
 20
-1211.732465829416
 30
0.0
 10
887.0
 20
-1211.609773042617
 30
0.0
  0
LINE
  5
3F0
330
1F
100
AcDbEntity
  8
0
  6
SLD-Сплошная
 62
     7
370
    35
100
AcDbLine
 10
705.0
 20
-1210.8506318507
 30
0.0
 11
705.0
 21
-1211.6097730426
 31
0.0
  0
SPLINE
  5
3F1
330
1F
100
AcDbEntity
  8
0
  6
SLD-Сплошная
 62
     7
370
    35
100
AcDbSpline
210
0.0
220
0.0
230
1.0
 70
     8
 71
     3
 72
     9
 73
     5
 74
     0
 42
0.000000001
 43
0.00000001
 40
0.0
 40
0.0
 40
0.0
 40
0.0
 40
0.5000000000000312
 40
1.0
 40
1.0
 40
1.0
 40
1.0
 10
704.9999999999999
 20
-1211.609773042617
 30
0.0
 10
705.0205275765194
 20
-1211.732465829416
 30
0.0
 10
705.0615827295587
 20
-1211.977851403015
 30
0.0
 10
705.1026378825977
 20
-1212.169180743052
 30
0.0
 10
705.123165459117
 20
-1212.26484541307
 30
0.0
  0
LINE
  5
3F2
330
1F
100
AcDbEntity
  8
0
  6
SLD-Сплошная
 62
     7
370
    35
100
AcDbLine
 10
887.0
 20
-1211.6097730426
 30
0.0
 11
887.0
 21
-1210.8506318507
 31
0.0
  0
SPLINE
  5
3F3
330
1F
100
AcDbEntity
  8
0
  6
SLD-Сплошная
 62
     7
370
    35
100
AcDbSpline
210
0.0
220
0.0
230
1.0
 70
     8
 71
     3
 72
    11
 73
     7
 74
     0
 42
0.000000001
 43
0.00000001
 40
0.0
 40
0.0
 40
0.0
 40
0.0
 40
0.2476695311052234
 40
0.4998277937302004
 40
0.7446021013264866
 40
1.0
 40
1.0
 40
1.0
 40
1.0
 10
869.1291495790592
 20
-1210.850631850697
 30
0.0
 10
868.8039946679937
 20
-1211.010219294469
 30
0.0
 10
868.1477917790348
 20
-1211.332286524828
 30
0.0
 10
867.0126047284031
 20
-1211.500466168512
 30
0.0
 10
865.8705234830686
 20
-1211.325091799423
 30
0.0
 10
865.2087600308606
 20
-1211.011008860211
 30
0.0
 10
864.8708504209419
 20
-1210.850631850697
 30
0.0
  0
SPLINE
  5
3F4
330
1F
100
AcDbEntity
  8
0
  6
SLD-Сплошная
 62
     7
370
    35
100
AcDbSpline
210
0.0
220
0.0
230
1.0
 70
     8
 71
     3
 72
     9
 73
     5
 74
     0
 42
0.000000001
 43
0.00000001
 40
0.0
 40
0.0
 40
0.0
 40
0.0
 40
0.4999999999999832
 40
1.0
 40
1.0
 40
1.0
 40
1.0
 10
704.9999999999999
 20
-1211.672214335497
 30
0.0
 10
705.0205275765194
 20
-1211.942138466455
 30
0.0
 10
705.0615827295585
 20
-1212.481986728372
 30
0.0
 10
705.1026378825975
 20
-1212.902911276453
 30
0.0
 10
705.123165459117
 20
-1213.113373550494
 30
0.0
  0
SPLINE
  5
3F5
330
1F
100
AcDbEntity
  8
0
  6
SLD-Сплошная
 62
     7
370
    35
100
AcDbSpline
210
0.0
220
0.0
230
1.0
 70
     8
 71
     3
 72
    15
 73
    11
 74
     0
 42
0.000000001
 43
0.00000001
 40
0.0
 40
0.0
 40
0.0
 40
0.0
 40
0.1493602607961659
 40
0.2777329983852341
 40
0.3916592779308058
 40
0.500468875289
 40
0.6044785831447118
 40
0.7170072555597968
 40
0.8469247013847546
 40
1.0
 40
1.0
 40
1.0
 40
1.0
 10
869.129149579059
 20
-1210.002103713273
 30
0.0
 10
868.9758477030982
 20
-1210.173049299418
 30
0.0
 10
868.6907853348238
 20
-1210.490919862497
 30
0.0
 10
868.1653944956031
 20
-1210.948743476662
 30
0.0
 10
867.5998749342144
 20
-1211.239203472022
 30
0.0
 10
867.0108972295907
 20
-1211.338124311763
 30
0.0
 10
866.4240509156349
 20
-1211.241477600991
 30
0.0
 10
865.8688231077018
 20
-1210.948940367497
 30
0.0
 10
865.3358142245893
 20
-1210.491438874461
 30
0.0
 10
865.034069153023
 20
-1210.173877653406
 30
0.0
 10
864.8708504209419
 20
-1210.002103713273
 30
0.0
  0
SPLINE
  5
3F6
330
1F
100
AcDbEntity
  8
0
  6
SLD-Сплошная
 62
     7
370
    35
100
AcDbSpline
210
0.0
220
0.0
230
1.0
 70
     8
 71
     3
 72
     9
 73
     5
 74
     0
 42
0.000000001
 43
0.00000001
 40
0.0
 40
0.0
 40
0.0
 40
0.0
 40
0.4999999999999836
 40
1.0
 40
1.0
 40
1.0
 40
1.0
 10
-886.9999999999998
 20
-1211.609773042618
 30
0.0
 10
-886.9794724234803
 20
-1211.732465829417
 30
0.0
 10
-886.9384172704412
 20
-1211.977851403015
 30
0.0
 10
-886.8973621174022
 20
-1212.169180743052
 30
0.0
 10
-886.8768345408827
 20
-1212.264845413071
 30
0.0
  0
SPLINE
  5
3F7
330
1F
100
AcDbEntity
  8
0
  6
SLD-Сплошная
 62
     7
370
    35
100
AcDbSpline
210
0.0
220
0.0
230
1.0
 70
     8
 71
     3
 72
     9
 73
     5
 74
     0
 42
0.000000001
 43
0.00000001
 40
0.0
 40
0.0
 40
0.0
 40
0.0
 40
0.5000000000000164
 40
1.0
 40
1.0
 40
1.0
 40
1.0
 10
-705.123165459117
 20
-1212.264845413071
 30
0.0
 10
-705.1026378825975
 20
-1212.169180743052
 30
0.0
 10
-705.0615827295583
 20
-1211.977851403015
 30
0.0
 10
-705.0205275765192
 20
-1211.732465829417
 30
0.0
 10
-704.9999999999997
 20
-1211.609773042618
 30
0.0
  0
LINE
  5
3F8
330
1F
100
AcDbEntity
  8
0
  6
SLD-Сплошная
 62
     7
370
    35
100
AcDbLine
 10
-705.0
 20
-1211.6097730426
 30
0.0
 11
-705.0
 21
-1210.8506318507
 31
0.0
  0
SPLINE
  5
3F9
330
1F
100
AcDbEntity
  8
0
  6
SLD-Сплошная
 62
     7
370
    35
100
AcDbSpline
210
0.0
220
0.0
230
1.0
 70
     8
 71
     3
 72
    11
 73
     7
 74
     0
 42
0.000000001
 43
0.00000001
 40
0.0
 40
0.0
 40
0.0
 40
0.0
 40
0.2476695311010556
 40
0.4998277937298909
 40
0.7446021013224526
 40
1.0
 40
1.0
 40
1.0
 40
1.0
 10
-864.8708504209417
 20
-1210.850631850698
 30
0.0
 10
-865.1960053320022
 20
-1211.010219294464
 30
0.0
 10
-865.8522082209619
 20
-1211.332286524818
 30
0.0
 10
-866.9873952715855
 20
-1211.500466168512
 30
0.0
 10
-868.1294765169271
 20
-1211.325091799432
 30
0.0
 10
-868.7912399691344
 20
-1211.011008860217
 30
0.0
 10
-869.1291495790579
 20
-1210.850631850698
 30
0.0
  0
LINE
  5
3FA
330
1F
100
AcDbEntity
  8
0
  6
SLD-Сплошная
 62
     7
370
    35
100
AcDbLine
 10
-887.0
 20
-1210.8506318507
 30
0.0
 11
-887.0
 21
-1211.6097730426
 31
0.0
  0
SPLINE
  5
3FB
330
1F
100
AcDbEntity
  8
0
  6
SLD-Сплошная
 62
     7
370
    35
100
AcDbSpline
210
0.0
220
0.0
230
1.0
 70
     8
 71
     3
 72
     9
 73
     5
 74
     0
 42
0.000000001
 43
0.00000001
 40
0.0
 40
0.0
 40
0.0
 40
0.0
 40
0.5000000000000037
 40
1.0
 40
1.0
 40
1.0
 40
1.0
 10
-705.123165459117
 20
-1213.113373550495
 30
0.0
 10
-705.1026378825973
 20
-1212.902911276454
 30
0.0
 10
-705.0615827295583
 20
-1212.481986728373
 30
0.0
 10
-705.0205275765193
 20
-1211.942138466457
 30
0.0
 10
-704.9999999999997
 20
-1211.672214335498
 30
0.0
  0
SPLINE
  5
3FC
330
1F
100
AcDbEntity
  8
0
  6
SLD-Сплошная
 62
     7
370
    35
100
AcDbSpline
210
0.0
220
0.0
230
1.0
 70
     8
 71
     3
 72
    15
 73
    11
 74
     0
 42
0.000000001
 43
0.00000001
 40
0.0
 40
0.0
 40
0.0
 40
0.0
 40
0.1493602607922086
 40
0.2777329983800051
 40
0.3916592779267791
 40
0.5004688752876965
 40
0.6044785831408107
 40
0.7170072555547811
 40
0.8469247013810033
 40
1.0
 40
1.0
 40
1.0
 40
1.0
 10
-864.8708504209417
 20
-1210.002103713274
 30
0.0
 10
-865.0241522968987
 20
-1210.173049299414
 30
0.0
 10
-865.3092146651684
 20
-1210.490919862485
 30
0.0
 10
-865.8346055043862
 20
-1210.94874347664
 30
0.0
 10
-866.4001250657774
 20
-1211.239203472001
 30
0.0
 10
-866.9891027703989
 20
-1211.338124311762
 30
0.0
 10
-867.5759490843567
 20
-1211.24147760101
 30
0.0
 10
-868.1311768922868
 20
-1210.948940367516
 30
0.0
 10
-868.6641857754025
 20
-1210.491438874473
 30
0.0
 10
-868.9659308469733
 20
-1210.173877653411
 30
0.0
 10
-869.1291495790579
 20
-1210.002103713274
 30
0.0
  0
SPLINE
  5
3FD
330
1F
100
AcDbEntity
  8
0
  6
SLD-Сплошная
 62
     7
370
    35
100
AcDbSpline
210
0.0
220
0.0
230
1.0
 70
     8
 71
     3
 72
     9
 73
     5
 74
     0
 42
0.000000001
 43
0.00000001
 40
0.0
 40
0.0
 40
0.0
 40
0.0
 40
0.4999999999999964
 40
1.0
 40
1.0
 40
1.0
 40
1.0
 10
-886.9999999999998
 20
-1211.672214335498
 30
0.0
 10
-886.9794724234803
 20
-1211.942138466457
 30
0.0
 10
-886.9384172704413
 20
-1212.481986728373
 30
0.0
 10
-886.8973621174022
 20
-1212.902911276454
 30
0.0
 10
-886.8768345408827
 20
-1213.113373550495
 30
0.0
  0
LINE
  5
3FE
330
1F
100
AcDbEntity
  8
0
  6
SLD-Сплошная
 62
     7
370
    35
100
AcDbLine
 10
895.0
 20
-1199.2577386319
 30
0.0
 11
909.0
 21
-1199.2577386319
 31
0.0
  0
LINE
  5
3FF
330
1F
100
AcDbEntity
  8
0
  6
SLD-Сплошная
 62
     7
370
    35
100
AcDbLine
 10
-895.0
 20
-1199.2577386319
 30
0.0
 11
-909.0
 21
-1199.2577386319
 31
0.0
  0
LINE
  5
400
330
1F
100
AcDbEntity
  8
0
  6
SLD-Сплошная
 62
     7
370
    35
100
AcDbLine
 10
898.75
 20
-1202.057738632
 30
0.0
 11
905.25
 21
-1202.057738632
 31
0.0
  0
LINE
  5
401
330
1F
100
AcDbEntity
  8
0
  6
SLD-Сплошная
 62
     7
370
    35
100
AcDbLine
 10
-905.25
 20
-1202.057738632
 30
0.0
 11
-898.75
 21
-1202.057738632
 31
0.0
  0
ENDSEC
  0
SECTION
  2
OBJECTS
  0
DICTIONARY
  5
C
330
0
100
AcDbDictionary
281
     1
  3
ACAD_DETAILVIEWSTYLE
350
409
  3
ACAD_GROUP
350
D
  3
ACAD_LAYOUT
350
1A
  3
ACAD_MATERIAL
350
43
  3
ACAD_MLEADERSTYLE
350
6B
  3
ACAD_MLINESTYLE
350
17
  3
ACAD_PLOTSETTINGS
350
19
  3
ACAD_PLOTSTYLENAME
350
E
  3
ACAD_SCALELIST
350
47
  3
ACAD_SECTIONVIEWSTYLE
350
40A
  3
ACAD_TABLESTYLE
350
69
  3
ACAD_VISUALSTYLE
350
2A
  3
ACDB_RECOMPOSE_DATA
350
406
  3
AcDbVariableDictionary
350
402
  0
SUN
  5
6D
330
29
100
AcDbSun
 90
        1
290
     0
 63
     7
421
 16777215
 40
1.0
291
     1
 91
  2455826
 92
 54000000
292
     0
 70
     2
 71
   256
280
     1
  0
DICTIONARY
  5
409
102
{ACAD_REACTORS
330
C
102
}
330
C
100
AcDbDictionary
281
     1
  0
DICTIONARY
  5
D
102
{ACAD_REACTORS
330
C
102
}
330
C
100
AcDbDictionary
281
     1
  0
DICTIONARY
  5
1A
102
{ACAD_REACTORS
330
C
102
}
330
C
100
AcDbDictionary
281
     1
  3
Layout1
350
1E
  3
Layout2
350
26
  3
Model
350
22
  0
DICTIONARY
  5
43
102
{ACAD_REACTORS
330
C
102
}
330
C
100
AcDbDictionary
281
     1
  3
ByBlock
350
45
  3
ByLayer
350
44
  3
Global
350
46
  0
DICTIONARY
  5
6B
102
{ACAD_REACTORS
330
C
102
}
330
C
100
AcDbDictionary
281
     1
  3
Standard
350
6C
  0
DICTIONARY
  5
17
102
{ACAD_REACTORS
330
C
102
}
330
C
100
AcDbDictionary
281
     1
  3
Standard
350
18
  0
DICTIONARY
  5
19
102
{ACAD_REACTORS
330
C
102
}
330
C
100
AcDbDictionary
281
     1
  0
ACDBDICTIONARYWDFLT
  5
E
102
{ACAD_REACTORS
330
C
102
}
330
C
100
AcDbDictionary
281
     1
  3
Normal
350
F
100
AcDbDictionaryWithDefault
340
F
  0
DICTIONARY
  5
47
102
{ACAD_REACTORS
330
C
102
}
330
C
100
AcDbDictionary
281
     1
  3
A0
350
48
  3
A1
350
49
  3
A2
350
4A
  3
A3
350
4B
  3
A4
350
4C
  3
A5
350
4D
  3
A6
350
4E
  3
A7
350
4F
  3
A8
350
50
  3
A9
350
51
  3
B0
350
52
  3
B1
350
53
  3
B2
350
54
  3
B3
350
55
  3
B4
350
56
  3
B5
350
57
  3
B6
350
58
  3
B7
350
59
  3
B8
350
5A
  3
B9
350
5B
  3
C0
350
5C
  3
C1
350
5D
  3
C2
350
5E
  3
C3
350
5F
  3
C4
350
60
  3
C5
350
61
  3
C6
350
62
  3
C7
350
63
  3
C8
350
64
  3
C9
350
65
  3
D0
350
66
  3
D1
350
67
  3
D2
350
68
  0
DICTIONARY
  5
40A
102
{ACAD_REACTORS
330
C
102
}
330
C
100
AcDbDictionary
281
     1
  0
DICTIONARY
  5
69
102
{ACAD_REACTORS
330
C
102
}
330
C
100
AcDbDictionary
281
     1
  3
Standard
350
6A
  0
DICTIONARY
  5
2A
102
{ACAD_REACTORS
330
C
102
}
330
C
100
AcDbDictionary
281
     1
  3
2dWireframe
350
2F
  3
Basic
350
32
  3
Brighten
350
36
  3
ColorChange
350
3A
  3
Conceptual
350
34
  3
Dim
350
35
  3
EdgeColorOff
350
3D
  3
Facepattern
350
39
  3
Flat
350
2B
  3
FlatWithEdges
350
2C
  3
Gouraud
350
2D
  3
GouraudWithEdges
350
2E
  3
Hidden
350
31
  3
JitterOff
350
3B
  3
Linepattern
350
38
  3
OverhangOff
350
3C
  3
Realistic
350
33
  3
Shaded
350
42
  3
Shaded with edges
350
41
  3
Shades of Gray
350
3E
  3
Sketchy
350
3F
  3
Thicken
350
37
  3
Wireframe
350
30
  3
X-Ray
350
40
  0
XRECORD
  5
406
102
{ACAD_REACTORS
330
C
102
}
330
C
100
AcDbXrecord
280
     1
 90
        1
330
6A
  0
DICTIONARY
  5
402
102
{ACAD_REACTORS
330
C
102
}
330
C
100
AcDbDictionary
281
     1
  3
CANNOSCALE
350
403
  3
CMLEADERSTYLE
350
408
  3
CTABLESTYLE
350
407
  0
LAYOUT
  5
1E
102
{ACAD_REACTORS
330
1A
102
}
330
1A
100
AcDbPlotSettings
  1

  2
none_device
  4

  6

 40
0.0
 41
0.0
 42
0.0
 43
0.0
 44
0.0
 45
0.0
 46
0.0
 47
0.0
 48
0.0
 49
0.0
140
0.0
141
0.0
142
1.0
143
1.0
 70
   688
 72
     1
 73
     0
 74
     5
  7

 75
    16
 76
     0
 77
     2
 78
   300
147
1.0
148
0.0
149
0.0
100
AcDbLayout
  1
Layout1
 70
     1
 71
     1
 10
0.0
 20
0.0
 11
420.0
 21
297.0
 12
0.0
 22
0.0
 32
0.0
 14
1.0000000000E+20
 24
1.0000000000E+20
 34
1.0000000000E+20
 15
-1.0000000000E+20
 25
-1.0000000000E+20
 35
-1.0000000000E+20
146
0.0
 13
0.0
 23
0.0
 33
0.0
 16
1.0
 26
0.0
 36
0.0
 17
0.0
 27
1.0
 37
0.0
 76
     0
330
1B
  0
LAYOUT
  5
26
102
{ACAD_REACTORS
330
1A
102
}
330
1A
100
AcDbPlotSettings
  1

  2
none_device
  4

  6

 40
0.0
 41
0.0
 42
0.0
 43
0.0
 44
0.0
 45
0.0
 46
0.0
 47
0.0
 48
0.0
 49
0.0
140
0.0
141
0.0
142
1.0
143
1.0
 70
   688
 72
     1
 73
     0
 74
     5
  7

 75
    16
 76
     0
 77
     2
 78
   300
147
1.0
148
0.0
149
0.0
100
AcDbLayout
  1
Layout2
 70
     1
 71
     2
 10
0.0
 20
0.0
 11
0.0
 21
0.0
 12
0.0
 22
0.0
 32
0.0
 14
0.0
 24
0.0
 34
0.0
 15
0.0
 25
0.0
 35
0.0
146
0.0
 13
0.0
 23
0.0
 33
0.0
 16
1.0
 26
0.0
 36
0.0
 17
0.0
 27
1.0
 37
0.0
 76
     0
330
23
  0
LAYOUT
  5
22
102
{ACAD_REACTORS
330
1A
102
}
330
1A
100
AcDbPlotSettings
  1

  2
none_device
  4
Letter_(8.50_x_11.00_Inches)
  6

 40
6.35
 41
6.35
 42
6.35000508
 43
6.35000508
 44
215.9
 45
279.4
 46
0.0
 47
0.0
 48
0.0
 49
0.0
140
0.0
141
0.0
142
1.0
143
1.0
 70
  1712
 72
     1
 73
     0
 74
     0
  7

 75
     0
 76
     0
 77
     2
 78
   300
147
1.0
148
0.0
149
0.0
100
AcDbLayout
  1
Model
 70
     1
 71
     0
 10
0.0
 20
0.0
 11
1420.0
 21
1297.0
 12
0.0
 22
0.0
 32
0.0
 14
0.0
 24
0.0
 34
0.0
 15
1420.0
 25
1297.0
 35
0.0
146
0.0
 13
0.0
 23
0.0
 33
0.0
 16
1.0
 26
0.0
 36
0.0
 17
0.0
 27
1.0
 37
0.0
 76
     0
330
1F
331
29
  0
MATERIAL
  5
45
102
{ACAD_REACTORS
330
43
102
}
330
43
100
AcDbMaterial
  1
ByBlock
 72
     1
 94
      127
  0
MATERIAL
  5
44
102
{ACAD_REACTORS
330
43
102
}
330
43
100
AcDbMaterial
  1
ByLayer
 72
     1
 94
      127
  0
MATERIAL
  5
46
102
{ACAD_REACTORS
330
43
102
}
330
43
100
AcDbMaterial
  1
Global
 72
     1
 94
      127
  0
MLEADERSTYLE
  5
6C
102
{ACAD_REACTORS
330
6B
102
}
330
6B
100
AcDbMLeaderStyle
179
     2
170
     2
171
     1
172
     0
 90
        2
 40
0.0
 41
0.0
173
     1
 91
-1056964608
340
14
 92
       -2
290
     1
 42
2.0
291
     1
 43
8.0
  3
Standard
341
0
 44
4.0
300

342
11
174
     1
178
     6
175
     1
176
     0
 93
-1056964608
 45
4.0
292
     0
297
     0
 46
4.0
343
0
 94
-1056964608
 47
1.0
 49
1.0
140
1.0
293
     1
141
0.0
294
     1
177
     0
142
1.0
295
     0
296
     0
143
3.75
271
     0
272
     9
273
     9
298
     0
  0
MLINESTYLE
  5
18
102
{ACAD_REACTORS
330
17
102
}
330
17
100
AcDbMlineStyle
  2
Standard
 70
     0
  3

 62
   256
 51
90.0
 52
90.0
 71
     2
 49
0.5
 62
   256
  6
BYLAYER
 49
-0.5
 62
   256
  6
BYLAYER
  0
ACDBPLACEHOLDER
  5
F
102
{ACAD_REACTORS
330
E
102
}
330
E
  0
SCALE
  5
48
102
{ACAD_REACTORS
330
47
102
}
330
47
100
AcDbScale
 70
     0
300
1:1
140
1.0
141
1.0
290
     1
  0
SCALE
  5
49
102
{ACAD_REACTORS
330
47
102
}
330
47
100
AcDbScale
 70
     0
300
1:2
140
1.0
141
2.0
290
     0
  0
SCALE
  5
4A
102
{ACAD_REACTORS
330
47
102
}
330
47
100
AcDbScale
 70
     0
300
1:4
140
1.0
141
4.0
290
     0
  0
SCALE
  5
4B
102
{ACAD_REACTORS
330
47
102
}
330
47
100
AcDbScale
 70
     0
300
1:5
140
1.0
141
5.0
290
     0
  0
SCALE
  5
4C
102
{ACAD_REACTORS
330
47
102
}
330
47
100
AcDbScale
 70
     0
300
1:8
140
1.0
141
8.0
290
     0
  0
SCALE
  5
4D
102
{ACAD_REACTORS
330
47
102
}
330
47
100
AcDbScale
 70
     0
300
1:10
140
1.0
141
10.0
290
     0
  0
SCALE
  5
4E
102
{ACAD_REACTORS
330
47
102
}
330
47
100
AcDbScale
 70
     0
300
1:16
140
1.0
141
16.0
290
     0
  0
SCALE
  5
4F
102
{ACAD_REACTORS
330
47
102
}
330
47
100
AcDbScale
 70
     0
300
1:20
140
1.0
141
20.0
290
     0
  0
SCALE
  5
50
102
{ACAD_REACTORS
330
47
102
}
330
47
100
AcDbScale
 70
     0
300
1:30
140
1.0
141
30.0
290
     0
  0
SCALE
  5
51
102
{ACAD_REACTORS
330
47
102
}
330
47
100
AcDbScale
 70
     0
300
1:40
140
1.0
141
40.0
290
     0
  0
SCALE
  5
52
102
{ACAD_REACTORS
330
47
102
}
330
47
100
AcDbScale
 70
     0
300
1:50
140
1.0
141
50.0
290
     0
  0
SCALE
  5
53
102
{ACAD_REACTORS
330
47
102
}
330
47
100
AcDbScale
 70
     0
300
1:100
140
1.0
141
100.0
290
     0
  0
SCALE
  5
54
102
{ACAD_REACTORS
330
47
102
}
330
47
100
AcDbScale
 70
     0
300
2:1
140
2.0
141
1.0
290
     0
  0
SCALE
  5
55
102
{ACAD_REACTORS
330
47
102
}
330
47
100
AcDbScale
 70
     0
300
4:1
140
4.0
141
1.0
290
     0
  0
SCALE
  5
56
102
{ACAD_REACTORS
330
47
102
}
330
47
100
AcDbScale
 70
     0
300
8:1
140
8.0
141
1.0
290
     0
  0
SCALE
  5
57
102
{ACAD_REACTORS
330
47
102
}
330
47
100
AcDbScale
 70
     0
300
10:1
140
10.0
141
1.0
290
     0
  0
SCALE
  5
58
102
{ACAD_REACTORS
330
47
102
}
330
47
100
AcDbScale
 70
     0
300
100:1
140
100.0
141
1.0
290
     0
  0
SCALE
  5
59
102
{ACAD_REACTORS
330
47
102
}
330
47
100
AcDbScale
 70
     0
300
1/128" = 1'-0"
140
0.0078125
141
12.0
290
     0
  0
SCALE
  5
5A
102
{ACAD_REACTORS
330
47
102
}
330
47
100
AcDbScale
 70
     0
300
1/64" = 1'-0"
140
0.015625
141
12.0
290
     0
  0
SCALE
  5
5B
102
{ACAD_REACTORS
330
47
102
}
330
47
100
AcDbScale
 70
     0
300
1/32" = 1'-0"
140
0.03125
141
12.0
290
     0
  0
SCALE
  5
5C
102
{ACAD_REACTORS
330
47
102
}
330
47
100
AcDbScale
 70
     0
300
1/16" = 1'-0"
140
0.0625
141
12.0
290
     0
  0
SCALE
  5
5D
102
{ACAD_REACTORS
330
47
102
}
330
47
100
AcDbScale
 70
     0
300
3/32" = 1'-0"
140
0.09375
141
12.0
290
     0
  0
SCALE
  5
5E
102
{ACAD_REACTORS
330
47
102
}
330
47
100
AcDbScale
 70
     0
300
1/8" = 1'-0"
140
0.125
141
12.0
290
     0
  0
SCALE
  5
5F
102
{ACAD_REACTORS
330
47
102
}
330
47
100
AcDbScale
 70
     0
300
3/16" = 1'-0"
140
0.1875
141
12.0
290
     0
  0
SCALE
  5
60
102
{ACAD_REACTORS
330
47
102
}
330
47
100
AcDbScale
 70
     0
300
1/4" = 1'-0"
140
0.25
141
12.0
290
     0
  0
SCALE
  5
61
102
{ACAD_REACTORS
330
47
102
}
330
47
100
AcDbScale
 70
     0
300
3/8" = 1'-0"
140
0.375
141
12.0
290
     0
  0
SCALE
  5
62
102
{ACAD_REACTORS
330
47
102
}
330
47
100
AcDbScale
 70
     0
300
1/2" = 1'-0"
140
0.5
141
12.0
290
     0
  0
SCALE
  5
63
102
{ACAD_REACTORS
330
47
102
}
330
47
100
AcDbScale
 70
     0
300
3/4" = 1'-0"
140
0.75
141
12.0
290
     0
  0
SCALE
  5
64
102
{ACAD_REACTORS
330
47
102
}
330
47
100
AcDbScale
 70
     0
300
1" = 1'-0"
140
1.0
141
12.0
290
     0
  0
SCALE
  5
65
102
{ACAD_REACTORS
330
47
102
}
330
47
100
AcDbScale
 70
     0
300
1-1/2" = 1'-0"
140
1.5
141
12.0
290
     0
  0
SCALE
  5
66
102
{ACAD_REACTORS
330
47
102
}
330
47
100
AcDbScale
 70
     0
300
3" = 1'-0"
140
3.0
141
12.0
290
     0
  0
SCALE
  5
67
102
{ACAD_REACTORS
330
47
102
}
330
47
100
AcDbScale
 70
     0
300
6" = 1'-0"
140
6.0
141
12.0
290
     0
  0
SCALE
  5
68
102
{ACAD_REACTORS
330
47
102
}
330
47
100
AcDbScale
 70
     0
300
1'-0" = 1'-0"
140
12.0
141
12.0
290
     0
  0
TABLESTYLE
  5
6A
102
{ACAD_REACTORS
330
69
102
}
102
{ACAD_XDICTIONARY
360
404
102
}
330
69
100
AcDbTableStyle
  3
Standard
 70
     0
 71
     0
 40
0.06
 41
0.06
280
     0
281
     0
  7
Standard
140
4.5
170
     2
 62
     0
 63
   257
283
     0
 90
        4
 91
        0
  1

274
    -2
284
     1
 64
     0
275
    -2
285
     1
 65
     0
276
    -2
286
     1
 66
     0
277
    -2
287
     1
 67
     0
278
    -2
288
     1
 68
     0
279
    -2
289
     1
 69
     0
  7
Standard
140
6.0
170
     5
 62
     0
 63
   257
283
     0
 90
        4
 91
        0
  1

274
    -2
284
     1
 64
     0
275
    -2
285
     1
 65
     0
276
    -2
286
     1
 66
     0
277
    -2
287
     1
 67
     0
278
    -2
288
     1
 68
     0
279
    -2
289
     1
 69
     0
  7
Standard
140
4.5
170
     5
 62
     0
 63
   257
283
     0
 90
        4
 91
        0
  1

274
    -2
284
     1
 64
     0
275
    -2
285
     1
 65
     0
276
    -2
286
     1
 66
     0
277
    -2
287
     1
 67
     0
278
    -2
288
     1
 68
     0
279
    -2
289
     1
 69
     0
  0
VISUALSTYLE
  5
2F
102
{ACAD_REACTORS
330
2A
102
}
330
2A
100
AcDbVisualStyle
  2
2dWireframe
 70
     4
177
     3
291
     0
 70
    58
 90
        0
176
     1
 90
        2
176
     1
 90
        0
176
     1
 90
        0
176
     1
 40
0.6
176
     1
 40
30.0
176
     1
 62
     7
420
 16777215
176
     1
 90
        1
176
     1
 90
        4
176
     1
 62
     7
176
     1
 62
   257
176
     1
 90
        1
176
     1
 90
        1
176
     1
 40
1.0
176
     1
 90
        0
176
     1
 62
   257
176
     1
 40
1.0
176
     1
 90
        1
176
     1
 90
        6
176
     1
 90
        2
176
     1
 62
     7
176
     1
 90
        5
176
     1
 90
        0
176
     1
 90
        0
176
     1
290
     0
176
     1
 90
        1
176
     1
 40
0.0
176
     1
 90
        0
176
     1
290
     1
176
     1
290
     1
176
     1
290
     0
176
     1
290
     0
176
     1
290
     0
176
     1
290
     0
176
     1
290
     0
176
     1
290
     0
176
     1
290
     0
176
     1
 90
       50
176
     1
 40
0.0
176
     1
 40
1.0
176
     1
 90
        0
176
     1
 62
    18
420
        0
176
     1
 90
       50
176
     1
 90
        3
176
     1
 62
     5
420
      255
176
     1
290
     0
176
     1
 90
       50
176
     1
 90
       50
176
     1
 90
       50
176
     1
290
     0
176
     1
 90
       50
176
     1
 62
   256
176
     0
 40
1.0
176
     0
 90
        2
176
     1
  1
strokes_ogs.tif
176
     1
290
     0
176
     1
 40
1.0
176
     1
 40
1.0
176
     1
  0
VISUALSTYLE
  5
32
102
{ACAD_REACTORS
330
2A
102
}
330
2A
100
AcDbVisualStyle
  2
Basic
 70
     7
177
     3
291
     1
 70
    58
 90
        1
176
     1
 90
        0
176
     1
 90
        1
176
     1
 90
        0
176
     1
 40
0.6
176
     1
 40
30.0
176
     1
 62
     7
420
 16777215
176
     1
 90
        0
176
     1
 90
        4
176
     1
 62
     7
176
     1
 62
   257
176
     1
 90
        1
176
     1
 90
        1
176
     1
 40
1.0
176
     1
 90
        8
176
     1
 62
     7
176
     1
 40
1.0
176
     1
 90
        1
176
     1
 90
        6
176
     1
 90
        2
176
     1
 62
     7
176
     1
 90
        5
176
     1
 90
        0
176
     1
 90
        0
176
     1
290
     0
176
     1
 90
        1
176
     1
 40
0.0
176
     1
 90
        0
176
     1
290
     0
176
     1
290
     1
176
     1
290
     1
176
     1
290
     0
176
     1
290
     0
176
     1
290
     0
176
     1
290
     0
176
     1
290
     0
176
     1
290
     0
176
     1
 90
       50
176
     1
 40
0.0
176
     1
 40
1.0
176
     1
 90
        0
176
     1
 62
    18
420
        0
176
     1
 90
       50
176
     1
 90
        3
176
     1
 62
     5
420
      255
176
     1
290
     0
176
     1
 90
       50
176
     1
 90
       50
176
     1
 90
       50
176
     1
290
     0
176
     1
 90
       50
176
     1
 62
   256
176
     0
 40
1.0
176
     0
 90
        2
176
     1
  1
strokes_ogs.tif
176
     1
290
     0
176
     1
 40
1.0
176
     1
 40
1.0
176
     1
  0
VISUALSTYLE
  5
36
102
{ACAD_REACTORS
330
2A
102
}
330
2A
100
AcDbVisualStyle
  2
Brighten
 70
    12
177
     3
291
     1
 70
    58
 90
        2
176
     1
 90
        2
176
     1
 90
        0
176
     1
 90
        0
176
     1
 40
0.6
176
     1
 40
30.0
176
     1
 62
     7
420
 16777215
176
     1
 90
        1
176
     1
 90
        4
176
     1
 62
     7
176
     1
 62
   257
176
     1
 90
        1
176
     1
 90
        1
176
     1
 40
1.0
176
     1
 90
        8
176
     1
 62
     7
176
     1
 40
1.0
176
     1
 90
        1
176
     1
 90
        6
176
     1
 90
        2
176
     1
 62
     7
176
     1
 90
        5
176
     1
 90
        0
176
     1
 90
        0
176
     1
290
     0
176
     1
 90
        1
176
     1
 40
50.0
176
     1
 90
        0
176
     1
290
     0
176
     1
290
     1
176
     1
290
     1
176
     1
290
     0
176
     1
290
     0
176
     1
290
     0
176
     1
290
     0
176
     1
290
     0
176
     1
290
     0
176
     1
 90
       50
176
     1
 40
0.0
176
     1
 40
1.0
176
     1
 90
        0
176
     1
 62
    18
420
        0
176
     1
 90
       50
176
     1
 90
        3
176
     1
 62
     5
420
      255
176
     1
290
     0
176
     1
 90
       50
176
     1
 90
       50
176
     1
 90
       50
176
     1
290
     0
176
     1
 90
       50
176
     1
 62
   256
176
     0
 40
1.0
176
     0
 90
        2
176
     1
  1
strokes_ogs.tif
176
     1
290
     0
176
     1
 40
1.0
176
     1
 40
1.0
176
     1
  0
VISUALSTYLE
  5
3A
102
{ACAD_REACTORS
330
2A
102
}
330
2A
100
AcDbVisualStyle
  2
ColorChange
 70
    16
177
     3
291
     1
 70
    58
 90
        2
176
     1
 90
        2
176
     1
 90
        3
176
     1
 90
        0
176
     1
 40
0.6
176
     1
 40
30.0
176
     1
 62
     8
420
  8421504
176
     1
 90
        1
176
     1
 90
        4
176
     1
 62
     7
176
     1
 62
   257
176
     1
 90
        1
176
     1
 90
        1
176
     1
 40
1.0
176
     1
 90
        8
176
     1
 62
     8
420
  8421504
176
     1
 40
1.0
176
     1
 90
        1
176
     1
 90
        6
176
     1
 90
        2
176
     1
 62
     7
176
     1
 90
        5
176
     1
 90
        0
176
     1
 90
        0
176
     1
290
     0
176
     1
 90
        1
176
     1
 40
0.0
176
     1
 90
        0
176
     1
290
     0
176
     1
290
     1
176
     1
290
     1
176
     1
290
     0
176
     1
290
     0
176
     1
290
     0
176
     1
290
     0
176
     1
290
     0
176
     1
290
     0
176
     1
 90
       50
176
     1
 40
0.0
176
     1
 40
1.0
176
     1
 90
        0
176
     1
 62
    18
420
        0
176
     1
 90
       50
176
     1
 90
        3
176
     1
 62
     5
420
      255
176
     1
290
     0
176
     1
 90
       50
176
     1
 90
       50
176
     1
 90
       50
176
     1
290
     0
176
     1
 90
       50
176
     1
 62
   256
176
     0
 40
1.0
176
     0
 90
        2
176
     1
  1
strokes_ogs.tif
176
     1
290
     0
176
     1
 40
1.0
176
     1
 40
1.0
176
     1
  0
VISUALSTYLE
  5
34
102
{ACAD_REACTORS
330
2A
102
}
330
2A
100
AcDbVisualStyle
  2
Conceptual
 70
     9
177
     3
291
     0
 70
    58
 90
        3
176
     1
 90
        2
176
     1
 90
        0
176
     1
 90
        0
176
     1
 40
0.6
176
     1
 40
30.0
176
     1
 62
     7
420
 16777215
176
     1
 90
        2
176
     1
 90
        2
176
     1
 62
     7
176
     1
 62
   257
176
     1
 90
        1
176
     1
 90
        1
176
     1
 40
179.0
176
     1
 90
        8
176
     1
 62
     7
176
     1
 40
1.0
176
     1
 90
        1
176
     1
 90
        6
176
     1
 90
        2
176
     1
 62
     7
176
     1
 90
        3
176
     1
 90
        0
176
     1
 90
        0
176
     1
290
     0
176
     1
 90
        1
176
     1
 40
0.0
176
     1
 90
        0
176
     1
290
     0
176
     1
290
     1
176
     1
290
     1
176
     1
290
     0
176
     1
290
     0
176
     1
290
     0
176
     1
290
     0
176
     1
290
     0
176
     1
290
     0
176
     1
 90
       50
176
     1
 40
0.0
176
     1
 40
1.0
176
     1
 90
        0
176
     1
 62
    18
420
        0
176
     1
 90
       50
176
     1
 90
        3
176
     1
 62
     5
420
      255
176
     1
290
     0
176
     1
 90
       50
176
     1
 90
       50
176
     1
 90
       50
176
     1
290
     0
176
     1
 90
       50
176
     1
 62
   256
176
     0
 40
1.0
176
     0
 90
        2
176
     1
  1
strokes_ogs.tif
176
     1
290
     0
176
     1
 40
1.0
176
     1
 40
1.0
176
     1
  0
VISUALSTYLE
  5
35
102
{ACAD_REACTORS
330
2A
102
}
330
2A
100
AcDbVisualStyle
  2
Dim
 70
    11
177
     3
291
     1
 70
    58
 90
        2
176
     1
 90
        2
176
     1
 90
        0
176
     1
 90
        0
176
     1
 40
0.6
176
     1
 40
30.0
176
     1
 62
     7
420
 16777215
176
     1
 90
        1
176
     1
 90
        4
176
     1
 62
     7
176
     1
 62
   257
176
     1
 90
        1
176
     1
 90
        1
176
     1
 40
1.0
176
     1
 90
        8
176
     1
 62
     7
176
     1
 40
1.0
176
     1
 90
        1
176
     1
 90
        6
176
     1
 90
        2
176
     1
 62
     7
176
     1
 90
        5
176
     1
 90
        0
176
     1
 90
        0
176
     1
290
     0
176
     1
 90
        1
176
     1
 40
-50.0
176
     1
 90
        0
176
     1
290
     0
176
     1
290
     1
176
     1
290
     1
176
     1
290
     0
176
     1
290
     0
176
     1
290
     0
176
     1
290
     0
176
     1
290
     0
176
     1
290
     0
176
     1
 90
       50
176
     1
 40
0.0
176
     1
 40
1.0
176
     1
 90
        0
176
     1
 62
    18
420
        0
176
     1
 90
       50
176
     1
 90
        3
176
     1
 62
     5
420
      255
176
     1
290
     0
176
     1
 90
       50
176
     1
 90
       50
176
     1
 90
       50
176
     1
290
     0
176
     1
 90
       50
176
     1
 62
   256
176
     0
 40
1.0
176
     0
 90
        2
176
     1
  1
strokes_ogs.tif
176
     1
290
     0
176
     1
 40
1.0
176
     1
 40
1.0
176
     1
  0
VISUALSTYLE
  5
3D
102
{ACAD_REACTORS
330
2A
102
}
330
2A
100
AcDbVisualStyle
  2
EdgeColorOff
 70
    22
177
     3
291
     1
 70
    58
 90
        2
176
     0
 90
        2
176
     0
 90
        0
176
     0
 90
        0
176
     0
 40
0.6
176
     0
 40
30.0
176
     0
 62
     7
420
 16777215
176
     0
 90
        1
176
     0
 90
        4
176
     0
 62
     7
176
     0
 62
   257
176
     0
 90
        1
176
     0
 90
        1
176
     0
 40
1.0
176
     0
 90
        8
176
     2
 62
     7
176
     0
 40
1.0
176
     0
 90
        1
176
     0
 90
        6
176
     0
 90
        2
176
     0
 62
     7
176
     0
 90
        5
176
     0
 90
        0
176
     0
 90
        0
176
     0
290
     0
176
     0
 90
        1
176
     0
 40
0.0
176
     0
 90
        0
176
     0
290
     0
176
     0
290
     1
176
     0
290
     1
176
     0
290
     0
176
     0
290
     0
176
     0
290
     0
176
     0
290
     0
176
     0
290
     0
176
     0
290
     0
176
     0
 90
       50
176
     0
 40
0.0
176
     0
 40
1.0
176
     0
 90
        0
176
     0
 62
    18
420
        0
176
     0
 90
       50
176
     0
 90
        3
176
     0
 62
     5
420
      255
176
     0
290
     0
176
     0
 90
       50
176
     0
 90
       50
176
     0
 90
       50
176
     0
290
     0
176
     0
 90
       50
176
     0
 62
   256
176
     0
 40
1.0
176
     0
 90
        2
176
     0
  1
strokes_ogs.tif
176
     0
290
     0
176
     0
 40
1.0
176
     0
 40
1.0
176
     0
  0
VISUALSTYLE
  5
39
102
{ACAD_REACTORS
330
2A
102
}
330
2A
100
AcDbVisualStyle
  2
Facepattern
 70
    15
177
     3
291
     1
 70
    58
 90
        2
176
     1
 90
        2
176
     1
 90
        0
176
     1
 90
        0
176
     1
 40
0.6
176
     1
 40
30.0
176
     1
 62
     7
420
 16777215
176
     1
 90
        1
176
     1
 90
        4
176
     1
 62
     7
176
     1
 62
   257
176
     1
 90
        1
176
     1
 90
        1
176
     1
 40
1.0
176
     1
 90
        8
176
     1
 62
     7
176
     1
 40
1.0
176
     1
 90
        1
176
     1
 90
        6
176
     1
 90
        2
176
     1
 62
     7
176
     1
 90
        5
176
     1
 90
        0
176
     1
 90
        0
176
     1
290
     0
176
     1
 90
        1
176
     1
 40
0.0
176
     1
 90
        0
176
     1
290
     0
176
     1
290
     1
176
     1
290
     1
176
     1
290
     0
176
     1
290
     0
176
     1
290
     0
176
     1
290
     0
176
     1
290
     0
176
     1
290
     0
176
     1
 90
       50
176
     1
 40
0.0
176
     1
 40
1.0
176
     1
 90
        0
176
     1
 62
    18
420
        0
176
     1
 90
       50
176
     1
 90
        3
176
     1
 62
     5
420
      255
176
     1
290
     0
176
     1
 90
       50
176
     1
 90
       50
176
     1
 90
       50
176
     1
290
     0
176
     1
 90
       50
176
     1
 62
   256
176
     0
 40
1.0
176
     0
 90
        2
176
     1
  1
strokes_ogs.tif
176
     1
290
     0
176
     1
 40
1.0
176
     1
 40
1.0
176
     1
  0
VISUALSTYLE
  5
2B
102
{ACAD_REACTORS
330
2A
102
}
330
2A
100
AcDbVisualStyle
  2
Flat
 70
     0
177
     3
291
     1
 70
    58
 90
        2
176
     1
 90
        1
176
     1
 90
        1
176
     1
 90
        2
176
     1
 40
0.6
176
     1
 40
30.0
176
     1
 62
     7
420
 16777215
176
     1
 90
        0
176
     1
 90
        0
176
     1
 62
     7
176
     1
 62
   257
176
     1
 90
        1
176
     1
 90
        1
176
     1
 40
1.0
176
     1
 90
        8
176
     1
 62
     7
176
     1
 40
1.0
176
     1
 90
        1
176
     1
 90
        6
176
     1
 90
        2
176
     1
 62
     7
176
     1
 90
        5
176
     1
 90
        0
176
     1
 90
        0
176
     1
290
     0
176
     1
 90
       13
176
     1
 40
0.0
176
     1
 90
        0
176
     1
290
     0
176
     1
290
     1
176
     1
290
     1
176
     1
290
     0
176
     1
290
     0
176
     1
290
     0
176
     1
290
     0
176
     1
290
     0
176
     1
290
     0
176
     1
 90
       50
176
     1
 40
0.0
176
     1
 40
1.0
176
     1
 90
        0
176
     1
 62
    18
420
        0
176
     1
 90
       50
176
     1
 90
        3
176
     1
 62
     5
420
      255
176
     1
290
     0
176
     1
 90
       50
176
     1
 90
       50
176
     1
 90
       50
176
     1
290
     0
176
     1
 90
       50
176
     1
 62
   256
176
     0
 40
1.0
176
     0
 90
        2
176
     1
  1
strokes_ogs.tif
176
     1
290
     0
176
     1
 40
1.0
176
     1
 40
1.0
176
     1
  0
VISUALSTYLE
  5
2C
102
{ACAD_REACTORS
330
2A
102
}
330
2A
100
AcDbVisualStyle
  2
FlatWithEdges
 70
     1
177
     3
291
     1
 70
    58
 90
        2
176
     1
 90
        1
176
     1
 90
        1
176
     1
 90
        2
176
     1
 40
0.6
176
     1
 40
30.0
176
     1
 62
     7
420
 16777215
176
     1
 90
        1
176
     1
 90
        0
176
     1
 62
     7
176
     1
 62
   257
176
     1
 90
        1
176
     1
 90
        1
176
     1
 40
1.0
176
     1
 90
        0
176
     1
 62
   257
176
     1
 40
1.0
176
     1
 90
        1
176
     1
 90
        6
176
     1
 90
        2
176
     1
 62
     7
176
     1
 90
        5
176
     1
 90
        0
176
     1
 90
        0
176
     1
290
     0
176
     1
 90
       13
176
     1
 40
0.0
176
     1
 90
        0
176
     1
290
     0
176
     1
290
     1
176
     1
290
     1
176
     1
290
     0
176
     1
290
     0
176
     1
290
     0
176
     1
290
     0
176
     1
290
     0
176
     1
290
     0
176
     1
 90
       50
176
     1
 40
0.0
176
     1
 40
1.0
176
     1
 90
        0
176
     1
 62
    18
420
        0
176
     1
 90
       50
176
     1
 90
        3
176
     1
 62
     5
420
      255
176
     1
290
     0
176
     1
 90
       50
176
     1
 90
       50
176
     1
 90
       50
176
     1
290
     0
176
     1
 90
       50
176
     1
 62
   256
176
     0
 40
1.0
176
     0
 90
        2
176
     1
  1
strokes_ogs.tif
176
     1
290
     0
176
     1
 40
1.0
176
     1
 40
1.0
176
     1
  0
VISUALSTYLE
  5
2D
102
{ACAD_REACTORS
330
2A
102
}
330
2A
100
AcDbVisualStyle
  2
Gouraud
 70
     2
177
     3
291
     1
 70
    58
 90
        2
176
     1
 90
        2
176
     1
 90
        1
176
     1
 90
        2
176
     1
 40
0.6
176
     1
 40
30.0
176
     1
 62
     7
420
 16777215
176
     1
 90
        0
176
     1
 90
        0
176
     1
 62
     7
176
     1
 62
   257
176
     1
 90
        1
176
     1
 90
        1
176
     1
 40
1.0
176
     1
 90
        0
176
     1
 62
     7
176
     1
 40
1.0
176
     1
 90
        1
176
     1
 90
        6
176
     1
 90
        2
176
     1
 62
     7
176
     1
 90
        5
176
     1
 90
        0
176
     1
 90
        0
176
     1
290
     0
176
     1
 90
       13
176
     1
 40
0.0
176
     1
 90
        0
176
     1
290
     0
176
     1
290
     1
176
     1
290
     1
176
     1
290
     0
176
     1
290
     0
176
     1
290
     0
176
     1
290
     0
176
     1
290
     0
176
     1
290
     0
176
     1
 90
       50
176
     1
 40
0.0
176
     1
 40
1.0
176
     1
 90
        0
176
     1
 62
    18
420
        0
176
     1
 90
       50
176
     1
 90
        3
176
     1
 62
     5
420
      255
176
     1
290
     0
176
     1
 90
       50
176
     1
 90
       50
176
     1
 90
       50
176
     1
290
     0
176
     1
 90
       50
176
     1
 62
   256
176
     0
 40
1.0
176
     0
 90
        2
176
     1
  1
strokes_ogs.tif
176
     1
290
     0
176
     1
 40
1.0
176
     1
 40
1.0
176
     1
  0
VISUALSTYLE
  5
2E
102
{ACAD_REACTORS
330
2A
102
}
330
2A
100
AcDbVisualStyle
  2
GouraudWithEdges
 70
     3
177
     3
291
     1
 70
    58
 90
        2
176
     1
 90
        2
176
     1
 90
        1
176
     1
 90
        2
176
     1
 40
0.6
176
     1
 40
30.0
176
     1
 62
     7
420
 16777215
176
     1
 90
        1
176
     1
 90
        0
176
     1
 62
     7
176
     1
 62
   257
176
     1
 90
        1
176
     1
 90
        1
176
     1
 40
1.0
176
     1
 90
        0
176
     1
 62
   257
176
     1
 40
1.0
176
     1
 90
        1
176
     1
 90
        6
176
     1
 90
        2
176
     1
 62
     7
176
     1
 90
        5
176
     1
 90
        0
176
     1
 90
        0
176
     1
290
     0
176
     1
 90
       13
176
     1
 40
0.0
176
     1
 90
        0
176
     1
290
     0
176
     1
290
     1
176
     1
290
     1
176
     1
290
     0
176
     1
290
     0
176
     1
290
     0
176
     1
290
     0
176
     1
290
     0
176
     1
290
     0
176
     1
 90
       50
176
     1
 40
0.0
176
     1
 40
1.0
176
     1
 90
        0
176
     1
 62
    18
420
        0
176
     1
 90
       50
176
     1
 90
        3
176
     1
 62
     5
420
      255
176
     1
290
     0
176
     1
 90
       50
176
     1
 90
       50
176
     1
 90
       50
176
     1
290
     0
176
     1
 90
       50
176
     1
 62
   256
176
     0
 40
1.0
176
     0
 90
        2
176
     1
  1
strokes_ogs.tif
176
     1
290
     0
176
     1
 40
1.0
176
     1
 40
1.0
176
     1
  0
VISUALSTYLE
  5
31
102
{ACAD_REACTORS
330
2A
102
}
330
2A
100
AcDbVisualStyle
  2
Hidden
 70
     6
177
     3
291
     0
 70
    58
 90
        1
176
     1
 90
        2
176
     1
 90
        2
176
     1
 90
        0
176
     1
 40
0.6
176
     1
 40
30.0
176
     1
 62
     7
420
 16777215
176
     1
 90
        2
176
     1
 90
        2
176
     1
 62
     7
176
     1
 62
   257
176
     1
 90
        2
176
     1
 90
        1
176
     1
 40
40.0
176
     1
 90
        0
176
     1
 62
   257
176
     1
 40
1.0
176
     1
 90
        1
176
     1
 90
        6
176
     1
 90
        2
176
     1
 62
     7
176
     1
 90
        3
176
     1
 90
        0
176
     1
 90
        0
176
     1
290
     0
176
     1
 90
        1
176
     1
 40
0.0
176
     1
 90
        0
176
     1
290
     0
176
     1
290
     1
176
     1
290
     1
176
     1
290
     0
176
     1
290
     0
176
     1
290
     0
176
     1
290
     0
176
     1
290
     0
176
     1
290
     0
176
     1
 90
       50
176
     1
 40
0.0
176
     1
 40
1.0
176
     1
 90
        0
176
     1
 62
    18
420
        0
176
     1
 90
       50
176
     1
 90
        3
176
     1
 62
     5
420
      255
176
     1
290
     0
176
     1
 90
       50
176
     1
 90
       50
176
     1
 90
       50
176
     1
290
     0
176
     1
 90
       50
176
     1
 62
   256
176
     0
 40
1.0
176
     0
 90
        2
176
     1
  1
strokes_ogs.tif
176
     1
290
     0
176
     1
 40
1.0
176
     1
 40
1.0
176
     1
  0
VISUALSTYLE
  5
3B
102
{ACAD_REACTORS
330
2A
102
}
330
2A
100
AcDbVisualStyle
  2
JitterOff
 70
    20
177
     3
291
     1
 70
    58
 90
        2
176
     0
 90
        2
176
     0
 90
        0
176
     0
 90
        0
176
     0
 40
0.6
176
     0
 40
30.0
176
     0
 62
     7
420
 16777215
176
     0
 90
        1
176
     0
 90
        4
176
     0
 62
     7
176
     0
 62
   257
176
     0
 90
        1
176
     0
 90
        1
176
     0
 40
1.0
176
     0
 90
       10
176
     2
 62
     7
176
     0
 40
1.0
176
     0
 90
        1
176
     0
 90
        6
176
     0
 90
        2
176
     0
 62
     7
176
     0
 90
        5
176
     0
 90
        0
176
     0
 90
        0
176
     0
290
     0
176
     0
 90
        1
176
     0
 40
0.0
176
     0
 90
        0
176
     0
290
     0
176
     0
290
     1
176
     0
290
     1
176
     0
290
     0
176
     0
290
     0
176
     0
290
     0
176
     0
290
     0
176
     0
290
     0
176
     0
290
     0
176
     0
 90
       50
176
     0
 40
0.0
176
     0
 40
1.0
176
     0
 90
        0
176
     0
 62
    18
420
        0
176
     0
 90
       50
176
     0
 90
        3
176
     0
 62
     5
420
      255
176
     0
290
     0
176
     0
 90
       50
176
     0
 90
       50
176
     0
 90
       50
176
     0
290
     0
176
     0
 90
       50
176
     0
 62
   256
176
     0
 40
1.0
176
     0
 90
        2
176
     0
  1
strokes_ogs.tif
176
     0
290
     0
176
     0
 40
1.0
176
     0
 40
1.0
176
     0
  0
VISUALSTYLE
  5
38
102
{ACAD_REACTORS
330
2A
102
}
330
2A
100
AcDbVisualStyle
  2
Linepattern
 70
    14
177
     3
291
     1
 70
    58
 90
        2
176
     1
 90
        2
176
     1
 90
        0
176
     1
 90
        0
176
     1
 40
0.6
176
     1
 40
30.0
176
     1
 62
     7
420
 16777215
176
     1
 90
        1
176
     1
 90
        4
176
     1
 62
     7
176
     1
 62
   257
176
     1
 90
        7
176
     1
 90
        7
176
     1
 40
1.0
176
     1
 90
        8
176
     1
 62
     7
176
     1
 40
1.0
176
     1
 90
        1
176
     1
 90
        6
176
     1
 90
        2
176
     1
 62
     7
176
     1
 90
        5
176
     1
 90
        0
176
     1
 90
        0
176
     1
290
     0
176
     1
 90
        1
176
     1
 40
0.0
176
     1
 90
        0
176
     1
290
     0
176
     1
290
     1
176
     1
290
     1
176
     1
290
     0
176
     1
290
     0
176
     1
290
     0
176
     1
290
     0
176
     1
290
     0
176
     1
290
     0
176
     1
 90
       50
176
     1
 40
0.0
176
     1
 40
1.0
176
     1
 90
        0
176
     1
 62
    18
420
        0
176
     1
 90
       50
176
     1
 90
        3
176
     1
 62
     5
420
      255
176
     1
290
     0
176
     1
 90
       50
176
     1
 90
       50
176
     1
 90
       50
176
     1
290
     0
176
     1
 90
       50
176
     1
 62
   256
176
     0
 40
1.0
176
     0
 90
        2
176
     1
  1
strokes_ogs.tif
176
     1
290
     0
176
     1
 40
1.0
176
     1
 40
1.0
176
     1
  0
VISUALSTYLE
  5
3C
102
{ACAD_REACTORS
330
2A
102
}
330
2A
100
AcDbVisualStyle
  2
OverhangOff
 70
    21
177
     3
291
     1
 70
    58
 90
        2
176
     0
 90
        2
176
     0
 90
        0
176
     0
 90
        0
176
     0
 40
0.6
176
     0
 40
30.0
176
     0
 62
     7
420
 16777215
176
     0
 90
        1
176
     0
 90
        4
176
     0
 62
     7
176
     0
 62
   257
176
     0
 90
        1
176
     0
 90
        1
176
     0
 40
1.0
176
     0
 90
        9
176
     2
 62
     7
176
     0
 40
1.0
176
     0
 90
        1
176
     0
 90
        6
176
     0
 90
        2
176
     0
 62
     7
176
     0
 90
        5
176
     0
 90
        0
176
     0
 90
        0
176
     0
290
     0
176
     0
 90
        1
176
     0
 40
0.0
176
     0
 90
        0
176
     0
290
     0
176
     0
290
     1
176
     0
290
     1
176
     0
290
     0
176
     0
290
     0
176
     0
290
     0
176
     0
290
     0
176
     0
290
     0
176
     0
290
     0
176
     0
 90
       50
176
     0
 40
0.0
176
     0
 40
1.0
176
     0
 90
        0
176
     0
 62
    18
420
        0
176
     0
 90
       50
176
     0
 90
        3
176
     0
 62
     5
420
      255
176
     0
290
     0
176
     0
 90
       50
176
     0
 90
       50
176
     0
 90
       50
176
     0
290
     0
176
     0
 90
       50
176
     0
 62
   256
176
     0
 40
1.0
176
     0
 90
        2
176
     0
  1
strokes_ogs.tif
176
     0
290
     0
176
     0
 40
1.0
176
     0
 40
1.0
176
     0
  0
VISUALSTYLE
  5
33
102
{ACAD_REACTORS
330
2A
102
}
330
2A
100
AcDbVisualStyle
  2
Realistic
 70
     8
177
     3
291
     0
 70
    58
 90
        2
176
     1
 90
        3
176
     1
 90
        0
176
     1
 90
        2
176
     1
 40
0.6
176
     1
 40
30.0
176
     1
 62
     7
420
 16777215
176
     1
 90
        0
176
     1
 90
        0
176
     1
 62
     7
176
     1
 62
   257
176
     1
 90
        1
176
     1
 90
        1
176
     1
 40
1.0
176
     1
 90
        8
176
     1
 62
   257
176
     1
 40
1.0
176
     1
 90
        1
176
     1
 90
        6
176
     1
 90
        2
176
     1
 62
     7
176
     1
 90
        3
176
     1
 90
        0
176
     1
 90
        0
176
     1
290
     0
176
     1
 90
       13
176
     1
 40
0.0
176
     1
 90
        0
176
     1
290
     0
176
     1
290
     1
176
     1
290
     1
176
     1
290
     0
176
     1
290
     0
176
     1
290
     0
176
     1
290
     0
176
     1
290
     0
176
     1
290
     0
176
     1
 90
       50
176
     1
 40
0.0
176
     1
 40
1.0
176
     1
 90
        0
176
     1
 62
    18
420
        0
176
     1
 90
       50
176
     1
 90
        3
176
     1
 62
     5
420
      255
176
     1
290
     0
176
     1
 90
       50
176
     1
 90
       50
176
     1
 90
       50
176
     1
290
     0
176
     1
 90
       50
176
     1
 62
   256
176
     0
 40
1.0
176
     0
 90
        2
176
     1
  1
strokes_ogs.tif
176
     1
290
     0
176
     1
 40
1.0
176
     1
 40
1.0
176
     1
  0
VISUALSTYLE
  5
42
102
{ACAD_REACTORS
330
2A
102
}
330
2A
100
AcDbVisualStyle
  2
Shaded
 70
    27
177
     3
291
     0
 70
    58
 90
        2
176
     1
 90
        2
176
     1
 90
        1
176
     1
 90
        2
176
     1
 40
0.6
176
     1
 40
30.0
176
     1
 62
     7
420
 16777215
176
     1
 90
        0
176
     1
 90
        4
176
     1
 62
     7
176
     1
 62
   257
176
     1
 90
        1
176
     1
 90
        1
176
     1
 40
1.0
176
     1
 90
        8
176
     1
 62
   257
176
     1
 40
1.0
176
     1
 90
        1
176
     1
 90
        6
176
     1
 90
        2
176
     1
 62
     8
420
  7895160
176
     1
 90
        3
176
     1
 90
        0
176
     1
 90
        0
176
     1
290
     0
176
     1
 90
        5
176
     1
 40
0.0
176
     1
 90
        0
176
     1
290
     0
176
     1
290
     1
176
     1
290
     1
176
     1
290
     0
176
     1
290
     0
176
     1
290
     0
176
     1
290
     0
176
     1
290
     0
176
     1
290
     0
176
     1
 90
       50
176
     1
 40
0.0
176
     1
 40
1.0
176
     1
 90
        0
176
     1
 62
    18
420
        0
176
     1
 90
       50
176
     1
 90
        3
176
     1
 62
     5
420
      255
176
     1
290
     0
176
     1
 90
       50
176
     1
 90
       50
176
     1
 90
       50
176
     1
290
     0
176
     1
 90
       50
176
     1
 62
   256
176
     0
 40
1.0
176
     0
 90
        2
176
     1
  1
strokes_ogs.tif
176
     1
290
     0
176
     1
 40
1.0
176
     1
 40
1.0
176
     1
  0
VISUALSTYLE
  5
41
102
{ACAD_REACTORS
330
2A
102
}
330
2A
100
AcDbVisualStyle
  2
Shaded with edges
 70
    26
177
     3
291
     0
 70
    58
 90
        2
176
     1
 90
        2
176
     1
 90
        1
176
     1
 90
        2
176
     1
 40
0.6
176
     1
 40
30.0
176
     1
 62
     7
420
 16777215
176
     1
 90
        1
176
     1
 90
       10
176
     1
 62
     7
176
     1
 62
   257
176
     1
 90
        2
176
     1
 90
        1
176
     1
 40
1.0
176
     1
 90
        8
176
     1
 62
   257
176
     1
 40
1.0
176
     1
 90
        1
176
     1
 90
        6
176
     1
 90
        2
176
     1
 62
     7
176
     1
 90
        3
176
     1
 90
        0
176
     1
 90
        0
176
     1
290
     0
176
     1
 90
        5
176
     1
 40
0.0
176
     1
 90
        0
176
     1
290
     0
176
     1
290
     1
176
     1
290
     1
176
     1
290
     0
176
     1
290
     0
176
     1
290
     0
176
     1
290
     0
176
     1
290
     0
176
     1
290
     0
176
     1
 90
       50
176
     1
 40
0.0
176
     1
 40
1.0
176
     1
 90
        0
176
     1
 62
    18
420
        0
176
     1
 90
       50
176
     1
 90
        3
176
     1
 62
     5
420
      255
176
     1
290
     0
176
     1
 90
       50
176
     1
 90
       50
176
     1
 90
       50
176
     1
290
     0
176
     1
 90
       50
176
     1
 62
   256
176
     0
 40
1.0
176
     0
 90
        2
176
     1
  1
strokes_ogs.tif
176
     1
290
     0
176
     1
 40
1.0
176
     1
 40
1.0
176
     1
  0
VISUALSTYLE
  5
3E
102
{ACAD_REACTORS
330
2A
102
}
330
2A
100
AcDbVisualStyle
  2
Shades of Gray
 70
    23
177
     3
291
     0
 70
    58
 90
        2
176
     1
 90
        2
176
     1
 90
        3
176
     1
 90
        0
176
     1
 40
0.6
176
     1
 40
30.0
176
     1
 62
     7
420
 16777215
176
     1
 90
        2
176
     1
 90
        2
176
     1
 62
     7
176
     1
 62
     7
176
     1
 90
        1
176
     1
 90
        1
176
     1
 40
40.0
176
     1
 90
        8
176
     1
 62
     7
176
     1
 40
1.0
176
     1
 90
        1
176
     1
 90
        6
176
     1
 90
        2
176
     1
 62
     7
176
     1
 90
        3
176
     1
 90
        0
176
     1
 90
        0
176
     1
290
     0
176
     1
 90
        1
176
     1
 40
0.0
176
     1
 90
        0
176
     1
290
     0
176
     1
290
     1
176
     1
290
     1
176
     1
290
     0
176
     1
290
     0
176
     1
290
     0
176
     1
290
     0
176
     1
290
     0
176
     1
290
     0
176
     1
 90
       50
176
     1
 40
0.0
176
     1
 40
1.0
176
     1
 90
        0
176
     1
 62
    18
420
        0
176
     1
 90
       50
176
     1
 90
        3
176
     1
 62
     5
420
      255
176
     1
290
     0
176
     1
 90
       50
176
     1
 90
       50
176
     1
 90
       50
176
     1
290
     0
176
     1
 90
       50
176
     1
 62
   256
176
     0
 40
1.0
176
     0
 90
        2
176
     1
  1
strokes_ogs.tif
176
     1
290
     0
176
     1
 40
1.0
176
     1
 40
1.0
176
     1
  0
VISUALSTYLE
  5
3F
102
{ACAD_REACTORS
330
2A
102
}
330
2A
100
AcDbVisualStyle
  2
Sketchy
 70
    24
177
     3
291
     0
 70
    58
 90
        1
176
     1
 90
        2
176
     1
 90
        2
176
     1
 90
        0
176
     1
 40
0.6
176
     1
 40
30.0
176
     1
 62
     7
420
 16777215
176
     1
 90
        2
176
     1
 90
        2
176
     1
 62
     7
176
     1
 62
     7
176
     1
 90
        1
176
     1
 90
        1
176
     1
 40
40.0
176
     1
 90
       11
176
     1
 62
     7
176
     1
 40
1.0
176
     1
 90
        1
176
     1
 90
        6
176
     1
 90
        2
176
     1
 62
     7
176
     1
 90
        6
176
     1
 90
        0
176
     1
 90
        0
176
     1
290
     0
176
     1
 90
        1
176
     1
 40
0.0
176
     1
 90
        0
176
     1
290
     0
176
     1
290
     1
176
     1
290
     1
176
     1
290
     0
176
     1
290
     0
176
     1
290
     0
176
     1
290
     0
176
     1
290
     0
176
     1
290
     0
176
     1
 90
       50
176
     1
 40
0.0
176
     1
 40
1.0
176
     1
 90
        0
176
     1
 62
    18
420
        0
176
     1
 90
       50
176
     1
 90
        3
176
     1
 62
     5
420
      255
176
     1
290
     0
176
     1
 90
       50
176
     1
 90
       50
176
     1
 90
       50
176
     1
290
     0
176
     1
 90
       50
176
     1
 62
   256
176
     0
 40
1.0
176
     0
 90
        2
176
     1
  1
strokes_ogs.tif
176
     1
290
     0
176
     1
 40
1.0
176
     1
 40
1.0
176
     1
  0
VISUALSTYLE
  5
37
102
{ACAD_REACTORS
330
2A
102
}
330
2A
100
AcDbVisualStyle
  2
Thicken
 70
    13
177
     3
291
     1
 70
    58
 90
        2
176
     1
 90
        2
176
     1
 90
        0
176
     1
 90
        0
176
     1
 40
0.6
176
     1
 40
30.0
176
     1
 62
     7
420
 16777215
176
     1
 90
        1
176
     1
 90
        4
176
     1
 62
     7
176
     1
 62
   257
176
     1
 90
        1
176
     1
 90
        1
176
     1
 40
1.0
176
     1
 90
       12
176
     1
 62
     7
176
     1
 40
1.0
176
     1
 90
        1
176
     1
 90
        6
176
     1
 90
        2
176
     1
 62
     7
176
     1
 90
        5
176
     1
 90
        0
176
     1
 90
        0
176
     1
290
     0
176
     1
 90
        1
176
     1
 40
0.0
176
     1
 90
        0
176
     1
290
     0
176
     1
290
     1
176
     1
290
     1
176
     1
290
     0
176
     1
290
     0
176
     1
290
     0
176
     1
290
     0
176
     1
290
     0
176
     1
290
     0
176
     1
 90
       50
176
     1
 40
0.0
176
     1
 40
1.0
176
     1
 90
        0
176
     1
 62
    18
420
        0
176
     1
 90
       50
176
     1
 90
        3
176
     1
 62
     5
420
      255
176
     1
290
     0
176
     1
 90
       50
176
     1
 90
       50
176
     1
 90
       50
176
     1
290
     0
176
     1
 90
       50
176
     1
 62
   256
176
     0
 40
1.0
176
     0
 90
        2
176
     1
  1
strokes_ogs.tif
176
     1
290
     0
176
     1
 40
1.0
176
     1
 40
1.0
176
     1
  0
VISUALSTYLE
  5
30
102
{ACAD_REACTORS
330
2A
102
}
330
2A
100
AcDbVisualStyle
  2
Wireframe
 70
     5
177
     3
291
     0
 70
    58
 90
        0
176
     1
 90
        2
176
     1
 90
        0
176
     1
 90
        0
176
     1
 40
0.6
176
     1
 40
30.0
176
     1
 62
     7
420
 16777215
176
     1
 90
        1
176
     1
 90
        4
176
     1
 62
     7
176
     1
 62
   257
176
     1
 90
        1
176
     1
 90
        1
176
     1
 40
1.0
176
     1
 90
        0
176
     1
 62
   257
176
     1
 40
1.0
176
     1
 90
        1
176
     1
 90
        6
176
     1
 90
        2
176
     1
 62
     7
176
     1
 90
        3
176
     1
 90
        0
176
     1
 90
        0
176
     1
290
     0
176
     1
 90
        1
176
     1
 40
0.0
176
     1
 90
        0
176
     1
290
     0
176
     1
290
     1
176
     1
290
     1
176
     1
290
     0
176
     1
290
     0
176
     1
290
     0
176
     1
290
     0
176
     1
290
     0
176
     1
290
     0
176
     1
 90
       50
176
     1
 40
0.0
176
     1
 40
1.0
176
     1
 90
        0
176
     1
 62
    18
420
        0
176
     1
 90
       50
176
     1
 90
        3
176
     1
 62
     5
420
      255
176
     1
290
     0
176
     1
 90
       50
176
     1
 90
       50
176
     1
 90
       50
176
     1
290
     0
176
     1
 90
       50
176
     1
 62
   256
176
     0
 40
1.0
176
     0
 90
        2
176
     1
  1
strokes_ogs.tif
176
     1
290
     0
176
     1
 40
1.0
176
     1
 40
1.0
176
     1
  0
VISUALSTYLE
  5
40
102
{ACAD_REACTORS
330
2A
102
}
330
2A
100
AcDbVisualStyle
  2
X-Ray
 70
    25
177
     3
291
     0
 70
    58
 90
        2
176
     1
 90
        2
176
     1
 90
        1
176
     1
 90
        1
176
     1
 40
0.5
176
     1
 40
30.0
176
     1
 62
     7
420
 16777215
176
     1
 90
        1
176
     1
 90
        0
176
     1
 62
     7
176
     1
 62
   257
176
     1
 90
        1
176
     1
 90
        1
176
     1
 40
1.0
176
     1
 90
        8
176
     1
 62
     7
176
     1
 40
1.0
176
     1
 90
        1
176
     1
 90
        6
176
     1
 90
        2
176
     1
 62
     7
176
     1
 90
        3
176
     1
 90
        0
176
     1
 90
        0
176
     1
290
     0
176
     1
 90
       13
176
     1
 40
0.0
176
     1
 90
        0
176
     1
290
     0
176
     1
290
     1
176
     1
290
     1
176
     1
290
     0
176
     1
290
     0
176
     1
290
     0
176
     1
290
     0
176
     1
290
     0
176
     1
290
     0
176
     1
 90
       50
176
     1
 40
0.0
176
     1
 40
1.0
176
     1
 90
        0
176
     1
 62
    18
420
        0
176
     1
 90
       50
176
     1
 90
        3
176
     1
 62
     5
420
      255
176
     1
290
     0
176
     1
 90
       50
176
     1
 90
       50
176
     1
 90
       50
176
     1
290
     0
176
     1
 90
       50
176
     1
 62
   256
176
     0
 40
1.0
176
     0
 90
        2
176
     1
  1
strokes_ogs.tif
176
     1
290
     0
176
     1
 40
1.0
176
     1
 40
1.0
176
     1
  0
DICTIONARYVAR
  5
403
102
{ACAD_REACTORS
330
402
102
}
330
402
100
DictionaryVariables
280
     0
  1
1:1
  0
DICTIONARYVAR
  5
408
102
{ACAD_REACTORS
330
402
102
}
330
402
100
DictionaryVariables
280
     0
  1
Standard
  0
DICTIONARYVAR
  5
407
102
{ACAD_REACTORS
330
402
102
}
330
402
100
DictionaryVariables
280
     0
  1
Standard
  0
DICTIONARY
  5
404
330
6A
100
AcDbDictionary
280
     1
281
     1
  3
ACAD_ROUNDTRIP_2008_TABLESTYLE_CELLSTYLEMAP
360
405
  0
CELLSTYLEMAP
  5
405
102
{ACAD_REACTORS
330
404
102
}
330
404
100
AcDbCellStyleMap
 90
        3
300
CELLSTYLE
  1
TABLEFORMAT_BEGIN
 90
        5
170
     1
 91
        0
 92
    32768
 62
   257
 93
        1
300
CONTENTFORMAT
  1
CONTENTFORMAT_BEGIN
 90
        0
 91
        0
 92
        4
 93
        0
300

 40
0.0
140
1.0
 94
        5
 62
     0
340
11
144
6.0
309
CONTENTFORMAT_END
171
     1
301
MARGIN
  1
CELLMARGIN_BEGIN
 40
1.5
 40
1.5
 40
1.5
 40
1.5
 40
1.5
 40
1.5
309
CELLMARGIN_END
 94
        6
 95
        1
302
GRIDFORMAT
  1
GRIDFORMAT_BEGIN
 90
        0
 91
        1
 62
     0
 92
       -2
340
14
 93
        0
 40
0.045
309
GRIDFORMAT_END
 95
        2
302
GRIDFORMAT
  1
GRIDFORMAT_BEGIN
 90
        0
 91
        1
 62
     0
 92
       -2
340
14
 93
        0
 40
0.045
309
GRIDFORMAT_END
 95
        4
302
GRIDFORMAT
  1
GRIDFORMAT_BEGIN
 90
        0
 91
        1
 62
     0
 92
       -2
340
14
 93
        0
 40
0.045
309
GRIDFORMAT_END
 95
        8
302
GRIDFORMAT
  1
GRIDFORMAT_BEGIN
 90
        0
 91
        1
 62
     0
 92
       -2
340
14
 93
        0
 40
0.045
309
GRIDFORMAT_END
 95
       16
302
GRIDFORMAT
  1
GRIDFORMAT_BEGIN
 90
        0
 91
        1
 62
     0
 92
       -2
340
14
 93
        0
 40
0.045
309
GRIDFORMAT_END
 95
       32
302
GRIDFORMAT
  1
GRIDFORMAT_BEGIN
 90
        0
 91
        1
 62
     0
 92
       -2
340
14
 93
        0
 40
0.045
309
GRIDFORMAT_END
309
TABLEFORMAT_END
  1
CELLSTYLE_BEGIN
 90
        1
 91
        1
300
_TITLE
309
CELLSTYLE_END
300
CELLSTYLE
  1
TABLEFORMAT_BEGIN
 90
        5
170
     1
 91
        0
 92
        0
 62
   257
 93
        1
300
CONTENTFORMAT
  1
CONTENTFORMAT_BEGIN
 90
        0
 91
        0
 92
        4
 93
        0
300

 40
0.0
140
1.0
 94
        5
 62
     0
340
11
144
4.5
309
CONTENTFORMAT_END
171
     1
301
MARGIN
  1
CELLMARGIN_BEGIN
 40
1.5
 40
1.5
 40
1.5
 40
1.5
 40
1.5
 40
1.5
309
CELLMARGIN_END
 94
        6
 95
        1
302
GRIDFORMAT
  1
GRIDFORMAT_BEGIN
 90
        0
 91
        1
 62
     0
 92
       -2
340
14
 93
        0
 40
0.045
309
GRIDFORMAT_END
 95
        2
302
GRIDFORMAT
  1
GRIDFORMAT_BEGIN
 90
        0
 91
        1
 62
     0
 92
       -2
340
14
 93
        0
 40
0.045
309
GRIDFORMAT_END
 95
        4
302
GRIDFORMAT
  1
GRIDFORMAT_BEGIN
 90
        0
 91
        1
 62
     0
 92
       -2
340
14
 93
        0
 40
0.045
309
GRIDFORMAT_END
 95
        8
302
GRIDFORMAT
  1
GRIDFORMAT_BEGIN
 90
        0
 91
        1
 62
     0
 92
       -2
340
14
 93
        0
 40
0.045
309
GRIDFORMAT_END
 95
       16
302
GRIDFORMAT
  1
GRIDFORMAT_BEGIN
 90
        0
 91
        1
 62
     0
 92
       -2
340
14
 93
        0
 40
0.045
309
GRIDFORMAT_END
 95
       32
302
GRIDFORMAT
  1
GRIDFORMAT_BEGIN
 90
        0
 91
        1
 62
     0
 92
       -2
340
14
 93
        0
 40
0.045
309
GRIDFORMAT_END
309
TABLEFORMAT_END
  1
CELLSTYLE_BEGIN
 90
        2
 91
        1
300
_HEADER
309
CELLSTYLE_END
300
CELLSTYLE
  1
TABLEFORMAT_BEGIN
 90
        5
170
     1
 91
        0
 92
        0
 62
   257
 93
        1
300
CONTENTFORMAT
  1
CONTENTFORMAT_BEGIN
 90
        0
 91
        0
 92
        4
 93
        0
300

 40
0.0
140
1.0
 94
        2
 62
     0
340
11
144
4.5
309
CONTENTFORMAT_END
171
     1
301
MARGIN
  1
CELLMARGIN_BEGIN
 40
1.5
 40
1.5
 40
1.5
 40
1.5
 40
1.5
 40
1.5
309
CELLMARGIN_END
 94
        6
 95
        1
302
GRIDFORMAT
  1
GRIDFORMAT_BEGIN
 90
        0
 91
        1
 62
     0
 92
       -2
340
14
 93
        0
 40
0.045
309
GRIDFORMAT_END
 95
        2
302
GRIDFORMAT
  1
GRIDFORMAT_BEGIN
 90
        0
 91
        1
 62
     0
 92
       -2
340
14
 93
        0
 40
0.045
309
GRIDFORMAT_END
 95
        4
302
GRIDFORMAT
  1
GRIDFORMAT_BEGIN
 90
        0
 91
        1
 62
     0
 92
       -2
340
14
 93
        0
 40
0.045
309
GRIDFORMAT_END
 95
        8
302
GRIDFORMAT
  1
GRIDFORMAT_BEGIN
 90
        0
 91
        1
 62
     0
 92
       -2
340
14
 93
        0
 40
0.045
309
GRIDFORMAT_END
 95
       16
302
GRIDFORMAT
  1
GRIDFORMAT_BEGIN
 90
        0
 91
        1
 62
     0
 92
       -2
340
14
 93
        0
 40
0.045
309
GRIDFORMAT_END
 95
       32
302
GRIDFORMAT
  1
GRIDFORMAT_BEGIN
 90
        0
 91
        1
 62
     0
 92
       -2
340
14
 93
        0
 40
0.045
309
GRIDFORMAT_END
309
TABLEFORMAT_END
  1
CELLSTYLE_BEGIN
 90
        3
 91
        2
300
_DATA
309
CELLSTYLE_END
  0
ENDSEC
  0
EOF
