  0
SECTION
  2
HEADER
  9
$ACADVER
  1
AC1027
  9
$ACADMAINTVER
 70
   105
  9
$DWGCODEPAGE
  3
ANSI_1251
  9
$REQUIREDVERSIONS
160
                 0
  9
$INSBASE
 10
0.0
 20
0.0
 30
0.0
  9
$EXTMIN
 10
0.0
 20
0.0
 30
0.0
  9
$EXTMAX
 10
1420.0
 20
1297.0
 30
0.0
  9
$LIMMIN
 10
0.0
 20
0.0
  9
$LIMMAX
 10
1420.0
 20
1297.0
  9
$ORTHOMODE
 70
     0
  9
$REGENMODE
 70
     1
  9
$FILLMODE
 70
     1
  9
$QTEXTMODE
 70
     0
  9
$MIRRTEXT
 70
     1
  9
$LTSCALE
 40
1.0
  9
$ATTMODE
 70
     1
  9
$TEXTSIZE
 40
5.0
  9
$TRACEWID
 40
1.0
  9
$TEXTSTYLE
  7
Standard
  9
$CLAYER
  8
0
  9
$CELTYPE
  6
ByLayer
  9
$CECOLOR
 62
   256
  9
$CELTSCALE
 40
1.0
  9
$DISPSILH
 70
     0
  9
$DIMSCALE
 40
1.0
  9
$DIMASZ
 40
5.0
  9
$DIMEXO
 40
0.0
  9
$DIMDLI
 40
3.75
  9
$DIMRND
 40
0.0
  9
$DIMDLE
 40
0.0
  9
$DIMEXE
 40
1.0
  9
$DIMTP
 40
0.0
  9
$DIMTM
 40
0.0
  9
$DIMTXT
 40
3.5
  9
$DIMCEN
 40
2.5
  9
$DIMTSZ
 40
0.0
  9
$DIMTOL
 70
     0
  9
$DIMLIM
 70
     0
  9
$DIMTIH
 70
     1
  9
$DIMTOH
 70
     1
  9
$DIMSE1
 70
     0
  9
$DIMSE2
 70
     0
  9
$DIMTAD
 70
     1
  9
$DIMZIN
 70
     0
  9
$DIMBLK
  1

  9
$DIMASO
 70
     1
  9
$DIMSHO
 70
     1
  9
$DIMPOST
  1

  9
$DIMAPOST
  1

  9
$DIMALT
 70
     0
  9
$DIMALTD
 70
     3
  9
$DIMALTF
 40
0.0393700787
  9
$DIMLFAC
 40
1.0
  9
$DIMTOFL
 70
     1
  9
$DIMTVP
 40
0.0
  9
$DIMTIX
 70
     0
  9
$DIMSOXD
 70
     0
  9
$DIMSAH
 70
     0
  9
$DIMBLK1
  1

  9
$DIMBLK2
  1

  9
$DIMSTYLE
  2
ISO-25
  9
$DIMCLRD
 70
     0
  9
$DIMCLRE
 70
     0
  9
$DIMCLRT
 70
     0
  9
$DIMTFAC
 40
1.0
  9
$DIMGAP
 40
1.5
  9
$DIMJUST
 70
     0
  9
$DIMSD1
 70
     0
  9
$DIMSD2
 70
     0
  9
$DIMTOLJ
 70
     0
  9
$DIMTZIN
 70
     0
  9
$DIMALTZ
 70
     0
  9
$DIMALTTZ
 70
     0
  9
$DIMUPT
 70
     0
  9
$DIMDEC
 70
     1
  9
$DIMTDEC
 70
     1
  9
$DIMALTU
 70
     2
  9
$DIMALTTD
 70
     3
  9
$DIMTXSTY
  7
Standard
  9
$DIMAUNIT
 70
     0
  9
$DIMADEC
 70
     2
  9
$DIMALTRND
 40
0.0
  9
$DIMAZIN
 70
     0
  9
$DIMDSEP
 70
    44
  9
$DIMATFIT
 70
     3
  9
$DIMFRAC
 70
     0
  9
$DIMLDRBLK
  1

  9
$DIMLUNIT
 70
     2
  9
$DIMLWD
 70
    -2
  9
$DIMLWE
 70
    -2
  9
$DIMTMOVE
 70
     0
  9
$DIMFXL
 40
1.0
  9
$DIMFXLON
 70
     0
  9
$DIMJOGANG
 40
0.7853981634
  9
$DIMTFILL
 70
     0
  9
$DIMTFILLCLR
 70
     0
  9
$DIMARCSYM
 70
     0
  9
$DIMLTYPE
  6

  9
$DIMLTEX1
  6

  9
$DIMLTEX2
  6

  9
$DIMTXTDIRECTION
 70
     0
  9
$LUNITS
 70
     2
  9
$LUPREC
 70
     1
  9
$SKETCHINC
 40
1.0
  9
$FILLETRAD
 40
10.0
  9
$AUNITS
 70
     0
  9
$AUPREC
 70
     2
  9
$MENU
  1
.
  9
$ELEVATION
 40
0.0
  9
$PELEVATION
 40
0.0
  9
$THICKNESS
 40
0.0
  9
$LIMCHECK
 70
     0
  9
$CHAMFERA
 40
0.0
  9
$CHAMFERB
 40
0.0
  9
$CHAMFERC
 40
0.0
  9
$CHAMFERD
 40
0.0
  9
$SKPOLY
 70
     0
  9
$TDCREATE
 40
2459607.539365162
  9
$TDUCREATE
 40
2459607.414365162
  9
$TDUPDATE
 40
2459607.539365394
  9
$TDUUPDATE
 40
2459607.414365394
  9
$TDINDWG
 40
0.0000000116
  9
$TDUSRTIMER
 40
0.0000000116
  9
$USRTIMER
 70
     1
  9
$ANGBASE
 50
0.0
  9
$ANGDIR
 70
     0
  9
$PDMODE
 70
     0
  9
$PDSIZE
 40
-1.0
  9
$PLINEWID
 40
0.0
  9
$SPLFRAME
 70
     0
  9
$SPLINETYPE
 70
     6
  9
$SPLINESEGS
 70
     8
  9
$HANDSEED
  5
196
  9
$SURFTAB1
 70
     6
  9
$SURFTAB2
 70
     6
  9
$SURFTYPE
 70
     6
  9
$SURFU
 70
     6
  9
$SURFV
 70
     6
  9
$UCSBASE
  2

  9
$UCSNAME
  2

  9
$UCSORG
 10
0.0
 20
0.0
 30
0.0
  9
$UCSXDIR
 10
1.0
 20
0.0
 30
0.0
  9
$UCSYDIR
 10
0.0
 20
1.0
 30
0.0
  9
$UCSORTHOREF
  2

  9
$UCSORTHOVIEW
 70
     0
  9
$UCSORGTOP
 10
0.0
 20
0.0
 30
0.0
  9
$UCSORGBOTTOM
 10
0.0
 20
0.0
 30
0.0
  9
$UCSORGLEFT
 10
0.0
 20
0.0
 30
0.0
  9
$UCSORGRIGHT
 10
0.0
 20
0.0
 30
0.0
  9
$UCSORGFRONT
 10
0.0
 20
0.0
 30
0.0
  9
$UCSORGBACK
 10
0.0
 20
0.0
 30
0.0
  9
$PUCSBASE
  2

  9
$PUCSNAME
  2

  9
$PUCSORG
 10
0.0
 20
0.0
 30
0.0
  9
$PUCSXDIR
 10
1.0
 20
0.0
 30
0.0
  9
$PUCSYDIR
 10
0.0
 20
1.0
 30
0.0
  9
$PUCSORTHOREF
  2

  9
$PUCSORTHOVIEW
 70
     0
  9
$PUCSORGTOP
 10
0.0
 20
0.0
 30
0.0
  9
$PUCSORGBOTTOM
 10
0.0
 20
0.0
 30
0.0
  9
$PUCSORGLEFT
 10
0.0
 20
0.0
 30
0.0
  9
$PUCSORGRIGHT
 10
0.0
 20
0.0
 30
0.0
  9
$PUCSORGFRONT
 10
0.0
 20
0.0
 30
0.0
  9
$PUCSORGBACK
 10
0.0
 20
0.0
 30
0.0
  9
$USERI1
 70
     0
  9
$USERI2
 70
     0
  9
$USERI3
 70
     0
  9
$USERI4
 70
     0
  9
$USERI5
 70
     0
  9
$USERR1
 40
0.0
  9
$USERR2
 40
0.0
  9
$USERR3
 40
0.0
  9
$USERR4
 40
0.0
  9
$USERR5
 40
0.0
  9
$WORLDVIEW
 70
     1
  9
$SHADEDGE
 70
     3
  9
$SHADEDIF
 70
    70
  9
$TILEMODE
 70
     1
  9
$MAXACTVP
 70
    64
  9
$PINSBASE
 10
0.0
 20
0.0
 30
0.0
  9
$PLIMCHECK
 70
     0
  9
$PEXTMIN
 10
1.0000000000E+20
 20
1.0000000000E+20
 30
1.0000000000E+20
  9
$PEXTMAX
 10
-1.0000000000E+20
 20
-1.0000000000E+20
 30
-1.0000000000E+20
  9
$PLIMMIN
 10
0.0
 20
0.0
  9
$PLIMMAX
 10
420.0
 20
297.0
  9
$UNITMODE
 70
     0
  9
$VISRETAIN
 70
     1
  9
$PLINEGEN
 70
     0
  9
$PSLTSCALE
 70
     1
  9
$TREEDEPTH
 70
  3020
  9
$CMLSTYLE
  2
Standard
  9
$CMLJUST
 70
     0
  9
$CMLSCALE
 40
20.0
  9
$PROXYGRAPHICS
 70
     1
  9
$MEASUREMENT
 70
     1
  9
$CELWEIGHT
370
    -1
  9
$ENDCAPS
280
     0
  9
$JOINSTYLE
280
     0
  9
$LWDISPLAY
290
     1
  9
$INSUNITS
 70
     4
  9
$HYPERLINKBASE
  1

  9
$STYLESHEET
  1

  9
$XEDIT
290
     1
  9
$CEPSNTYPE
380
     0
  9
$PSTYLEMODE
290
     1
  9
$FINGERPRINTGUID
  2
{C590206A-C54F-44DD-B517-03582152C10C}
  9
$VERSIONGUID
  2
{FAEB1C32-E019-11D5-929B-00C0DF256EC4}
  9
$EXTNAMES
290
     1
  9
$PSVPSCALE
 40
0.0
  9
$OLESTARTUP
290
     0
  9
$SORTENTS
280
   127
  9
$INDEXCTL
280
     0
  9
$HIDETEXT
280
     1
  9
$XCLIPFRAME
280
     2
  9
$HALOGAP
280
     0
  9
$OBSCOLOR
 70
   257
  9
$OBSLTYPE
280
     0
  9
$INTERSECTIONDISPLAY
280
     0
  9
$INTERSECTIONCOLOR
 70
   257
  9
$DIMASSOC
280
     2
  9
$PROJECTNAME
  1

  9
$CAMERADISPLAY
290
     0
  9
$LENSLENGTH
 40
50.0
  9
$CAMERAHEIGHT
 40
0.0
  9
$STEPSPERSEC
 40
2.0
  9
$STEPSIZE
 40
6.0
  9
$3DDWFPREC
 40
2.0
  9
$PSOLWIDTH
 40
5.0
  9
$PSOLHEIGHT
 40
80.0
  9
$LOFTANG1
 40
1.5707963268
  9
$LOFTANG2
 40
1.5707963268
  9
$LOFTMAG1
 40
0.0
  9
$LOFTMAG2
 40
0.0
  9
$LOFTPARAM
 70
     7
  9
$LOFTNORMALS
280
     1
  9
$LATITUDE
 40
37.795
  9
$LONGITUDE
 40
-122.394
  9
$NORTHDIRECTION
 40
0.0
  9
$TIMEZONE
 70
 -8000
  9
$LIGHTGLYPHDISPLAY
280
     1
  9
$TILEMODELIGHTSYNCH
280
     1
  9
$CMATERIAL
347
44
  9
$SOLIDHIST
280
     0
  9
$SHOWHIST
280
     1
  9
$DWFFRAME
280
     2
  9
$DGNFRAME
280
     2
  9
$REALWORLDSCALE
290
     1
  9
$INTERFERECOLOR
 62
   256
  9
$CSHADOW
280
     0
  9
$SHADOWPLANELOCATION
 40
0.0
  0
ENDSEC
  0
SECTION
  2
CLASSES
  0
CLASS
  1
ACDBDICTIONARYWDFLT
  2
AcDbDictionaryWithDefault
  3
ObjectDBX Classes
 90
        0
 91
        4
280
     0
281
     0
  0
CLASS
  1
VISUALSTYLE
  2
AcDbVisualStyle
  3
ObjectDBX Classes
 90
     4095
 91
        4
280
     0
281
     0
  0
CLASS
  1
MATERIAL
  2
AcDbMaterial
  3
ObjectDBX Classes
 90
     1153
 91
        4
280
     0
281
     0
  0
CLASS
  1
SCALE
  2
AcDbScale
  3
ObjectDBX Classes
 90
     1153
 91
        4
280
     0
281
     0
  0
CLASS
  1
TABLESTYLE
  2
AcDbTableStyle
  3
ObjectDBX Classes
 90
     4095
 91
        4
280
     0
281
     0
  0
CLASS
  1
MLEADERSTYLE
  2
AcDbMLeaderStyle
  3
ACDB_MLEADERSTYLE_CLASS
 90
     4095
 91
        4
280
     0
281
     0
  0
CLASS
  1
SUN
  2
AcDbSun
  3
SCENEOE
 90
     1153
 91
        4
280
     0
281
     0
  0
CLASS
  1
DICTIONARYVAR
  2
AcDbDictionaryVar
  3
ObjectDBX Classes
 90
        0
 91
        4
280
     0
281
     0
  0
CLASS
  1
CELLSTYLEMAP
  2
AcDbCellStyleMap
  3
ObjectDBX Classes
 90
     1152
 91
        4
280
     0
281
     0
  0
ENDSEC
  0
SECTION
  2
TABLES
  0
TABLE
  2
VPORT
  5
8
330
0
100
AcDbSymbolTable
 70
     1
  0
VPORT
  5
29
330
8
100
AcDbSymbolTableRecord
100
AcDbViewportTableRecord
  2
*Active
 70
     0
 10
0.0
 20
0.0
 11
1.0
 21
1.0
 12
710.0
 22
648.5
 13
0.0
 23
0.0
 14
10.0
 24
10.0
 15
10.0
 25
10.0
 16
0.0
 26
0.0
 36
1.0
 17
0.0
 27
0.0
 37
0.0
 40
1297.0
 41
1.0948342328
 42
50.0
 43
0.0
 44
0.0
 50
0.0
 51
0.0
 71
     0
 72
  2000
 73
     1
 74
     3
 75
     0
 76
     0
 77
     0
 78
     0
281
     0
 65
     1
110
0.0
120
0.0
130
0.0
111
1.0
121
0.0
131
0.0
112
0.0
122
1.0
132
0.0
 79
     0
146
0.0
348
2F
 60
     3
 61
     5
292
     1
282
     1
141
0.0
142
0.0
 63
   250
361
6D
  0
ENDTAB
  0
TABLE
  2
LTYPE
  5
5
330
0
100
AcDbSymbolTable
 70
     8
  0
LTYPE
  5
14
330
5
100
AcDbSymbolTableRecord
100
AcDbLinetypeTableRecord
  2
ByBlock
 70
     0
  3

 72
    65
 73
     0
 40
0.0
  0
LTYPE
  5
15
330
5
100
AcDbSymbolTableRecord
100
AcDbLinetypeTableRecord
  2
ByLayer
 70
     0
  3

 72
    65
 73
     0
 40
0.0
  0
LTYPE
  5
16
330
5
100
AcDbSymbolTableRecord
100
AcDbLinetypeTableRecord
  2
Continuous
 70
     0
  3
Solid line
 72
    65
 73
     0
 40
0.0
  0
LTYPE
  5
6E
330
5
100
AcDbSymbolTableRecord
100
AcDbLinetypeTableRecord
  2
SLD-Сплошная
 70
     0
  3
SolidWorks Line Style
 72
    65
 73
     0
 40
0.0
  0
LTYPE
  5
6F
330
5
100
AcDbSymbolTableRecord
100
AcDbLinetypeTableRecord
  2
SLD-Штриховая
 70
     0
  3
SolidWorks Line Style
 72
    65
 73
     2
 40
1.905
 49
1.27
 74
     0
 49
-0.635
 74
     0
  0
LTYPE
  5
70
330
5
100
AcDbSymbolTableRecord
100
AcDbLinetypeTableRecord
  2
SLD-Штрихпункт.-с-двумя-точками
 70
     0
  3
SolidWorks Line Style
 72
    65
 73
     6
 40
12.7
 49
6.35
 74
     0
 49
-1.27
 74
     0
 49
1.27
 74
     0
 49
-1.27
 74
     0
 49
1.27
 74
     0
 49
-1.27
 74
     0
  0
LTYPE
  5
71
330
5
100
AcDbSymbolTableRecord
100
AcDbLinetypeTableRecord
  2
SLD-Штрихпункт.-утолщ.
 70
     0
  3
SolidWorks Line Style
 72
    65
 73
     4
 40
10.16
 49
6.35
 74
     0
 49
-1.27
 74
     0
 49
1.27
 74
     0
 49
-1.27
 74
     0
  0
LTYPE
  5
72
330
5
100
AcDbSymbolTableRecord
100
AcDbLinetypeTableRecord
  2
SLD-Осевая
 70
     0
  3
SolidWorks Line Style
 72
    65
 73
     4
 40
19.05
 49
15.24
 74
     0
 49
-1.27
 74
     0
 49
1.27
 74
     0
 49
-1.27
 74
     0
  0
LTYPE
  5
73
330
5
100
AcDbSymbolTableRecord
100
AcDbLinetypeTableRecord
  2
SLD-Сшитая
 70
     0
  3
SolidWorks Line Style
 72
    65
 73
     2
 40
0.635
 49
0.0
 74
     0
 49
-0.635
 74
     0
  0
LTYPE
  5
74
330
5
100
AcDbSymbolTableRecord
100
AcDbLinetypeTableRecord
  2
SLD-Тонкая-Толстая
 70
     0
  3
SolidWorks Line Style
 72
    65
 73
     2
 40
5.080508
 49
0.000508
 74
     0
 49
-5.08
 74
     0
  0
ENDTAB
  0
TABLE
  2
LAYER
  5
2
330
0
100
AcDbSymbolTable
 70
     5
  0
LAYER
  5
10
330
2
100
AcDbSymbolTableRecord
100
AcDbLayerTableRecord
  2
0
 70
     0
 62
     7
  6
Continuous
370
    -3
390
F
347
46
348
0
  0
LAYER
  5
75
330
2
100
AcDbSymbolTableRecord
100
AcDbLayerTableRecord
  2
ОСНОВНОЙ
 70
     0
 62
   236
  6
SLD-Сплошная
370
    35
390
F
347
46
348
0
  0
LAYER
  5
76
330
2
100
AcDbSymbolTableRecord
100
AcDbLayerTableRecord
  2
HELP
 70
     0
 62
   -57
  6
SLD-Сплошная
290
     0
370
    -3
390
F
347
46
348
0
  0
LAYER
  5
77
330
2
100
AcDbSymbolTableRecord
100
AcDbLayerTableRecord
  2
ТЕКСТ
 70
     0
 62
   150
  6
SLD-Сплошная
370
    -3
390
F
347
46
348
0
  0
LAYER
  5
78
330
2
100
AcDbSymbolTableRecord
100
AcDbLayerTableRecord
  2
ТОНКИЙ
 70
     0
 62
   174
  6
SLD-Сплошная
370
    -3
390
F
347
46
348
0
  0
ENDTAB
  0
TABLE
  2
STYLE
  5
3
330
0
100
AcDbSymbolTable
 70
     1
  0
STYLE
  5
11
330
3
100
AcDbSymbolTableRecord
100
AcDbTextStyleTableRecord
  2
Standard
 70
     0
 40
0.0
 41
1.0
 50
0.0
 71
     0
 42
5.0
  3
txt
  4

  0
ENDTAB
  0
TABLE
  2
VIEW
  5
6
330
0
100
AcDbSymbolTable
 70
     0
  0
ENDTAB
  0
TABLE
  2
UCS
  5
7
330
0
100
AcDbSymbolTable
 70
     0
  0
ENDTAB
  0
TABLE
  2
APPID
  5
9
330
0
100
AcDbSymbolTable
 70
     1
  0
APPID
  5
12
330
9
100
AcDbSymbolTableRecord
100
AcDbRegAppTableRecord
  2
ACAD
 70
     0
  0
ENDTAB
  0
TABLE
  2
DIMSTYLE
  5
A
330
0
100
AcDbSymbolTable
 70
     1
100
AcDbDimStyleTable
  0
DIMSTYLE
105
27
330
A
100
AcDbSymbolTableRecord
100
AcDbDimStyleTableRecord
  2
ISO-25
 70
     0
 41
2.5
 42
0.625
 43
3.75
 44
1.25
 73
     0
 74
     0
 77
     1
 78
     8
140
2.5
141
2.5
143
0.0393700787
147
0.625
171
     3
172
     1
178
     0
271
     2
272
     2
274
     3
278
    44
283
     0
284
     8
340
11
  0
ENDTAB
  0
TABLE
  2
BLOCK_RECORD
  5
1
330
0
100
AcDbSymbolTable
 70
     1
  0
BLOCK_RECORD
  5
1F
330
1
100
AcDbSymbolTableRecord
100
AcDbBlockTableRecord
  2
*Model_Space
340
22
 70
     0
280
     1
281
     0
  0
BLOCK_RECORD
  5
1B
330
1
100
AcDbSymbolTableRecord
100
AcDbBlockTableRecord
  2
*Paper_Space
340
1E
 70
     0
280
     1
281
     0
  0
BLOCK_RECORD
  5
23
330
1
100
AcDbSymbolTableRecord
100
AcDbBlockTableRecord
  2
*Paper_Space0
340
26
 70
     0
280
     1
281
     0
  0
ENDTAB
  0
ENDSEC
  0
SECTION
  2
BLOCKS
  0
BLOCK
  5
20
330
1F
100
AcDbEntity
  8
0
100
AcDbBlockBegin
  2
*Model_Space
 70
     0
 10
0.0
 20
0.0
 30
0.0
  3
*Model_Space
  1

  0
ENDBLK
  5
21
330
1F
100
AcDbEntity
  8
0
100
AcDbBlockEnd
  0
BLOCK
  5
1C
330
1B
100
AcDbEntity
 67
     1
  8
0
100
AcDbBlockBegin
  2
*Paper_Space
 70
     0
 10
0.0
 20
0.0
 30
0.0
  3
*Paper_Space
  1

  0
ENDBLK
  5
1D
330
1B
100
AcDbEntity
 67
     1
  8
0
100
AcDbBlockEnd
  0
BLOCK
  5
24
330
23
100
AcDbEntity
  8
0
100
AcDbBlockBegin
  2
*Paper_Space0
 70
     0
 10
0.0
 20
0.0
 30
0.0
  3
*Paper_Space0
  1

  0
ENDBLK
  5
25
330
23
100
AcDbEntity
  8
0
100
AcDbBlockEnd
  0
ENDSEC
  0
SECTION
  2
ENTITIES
  0
CIRCLE
  5
79
330
1F
100
AcDbEntity
  8
0
  6
SLD-Сплошная
 62
     7
370
    35
100
AcDbCircle
 10
406.7975
 20
-545.2025
 30
0.0
 40
2.050000000000011
  0
CIRCLE
  5
7A
330
1F
100
AcDbEntity
  8
0
  6
SLD-Сплошная
 62
     7
370
    35
100
AcDbCircle
 10
-545.2025
 20
406.7975
 30
0.0
 40
2.049999999999955
  0
LINE
  5
7B
330
1F
100
AcDbEntity
  8
0
  6
SLD-Сплошная
 62
     7
370
    35
100
AcDbLine
 10
-343.2025
 20
255.5975
 30
0.0
 11
-343.2025
 21
253.3975
 31
0.0
  0
LINE
  5
7C
330
1F
100
AcDbEntity
  8
0
  6
SLD-Сплошная
 62
     7
370
    35
100
AcDbLine
 10
-530.2025
 20
253.3975
 30
0.0
 11
-343.2025
 21
253.3975
 31
0.0
  0
LINE
  5
7D
330
1F
100
AcDbEntity
  8
0
  6
SLD-Сплошная
 62
     7
370
    35
100
AcDbLine
 10
-530.2025
 20
255.5975
 30
0.0
 11
-530.2025
 21
253.3975
 31
0.0
  0
LINE
  5
7E
330
1F
100
AcDbEntity
  8
0
  6
SLD-Сплошная
 62
     7
370
    35
100
AcDbLine
 10
-530.2025
 20
560.1975
 30
0.0
 11
-343.2025
 21
560.1975
 31
0.0
  0
LINE
  5
7F
330
1F
100
AcDbEntity
  8
0
  6
SLD-Сплошная
 62
     7
370
    35
100
AcDbLine
 10
-343.2025
 20
557.9975
 30
0.0
 11
-343.2025
 21
560.1975
 31
0.0
  0
SPLINE
  5
80
330
1F
100
AcDbEntity
  8
0
  6
SLD-Сплошная
 62
     7
370
    35
100
AcDbSpline
210
0.0
220
0.0
230
1.0
 70
    24
 71
     3
 72
    11
 73
     7
 74
     0
 42
0.000000001
 43
0.00000001
 40
0.0
 40
0.0
 40
0.0
 40
0.0
 40
0.2503774387939551
 40
0.5000629929310899
 40
0.7499746440992571
 40
1.0
 40
1.0
 40
1.0
 40
1.0
 10
-530.2024999999948
 20
558.5375680716627
 30
0.0
 10
-530.2024999999948
 20
558.4932212322357
 30
0.0
 10
-530.2024999999945
 20
558.4046500999574
 30
0.0
 10
-530.2024999999945
 20
558.2697589499805
 30
0.0
 10
-530.2024999999945
 20
558.1338746883098
 30
0.0
 10
-530.2024999999945
 20
558.0429651215368
 30
0.0
 10
-530.2024999999945
 20
557.9975
 30
0.0
  0
LINE
  5
81
330
1F
100
AcDbEntity
  8
0
  6
SLD-Сплошная
 62
     7
370
    35
100
AcDbLine
 10
-530.2025
 20
558.9327982771
 30
0.0
 11
-530.2025
 21
558.5375680717
 31
0.0
  0
SPLINE
  5
82
330
1F
100
AcDbEntity
  8
0
  6
SLD-Сплошная
 62
     7
370
    35
100
AcDbSpline
210
0.0
220
0.0
230
1.0
 70
    24
 71
     3
 72
    17
 73
    13
 74
     0
 42
0.000000001
 43
0.00000001
 40
0.0
 40
0.0
 40
0.0
 40
0.0
 40
0.0629069686059862
 40
0.1254057023705003
 40
0.1877206706777485
 40
0.2500783274497558
 40
0.3749241914317423
 40
0.5000518229139492
 40
0.6249063797705808
 40
0.7500252981879937
 40
0.8749473691556504
 40
1.0
 40
1.0
 40
1.0
 40
1.0
 10
-530.2025000000117
 20
560.1674948674772
 30
0.0
 10
-530.2025000000112
 20
560.1593444627711
 30
0.0
 10
-530.2025000000103
 20
560.1430965454191
 30
0.0
 10
-530.2025000000091
 20
560.1089821132445
 30
0.0
 10
-530.202500000008
 20
560.0678401072227
 30
0.0
 10
-530.2025000000062
 20
560.0027711154046
 30
0.0
 10
-530.2025000000042
 20
559.9029788645283
 30
0.0
 10
-530.202500000002
 20
559.7551881299757
 30
0.0
 10
-530.2025000000002
 20
559.5820050297176
 30
0.0
 10
-530.2024999999985
 20
559.3853137321537
 30
0.0
 10
-530.202499999997
 20
559.169495603912
 30
0.0
 10
-530.2024999999963
 20
559.0117250523625
 30
0.0
 10
-530.202499999996
 20
558.9327985754111
 30
0.0
  0
LINE
  5
83
330
1F
100
AcDbEntity
  8
0
  6
SLD-Сплошная
 62
     7
370
    35
100
AcDbLine
 10
-530.2025
 20
560.1899858846
 30
0.0
 11
-530.2025
 21
560.1674948675
 31
0.0
  0
SPLINE
  5
84
330
1F
100
AcDbEntity
  8
0
  6
SLD-Сплошная
 62
     7
370
    35
100
AcDbSpline
210
0.0
220
0.0
230
1.0
 70
    24
 71
     3
 72
     9
 73
     5
 74
     0
 42
0.000000001
 43
0.00000001
 40
0.0
 40
0.0
 40
0.0
 40
0.0
 40
0.583460751762071
 40
1.0
 40
1.0
 40
1.0
 40
1.0
 10
-530.2025000000154
 20
560.1975000000001
 30
0.0
 10
-530.202500000015
 20
560.196638221516
 30
0.0
 10
-530.2025000000144
 20
560.1951612095974
 30
0.0
 10
-530.2025000000137
 20
560.1915077104157
 30
0.0
 10
-530.2025000000134
 20
560.1899858846133
 30
0.0
  0
ARC
  5
85
330
1F
100
AcDbEntity
  8
0
  6
SLD-Сплошная
 62
     7
370
    35
100
AcDbCircle
 10
260.5975
 20
-555.2025
 30
0.0
 40
5.0
100
AcDbArc
 50
180.0
 51
270.0
  0
LINE
  5
86
330
1F
100
AcDbEntity
  8
0
  6
SLD-Сплошная
 62
     7
370
    35
100
AcDbLine
 10
255.5975
 20
-555.2025
 30
0.0
 11
255.5975
 21
-530.2025
 31
0.0
  0
LINE
  5
87
330
1F
100
AcDbEntity
  8
0
  6
SLD-Сплошная
 62
     7
370
    35
100
AcDbLine
 10
257.7975
 20
-343.2025
 30
0.0
 11
255.5975
 21
-343.2025
 31
0.0
  0
ARC
  5
88
330
1F
100
AcDbEntity
  8
0
  6
SLD-Сплошная
 62
     7
370
    35
100
AcDbCircle
 10
257.7912083697
 20
-340.4525
 30
0.0
 40
2.750007197192665
100
AcDbArc
 50
270.1310848116
 51
90.3932540916
  0
ARC
  5
89
330
1F
100
AcDbEntity
  8
0
  6
SLD-Сплошная
 62
     7
370
    35
100
AcDbCircle
 10
-343.2025
 20
-343.2025
 30
0.0
 40
600.9999999999999
100
AcDbArc
 50
0.5243385601
 51
89.4756614399
  0
ARC
  5
8A
330
1F
100
AcDbEntity
  8
0
  6
SLD-Сплошная
 62
     7
370
    35
100
AcDbCircle
 10
-340.4525
 20
257.7912083697
 30
0.0
 40
2.750007197192778
100
AcDbArc
 50
359.6067459084
 51
179.8689151884
  0
LINE
  5
8B
330
1F
100
AcDbEntity
  8
0
  6
SLD-Сплошная
 62
     7
370
    35
100
AcDbLine
 10
-343.2025
 20
255.5975
 30
0.0
 11
-343.2025
 21
257.7975
 31
0.0
  0
LINE
  5
8C
330
1F
100
AcDbEntity
  8
0
  6
SLD-Сплошная
 62
     7
370
    35
100
AcDbLine
 10
-530.2025
 20
255.5975
 30
0.0
 11
-530.2025
 21
257.7975
 31
0.0
  0
LINE
  5
8D
330
1F
100
AcDbEntity
  8
0
  6
SLD-Сплошная
 62
     7
370
    35
100
AcDbLine
 10
-530.2025
 20
257.7975
 30
0.0
 11
-555.2025
 21
257.7975
 31
0.0
  0
ARC
  5
8E
330
1F
100
AcDbEntity
  8
0
  6
SLD-Сплошная
 62
     7
370
    35
100
AcDbCircle
 10
-555.2025
 20
262.7975
 30
0.0
 40
5.0
100
AcDbArc
 50
180.0
 51
270.0
  0
LINE
  5
8F
330
1F
100
AcDbEntity
  8
0
  6
SLD-Сплошная
 62
     7
370
    35
100
AcDbLine
 10
-560.2025
 20
550.7975
 30
0.0
 11
-560.2025
 21
262.7975
 31
0.0
  0
ARC
  5
90
330
1F
100
AcDbEntity
  8
0
  6
SLD-Сплошная
 62
     7
370
    35
100
AcDbCircle
 10
-555.2025
 20
550.7975
 30
0.0
 40
5.0
100
AcDbArc
 50
90.0
 51
180.0
  0
LINE
  5
91
330
1F
100
AcDbEntity
  8
0
  6
SLD-Сплошная
 62
     7
370
    35
100
AcDbLine
 10
-555.2025
 20
555.7975
 30
0.0
 11
-530.2025
 21
555.7975
 31
0.0
  0
LINE
  5
92
330
1F
100
AcDbEntity
  8
0
  6
SLD-Сплошная
 62
     7
370
    35
100
AcDbLine
 10
-530.2025
 20
555.7975
 30
0.0
 11
-530.2025
 21
557.9975
 31
0.0
  0
LINE
  5
93
330
1F
100
AcDbEntity
  8
0
  6
SLD-Сплошная
 62
     7
370
    35
100
AcDbLine
 10
-343.2025
 20
555.7975
 30
0.0
 11
-343.2025
 21
557.9975
 31
0.0
  0
ARC
  5
94
330
1F
100
AcDbEntity
  8
0
  6
SLD-Сплошная
 62
     7
370
    35
100
AcDbCircle
 10
-340.4525
 20
555.7932939279
 30
0.0
 40
2.750003216551406
100
AcDbArc
 50
179.9123672751
 51
359.7371019278
  0
ARC
  5
95
330
1F
100
AcDbEntity
  8
0
  6
SLD-Сплошная
 62
     7
370
    35
100
AcDbCircle
 10
-343.2025
 20
-343.2025
 30
0.0
 40
898.9999999999999
100
AcDbArc
 50
0.3505306946
 51
89.6494693054
  0
ARC
  5
96
330
1F
100
AcDbEntity
  8
0
  6
SLD-Сплошная
 62
     7
370
    35
100
AcDbCircle
 10
555.7932939279
 20
-340.4525
 30
0.0
 40
2.750003216551236
100
AcDbArc
 50
90.2628980722
 51
270.0876327249
  0
LINE
  5
97
330
1F
100
AcDbEntity
  8
0
  6
SLD-Сплошная
 62
     7
370
    35
100
AcDbLine
 10
557.9975
 20
-343.2025
 30
0.0
 11
555.7975
 21
-343.2025
 31
0.0
  0
LINE
  5
98
330
1F
100
AcDbEntity
  8
0
  6
SLD-Сплошная
 62
     7
370
    35
100
AcDbLine
 10
557.9975
 20
-555.2025
 30
0.0
 11
557.9975
 21
-530.2025
 31
0.0
  0
ARC
  5
99
330
1F
100
AcDbEntity
  8
0
  6
SLD-Сплошная
 62
     7
370
    35
100
AcDbCircle
 10
552.9975
 20
-555.2025
 30
0.0
 40
5.0
100
AcDbArc
 50
270.0
 51
0.0
  0
LINE
  5
9A
330
1F
100
AcDbEntity
  8
0
  6
SLD-Сплошная
 62
     7
370
    35
100
AcDbLine
 10
260.5975
 20
-560.2025
 30
0.0
 11
552.9975
 21
-560.2025
 31
0.0
  0
LINE
  5
9B
330
1F
100
AcDbEntity
  8
0
  6
SLD-Сплошная
 62
     7
370
    35
100
AcDbLine
 10
557.9975
 20
-343.2025
 30
0.0
 11
560.1975
 21
-343.2025
 31
0.0
  0
LINE
  5
9C
330
1F
100
AcDbEntity
  8
0
  6
SLD-Сплошная
 62
     7
370
    35
100
AcDbLine
 10
560.1975
 20
-530.2025
 30
0.0
 11
560.1975
 21
-343.2025
 31
0.0
  0
LINE
  5
9D
330
1F
100
AcDbEntity
  8
0
  6
SLD-Сплошная
 62
     7
370
    35
100
AcDbLine
 10
560.1975
 20
-530.2025
 30
0.0
 11
557.9975
 21
-530.2025
 31
0.0
  0
LINE
  5
9E
330
1F
100
AcDbEntity
  8
0
  6
SLD-Сплошная
 62
     7
370
    35
100
AcDbLine
 10
253.3975
 20
-530.2025
 30
0.0
 11
253.3975
 21
-343.2025
 31
0.0
  0
LINE
  5
9F
330
1F
100
AcDbEntity
  8
0
  6
SLD-Сплошная
 62
     7
370
    35
100
AcDbLine
 10
255.5975
 20
-343.2025
 30
0.0
 11
253.3975
 21
-343.2025
 31
0.0
  0
SPLINE
  5
A0
330
1F
100
AcDbEntity
  8
0
  6
SLD-Сплошная
 62
     7
370
    35
100
AcDbSpline
210
0.0
220
0.0
230
1.0
 70
    24
 71
     3
 72
    17
 73
    13
 74
     0
 42
0.000000001
 43
0.00000001
 40
0.0
 40
0.0
 40
0.0
 40
0.0
 40
0.0625876055769852
 40
0.1249786288422556
 40
0.1874020215074123
 40
0.2500863806019983
 40
0.3749452091276527
 40
0.5000594542860659
 40
0.6249268793628051
 40
0.7500325474373005
 40
0.8745191154525136
 40
1.0
 40
1.0
 40
1.0
 40
1.0
 10
254.6622014212942
 20
-530.2024999999973
 30
0.0
 10
254.6223951321941
 20
-530.2024999999974
 30
0.0
 10
254.5429075821408
 20
-530.2024999999976
 30
0.0
 10
254.4284711224376
 20
-530.2024999999979
 30
0.0
 10
254.3180186755417
 20
-530.2024999999985
 30
0.0
 10
254.1770814563553
 20
-530.2024999999991
 30
0.0
 10
254.0131510453875
 20
-530.2025000000001
 30
0.0
 10
253.8400518381106
 20
-530.2025000000015
 30
0.0
 10
253.6920180462687
 20
-530.2025000000029
 30
0.0
 10
253.572811911998
 20
-530.2025000000045
 30
0.0
 10
253.4805557919115
 20
-530.2025000000064
 30
0.0
 10
253.445235517786
 20
-530.2025000000076
 30
0.0
 10
253.4275051325128
 20
-530.2025000000083
 30
0.0
  0
LINE
  5
A1
330
1F
100
AcDbEntity
  8
0
  6
SLD-Сплошная
 62
     7
370
    35
100
AcDbLine
 10
254.6622017196
 20
-530.2025
 30
0.0
 11
255.0574319283
 21
-530.2025
 31
0.0
  0
SPLINE
  5
A2
330
1F
100
AcDbEntity
  8
0
  6
SLD-Сплошная
 62
     7
370
    35
100
AcDbSpline
210
0.0
220
0.0
230
1.0
 70
    24
 71
     3
 72
    11
 73
     7
 74
     0
 42
0.000000001
 43
0.00000001
 40
0.0
 40
0.0
 40
0.0
 40
0.0
 40
0.2500248345186097
 40
0.4999359645416648
 40
0.7490645934881934
 40
1.0
 40
1.0
 40
1.0
 40
1.0
 10
255.5975000000001
 20
-530.2024999999962
 30
0.0
 10
255.5520347719128
 20
-530.2024999999963
 30
0.0
 10
255.4611249920871
 20
-530.2024999999962
 30
0.0
 10
255.3253431857453
 20
-530.2024999999962
 30
0.0
 10
255.1904444247184
 20
-530.2024999999962
 30
0.0
 10
255.1018760955925
 20
-530.2024999999963
 30
0.0
 10
255.0574319282512
 20
-530.2024999999963
 30
0.0
  0
SPLINE
  5
A3
330
1F
100
AcDbEntity
  8
0
  6
SLD-Сплошная
 62
     7
370
    35
100
AcDbSpline
210
0.0
220
0.0
230
1.0
 70
    24
 71
     3
 72
     9
 73
     5
 74
     0
 42
0.000000001
 43
0.00000001
 40
0.0
 40
0.0
 40
0.0
 40
0.0
 40
0.4165392482465231
 40
1.0
 40
1.0
 40
1.0
 40
1.0
 10
253.4050141153849
 20
-530.2025000000095
 30
0.0
 10
253.4034922895829
 20
-530.2025000000096
 30
0.0
 10
253.3998387904025
 20
-530.2025000000101
 30
0.0
 10
253.3983617784843
 20
-530.2025000000106
 30
0.0
 10
253.3975000000003
 20
-530.2025000000108
 30
0.0
  0
LINE
  5
A4
330
1F
100
AcDbEntity
  8
0
  6
SLD-Сплошная
 62
     7
370
    35
100
AcDbLine
 10
253.4050141154
 20
-530.2025
 30
0.0
 11
253.4275051325
 21
-530.2025
 31
0.0
  0
ARC
  5
A5
330
1F
100
AcDbEntity
  8
0
  6
SLD-Сплошная
 62
     7
370
    18
100
AcDbCircle
 10
-545.2025
 20
406.7975
 30
0.0
 40
2.256500000000198
100
AcDbArc
 50
255.0
 51
195.0
  0
ARC
  5
A6
330
1F
100
AcDbEntity
  8
0
  6
SLD-Сплошная
 62
     7
370
    35
100
AcDbCircle
 10
991.8866486348
 20
398.0519155877
 30
0.0
 40
0.3000000000000748
100
AcDbArc
 50
0.0
 51
45.0
  0
ARC
  5
A7
330
1F
100
AcDbEntity
  8
0
  6
SLD-Сплошная
 62
     7
370
    35
100
AcDbCircle
 10
991.8866486348
 20
415.5430844123
 30
0.0
 40
0.300000000000115
100
AcDbArc
 50
315.0
 51
0.0
  0
LINE
  5
A8
330
1F
100
AcDbEntity
  8
0
  6
SLD-Сплошная
 62
     7
370
    35
100
AcDbLine
 10
992.0987806692
 20
398.2640476221
 30
0.0
 11
991.6259884631
 21
398.7368398282
 31
0.0
  0
LINE
  5
A9
330
1F
100
AcDbEntity
  8
0
  6
SLD-Сплошная
 62
     7
370
    35
100
AcDbLine
 10
991.6259884631
 20
414.8581601718
 30
0.0
 11
992.0987806692
 21
415.3309523779
 31
0.0
  0
ARC
  5
AA
330
1F
100
AcDbEntity
  8
0
  6
SLD-Сплошная
 62
     7
370
    35
100
AcDbCircle
 10
992.6866486348
 20
413.7975
 30
0.0
 40
1.500000000000012
100
AcDbArc
 50
135.0
 51
180.0
  0
ARC
  5
AB
330
1F
100
AcDbEntity
  8
0
  6
SLD-Сплошная
 62
     7
370
    35
100
AcDbCircle
 10
992.6866486348
 20
399.7975
 30
0.0
 40
1.5
100
AcDbArc
 50
180.0
 51
225.0
  0
LINE
  5
AC
330
1F
100
AcDbEntity
  8
0
  6
SLD-Сплошная
 62
     7
370
    35
100
AcDbLine
 10
993.3866486347
 20
410.0475
 30
0.0
 11
993.986648635
 21
410.0475
 31
0.0
  0
LINE
  5
AD
330
1F
100
AcDbEntity
  8
0
  6
SLD-Сплошная
 62
     7
370
    35
100
AcDbLine
 10
993.986648635
 20
403.5475
 30
0.0
 11
993.3866486347
 21
403.5475
 31
0.0
  0
ARC
  5
AE
330
1F
100
AcDbEntity
  8
0
  6
SLD-Сплошная
 62
     7
370
    35
100
AcDbCircle
 10
991.8866486348
 20
-553.9480844123
 30
0.0
 40
0.300000000000115
100
AcDbArc
 50
0.0
 51
45.0
  0
ARC
  5
AF
330
1F
100
AcDbEntity
  8
0
  6
SLD-Сплошная
 62
     7
370
    35
100
AcDbCircle
 10
991.8866486348
 20
-536.4569155877
 30
0.0
 40
0.300000000000115
100
AcDbArc
 50
315.0
 51
0.0
  0
LINE
  5
B0
330
1F
100
AcDbEntity
  8
0
  6
SLD-Сплошная
 62
     7
370
    35
100
AcDbLine
 10
992.0987806691
 20
-553.7359523779
 30
0.0
 11
991.625988463
 21
-553.2631601718
 31
0.0
  0
LINE
  5
B1
330
1F
100
AcDbEntity
  8
0
  6
SLD-Сплошная
 62
     7
370
    35
100
AcDbLine
 10
991.625988463
 20
-537.1418398282
 30
0.0
 11
992.0987806691
 21
-536.6690476221
 31
0.0
  0
ARC
  5
B2
330
1F
100
AcDbEntity
  8
0
  6
SLD-Сплошная
 62
     7
370
    35
100
AcDbCircle
 10
992.6866486348
 20
-538.2025
 30
0.0
 40
1.5
100
AcDbArc
 50
135.0
 51
180.0
  0
ARC
  5
B3
330
1F
100
AcDbEntity
  8
0
  6
SLD-Сплошная
 62
     7
370
    35
100
AcDbCircle
 10
992.6866486348
 20
-552.2025
 30
0.0
 40
1.500000000000093
100
AcDbArc
 50
180.0
 51
225.0
  0
LINE
  5
B4
330
1F
100
AcDbEntity
  8
0
  6
SLD-Сплошная
 62
     7
370
    35
100
AcDbLine
 10
993.9866486349
 20
-548.4525
 30
0.0
 11
993.3866486347
 21
-548.4525
 31
0.0
  0
LINE
  5
B5
330
1F
100
AcDbEntity
  8
0
  6
SLD-Сплошная
 62
     7
370
    35
100
AcDbLine
 10
993.3866486347
 20
-541.9525
 30
0.0
 11
993.9866486349
 21
-541.9525
 31
0.0
  0
LINE
  5
B6
330
1F
100
AcDbEntity
  8
0
  6
SLD-Сплошная
 62
     7
370
    35
100
AcDbLine
 10
993.3866486347
 20
555.7975
 30
0.0
 11
992.1866486347
 21
555.7975
 31
0.0
  0
LINE
  5
B7
330
1F
100
AcDbEntity
  8
0
  6
SLD-Сплошная
 62
     7
370
    35
100
AcDbLine
 10
992.1866486347
 20
555.7975
 30
0.0
 11
992.1866486347
 21
550.7975
 31
0.0
  0
LINE
  5
B8
330
1F
100
AcDbEntity
  8
0
  6
SLD-Сплошная
 62
     7
370
    35
100
AcDbLine
 10
993.3866486347
 20
550.7975
 30
0.0
 11
993.3866486347
 21
555.7975
 31
0.0
  0
LINE
  5
B9
330
1F
100
AcDbEntity
  8
0
  6
SLD-Сплошная
 62
     7
370
    35
100
AcDbLine
 10
992.1866486347
 20
550.7975
 30
0.0
 11
992.1866486347
 21
262.7975
 31
0.0
  0
LINE
  5
BA
330
1F
100
AcDbEntity
  8
0
  6
SLD-Сплошная
 62
     7
370
    35
100
AcDbLine
 10
993.3866486347
 20
550.7975
 30
0.0
 11
993.3866486347
 21
262.7975
 31
0.0
  0
LINE
  5
BB
330
1F
100
AcDbEntity
  8
0
  6
SLD-Сплошная
 62
     7
370
    35
100
AcDbLine
 10
992.1866486347
 20
257.7975
 30
0.0
 11
993.3866486347
 21
257.7975
 31
0.0
  0
LINE
  5
BC
330
1F
100
AcDbEntity
  8
0
  6
SLD-Сплошная
 62
     7
370
    35
100
AcDbLine
 10
992.1866486347
 20
262.7975
 30
0.0
 11
992.1866486347
 21
257.7975
 31
0.0
  0
LINE
  5
BD
330
1F
100
AcDbEntity
  8
0
  6
SLD-Сплошная
 62
     7
370
    35
100
AcDbLine
 10
993.3866486347
 20
257.7975
 30
0.0
 11
993.3866486347
 21
262.7975
 31
0.0
  0
LINE
  5
BE
330
1F
100
AcDbEntity
  8
0
  6
SLD-Сплошная
 62
     7
370
    35
100
AcDbLine
 10
991.1866486348
 20
413.7974991568
 30
0.0
 11
991.1866486348
 21
399.7975
 31
0.0
  0
LINE
  5
BF
330
1F
100
AcDbEntity
  8
0
  6
SLD-Сплошная
 62
     7
370
    35
100
AcDbLine
 10
993.986648635
 20
403.5475
 30
0.0
 11
993.986648635
 21
410.0475
 31
0.0
  0
SPLINE
  5
C0
330
1F
100
AcDbEntity
  8
0
  6
SLD-Сплошная
 62
     7
370
    35
100
AcDbSpline
210
0.0
220
0.0
230
1.0
 70
     8
 71
     3
 72
    14
 73
    10
 74
     0
 42
0.000000001
 43
0.00000001
 40
0.0
 40
0.0
 40
0.0
 40
0.0
 40
0.25
 40
0.25
 40
0.5
 40
0.5
 40
0.75
 40
0.75
 40
1.0
 40
1.0
 40
1.0
 40
1.0
 10
1003.792893218795
 20
256.5066883092036
 30
0.0
 10
1003.886773827519
 20
256.6005689179278
 30
0.0
 10
1003.997508331085
 20
256.674133534627
 30
0.0
 10
1004.241029863222
 20
256.7744012846093
 30
0.0
 10
1004.372772536463
 20
256.8000489975634
 30
0.0
 10
1004.634472826013
 20
256.7991009346081
 30
0.0
 10
1004.766135510404
 20
256.7722077300605
 30
0.0
 10
1005.005506242872
 20
256.6721027467896
 30
0.0
 10
1005.115538481438
 20
256.5982566089342
 30
0.0
 10
1005.20710678117
 20
256.5066883092012
 30
0.0
  0
LINE
  5
C1
330
1F
100
AcDbEntity
  8
0
  6
SLD-Сплошная
 62
     7
370
    35
100
AcDbLine
 10
1005.2071067812
 20
256.5066883092
 30
0.0
 11
1007.9648232278
 21
253.7489718626
 31
0.0
  0
LINE
  5
C2
330
1F
100
AcDbEntity
  8
0
  6
SLD-Сплошная
 62
     7
370
    35
100
AcDbLine
 10
1007.9648232278
 20
253.7489718626
 30
0.0
 11
1008.8133513652
 21
254.5975
 31
0.0
  0
LINE
  5
C3
330
1F
100
AcDbEntity
  8
0
  6
SLD-Сплошная
 62
     7
370
    35
100
AcDbLine
 10
1008.8133513652
 20
254.5975
 30
0.0
 11
1006.0556349186
 21
257.3552164466
 31
0.0
  0
SPLINE
  5
C4
330
1F
100
AcDbEntity
  8
0
  6
SLD-Сплошная
 62
     7
370
    35
100
AcDbSpline
210
0.0
220
0.0
230
1.0
 70
     8
 71
     3
 72
    10
 73
     6
 74
     0
 42
0.000000001
 43
0.00000001
 40
0.0
 40
0.0
 40
0.0
 40
0.0
 40
0.5
 40
0.5
 40
1.0
 40
1.0
 40
1.0
 40
1.0
 10
1006.055634918592
 20
257.3552164466274
 30
0.0
 10
1005.921202400245
 20
257.489648964974
 30
0.0
 10
1005.770990810844
 20
257.6055657155365
 30
0.0
 10
1005.438310662826
 20
257.7987237507862
 30
0.0
 10
1005.257692209191
 20
257.8741654077379
 30
0.0
 10
1005.069409287281
 20
257.9246163662108
 30
0.0
  0
LINE
  5
C5
330
1F
100
AcDbEntity
  8
0
  6
SLD-Сплошная
 62
     7
370
    35
100
AcDbLine
 10
1006.0556349186
 20
556.2397835534
 30
0.0
 11
1008.8133513652
 21
558.9975
 31
0.0
  0
LINE
  5
C6
330
1F
100
AcDbEntity
  8
0
  6
SLD-Сплошная
 62
     7
370
    35
100
AcDbLine
 10
1008.8133513652
 20
558.9975
 30
0.0
 11
1007.9648232278
 21
559.8460281374
 31
0.0
  0
LINE
  5
C7
330
1F
100
AcDbEntity
  8
0
  6
SLD-Сплошная
 62
     7
370
    35
100
AcDbLine
 10
1007.9648232278
 20
559.8460281374
 30
0.0
 11
1005.2071067812
 21
557.0883116908
 31
0.0
  0
SPLINE
  5
C8
330
1F
100
AcDbEntity
  8
0
  6
SLD-Сплошная
 62
     7
370
    35
100
AcDbSpline
210
0.0
220
0.0
230
1.0
 70
     8
 71
     3
 72
    14
 73
    10
 74
     0
 42
0.000000001
 43
0.00000001
 40
0.0
 40
0.0
 40
0.0
 40
0.0
 40
0.25
 40
0.25
 40
0.5
 40
0.5
 40
0.75
 40
0.75
 40
1.0
 40
1.0
 40
1.0
 40
1.0
 10
1005.207106781168
 20
557.0883116907964
 30
0.0
 10
1005.11555024624
 20
556.9967551558684
 30
0.0
 10
1005.00701922713
 20
556.9236583711428
 30
0.0
 10
1004.766290958096
 20
556.822729777825
 30
0.0
 10
1004.635291419605
 20
556.7960039710501
 30
0.0
 10
1004.373506917951
 20
556.7948523256948
 30
0.0
 10
1004.241190667391
 20
556.8206611259878
 30
0.0
 10
1003.999022384406
 20
556.9201153342647
 30
0.0
 10
1003.886774360101
 20
556.9944305494896
 30
0.0
 10
1003.792893218792
 20
557.0883116907985
 30
0.0
  0
LINE
  5
C9
330
1F
100
AcDbEntity
  8
0
  6
SLD-Сплошная
 62
     7
370
    35
100
AcDbLine
 10
1003.7928932188
 20
557.0883116908
 30
0.0
 11
1001.328069991
 21
559.5531349186
 31
0.0
  0
SPLINE
  5
CA
330
1F
100
AcDbEntity
  8
0
  6
SLD-Сплошная
 62
     7
370
    35
100
AcDbSpline
210
0.0
220
0.0
230
1.0
 70
     8
 71
     3
 72
     8
 73
     4
 74
     0
 42
0.000000001
 43
0.00000001
 40
0.0
 40
0.0
 40
0.0
 40
0.0
 40
1.0
 40
1.0
 40
1.0
 40
1.0
 10
1001.32806999098
 20
559.5531349186102
 30
0.0
 10
1001.169914893838
 20
559.7112900157525
 30
0.0
 10
1000.991785164416
 20
559.8422795051257
 30
0.0
 10
1000.79367837428
 20
559.9461051725025
 30
0.0
  0
SPLINE
  5
CB
330
1F
100
AcDbEntity
  8
0
  6
SLD-Сплошная
 62
     7
370
    35
100
AcDbSpline
210
0.0
220
0.0
230
1.0
 70
     8
 71
     3
 72
    10
 73
     6
 74
     0
 42
0.000000001
 43
0.00000001
 40
0.0
 40
0.0
 40
0.0
 40
0.0
 40
0.5
 40
0.5
 40
1.0
 40
1.0
 40
1.0
 40
1.0
 10
1005.069435190711
 20
555.6703905748581
 30
0.0
 10
1005.257683672481
 20
555.7208347644455
 30
0.0
 10
1005.434941033516
 20
555.7946971423246
 30
0.0
 10
1005.767963497527
 20
555.9873064334106
 30
0.0
 10
1005.921184950483
 20
556.1053335852624
 30
0.0
 10
1006.055634918603
 20
556.2397835533835
 30
0.0
  0
LINE
  5
CC
330
1F
100
AcDbEntity
  8
0
  6
SLD-Сплошная
 62
     7
370
    35
100
AcDbLine
 10
1002.9443650814
 20
257.3552164466
 30
0.0
 11
1000.4795418535
 21
254.8903932188
 31
0.0
  0
LINE
  5
CD
330
1F
100
AcDbEntity
  8
0
  6
SLD-Сплошная
 62
     7
370
    35
100
AcDbLine
 10
1003.7928932188
 20
256.5066883092
 30
0.0
 11
1001.328069991
 21
254.0418650814
 31
0.0
  0
ARC
  5
CE
330
1F
100
AcDbEntity
  8
0
  6
SLD-Сплошная
 62
     7
370
    35
100
AcDbCircle
 10
1004.5
 20
255.799581528
 30
0.0
 40
2.199999999999946
100
AcDbArc
 50
74.9998008411
 51
135.0
  0
ARC
  5
CF
330
1F
100
AcDbEntity
  8
0
  6
SLD-Сплошная
 62
     7
370
    35
100
AcDbCircle
 10
1004.5
 20
557.795418472
 30
0.0
 40
2.199999999999982
100
AcDbArc
 50
239.2105263167
 51
250.1592456375
  0
SPLINE
  5
D0
330
1F
100
AcDbEntity
  8
0
  6
SLD-Сплошная
 62
     7
370
    35
100
AcDbSpline
210
0.0
220
0.0
230
1.0
 70
     8
 71
     3
 72
     8
 73
     4
 74
     0
 42
0.000000001
 43
0.00000001
 40
0.0
 40
0.0
 40
0.0
 40
0.0
 40
1.0
 40
1.0
 40
1.0
 40
1.0
 10
1002.944365081371
 20
556.2397835533723
 30
0.0
 10
1003.072974850641
 20
556.1111737841019
 30
0.0
 10
1003.217606715618
 20
555.9986022850221
 30
0.0
 10
1003.373852892013
 20
555.9054997723518
 30
0.0
  0
SPLINE
  5
D1
330
1F
100
AcDbEntity
  8
0
  6
SLD-Сплошная
 62
     7
370
    35
100
AcDbSpline
210
0.0
220
0.0
230
1.0
 70
     8
 71
     3
 72
     8
 73
     4
 74
     0
 42
0.000000001
 43
0.00000001
 40
0.0
 40
0.0
 40
0.0
 40
0.0
 40
1.0
 40
1.0
 40
1.0
 40
1.0
 10
1003.753304421941
 20
555.7260113796646
 30
0.0
 10
1004.172774305891
 20
555.5746558012343
 30
0.0
 10
1004.638690945455
 20
555.5549657685528
 30
0.0
 10
1005.069435194968
 20
555.6703905759986
 30
0.0
  0
SPLINE
  5
D2
330
1F
100
AcDbEntity
  8
0
  6
SLD-Сплошная
 62
     7
370
    35
100
AcDbSpline
210
0.0
220
0.0
230
1.0
 70
     8
 71
     3
 72
    26
 73
    22
 74
     0
 42
0.000000001
 43
0.00000001
 40
0.0
 40
0.0
 40
0.0
 40
0.0
 40
0.0526315789473795
 40
0.105263157894761
 40
0.1578947368421301
 40
0.2105263157895068
 40
0.2631578947368026
 40
0.3157894736841766
 40
0.3684210526315553
 40
0.4210526315789301
 40
0.4736842105262964
 40
0.5263157894737016
 40
0.5789473684210562
 40
0.6315789473684503
 40
0.6842105263158265
 40
0.7368421052631895
 40
0.7894736842105033
 40
0.8421052631578685
 40
0.8947368421052658
 40
0.9473684210526054
 40
0.9999999999999999
 40
0.9999999999999999
 40
0.9999999999999999
 40
0.9999999999999999
 10
999.7724350723701
 20
253.3975000000001
 30
0.0
 10
999.8027486852023
 20
253.397861780541
 30
0.0
 10
999.8633759108669
 20
253.3985853416231
 30
0.0
 10
999.9541613784669
 20
253.4044346227954
 30
0.0
 10
1000.044636369721
 20
253.4137608595083
 30
0.0
 10
1000.134646309626
 20
253.4268902866433
 30
0.0
 10
1000.224037417701
 20
253.4437087890028
 30
0.0
 10
1000.312656970771
 20
253.4642121990245
 30
0.0
 10
1000.400353563692
 20
253.4883589044996
 30
0.0
 10
1000.486977368768
 20
253.516109414528
 30
0.0
 10
1000.572380388958
 20
253.547415846941
 30
0.0
 10
1000.656416721063
 20
253.5822248354312
 30
0.0
 10
1000.738942766428
 20
253.6204768994873
 30
0.0
 10
1000.819817620231
 20
253.6621066056461
 30
0.0
 10
1000.898902774957
 20
253.7070431620028
 30
0.0
 10
1000.976064362143
 20
253.7552085486605
 30
0.0
 10
1001.051165897908
 20
253.8065251302906
 30
0.0
 10
1001.12409644375
 20
253.8608878622113
 30
0.0
 10
1001.194666568816
 20
253.918268696832
 30
0.0
 10
1001.262997654971
 20
253.9783276502235
 30
0.0
 10
1001.306379212311
 20
254.0206859376675
 30
0.0
 10
1001.328069990981
 20
254.0418650813896
 30
0.0
  0
ARC
  5
D3
330
1F
100
AcDbEntity
  8
0
  6
SLD-Сплошная
 62
     7
370
    35
100
AcDbCircle
 10
999.7724350724
 20
255.5975
 30
0.0
 40
1.0
100
AcDbArc
 50
270.0
 51
315.0
  0
ARC
  5
D4
330
1F
100
AcDbEntity
  8
0
  6
SLD-Сплошная
 62
     7
370
    35
100
AcDbCircle
 10
999.7724350724
 20
557.9975
 30
0.0
 40
1.0
100
AcDbArc
 50
45.0
 51
90.0
  0
SPLINE
  5
D5
330
1F
100
AcDbEntity
  8
0
  6
SLD-Сплошная
 62
     7
370
    35
100
AcDbSpline
210
0.0
220
0.0
230
1.0
 70
     8
 71
     3
 72
    19
 73
    15
 74
     0
 42
0.000000001
 43
0.00000001
 40
0.0
 40
0.0
 40
0.0
 40
0.0
 40
0.0526315789473804
 40
0.1052631578947613
 40
0.1578947368421307
 40
0.2105263157895264
 40
0.2631578947367994
 40
0.3157894736841724
 40
0.3684210526315502
 40
0.421052631578925
 40
0.4736842105263324
 40
0.5263157894736935
 40
0.5789473684210472
 40
0.6146345929553825
 40
0.6146345929553825
 40
0.6146345929553825
 40
0.6146345929553825
 10
999.7724350723702
 20
560.1974999999999
 30
0.0
 10
999.8027486852023
 20
560.1971382194589
 30
0.0
 10
999.863375910867
 20
560.1964146583766
 30
0.0
 10
999.9541613784669
 20
560.1905653772051
 30
0.0
 10
1000.044636369721
 20
560.1812391404917
 30
0.0
 10
1000.134646309626
 20
560.1681097133564
 30
0.0
 10
1000.224037417701
 20
560.1512912109977
 30
0.0
 10
1000.312656970771
 20
560.130787800975
 30
0.0
 10
1000.400353563692
 20
560.1066410955005
 30
0.0
 10
1000.486977368768
 20
560.0788905854721
 30
0.0
 10
1000.572380388958
 20
560.0475841530588
 30
0.0
 10
1000.656416721063
 20
560.0127751645684
 30
0.0
 10
1000.730086546208
 20
559.9786280918722
 30
0.0
 10
1000.775472764399
 20
559.9556465368657
 30
0.0
 10
1000.793678377541
 20
559.9461051758027
 30
0.0
  0
ARC
  5
D6
330
1F
100
AcDbEntity
  8
0
  6
SLD-Сплошная
 62
     7
370
    35
100
AcDbCircle
 10
994.3866486347
 20
557.9975
 30
0.0
 40
2.199999999999964
100
AcDbArc
 50
94.7368421056
 51
99.4736842119
  0
SPLINE
  5
D7
330
1F
100
AcDbEntity
  8
0
  6
SLD-Сплошная
 62
     7
370
    35
100
AcDbSpline
210
0.0
220
0.0
230
1.0
 70
     8
 71
     3
 72
    17
 73
    13
 74
     0
 42
0.000000001
 43
0.00000001
 40
0.0
 40
0.0
 40
0.0
 40
0.0
 40
0.0629069686059862
 40
0.1254057023705003
 40
0.1877206706777485
 40
0.2500783274497558
 40
0.3749241914317423
 40
0.5000518229139492
 40
0.6249063797705808
 40
0.7500252981879937
 40
0.8749473691556504
 40
1.0
 40
1.0
 40
1.0
 40
1.0
 10
994.0245405360729
 20
560.1674948674772
 30
0.0
 10
993.9807218320815
 20
560.1593444627711
 30
0.0
 10
993.8933687856263
 20
560.1430965454191
 30
0.0
 10
993.7647341059627
 20
560.1089821132445
 30
0.0
 10
993.6386346551315
 20
560.0678401072227
 30
0.0
 10
993.4742145349361
 20
560.0027711154046
 30
0.0
 10
993.2761122188741
 20
559.9029788645283
 30
0.0
 10
993.0548213809367
 20
559.7551881299757
 30
0.0
 10
992.8524107791773
 20
559.5820050297176
 30
0.0
 10
992.6732712989465
 20
559.3853137321537
 30
0.0
 10
992.5166539930851
 20
559.169495603912
 30
0.0
 10
992.4358072082008
 20
559.0117250523625
 30
0.0
 10
992.3953627029296
 20
558.9327985754111
 30
0.0
  0
ARC
  5
D8
330
1F
100
AcDbEntity
  8
0
  6
SLD-Сплошная
 62
     7
370
    35
100
AcDbCircle
 10
994.3866486347
 20
557.9975
 30
0.0
 40
2.200000000000022
100
AcDbArc
 50
154.8407544833
 51
165.7894736855
  0
SPLINE
  5
D9
330
1F
100
AcDbEntity
  8
0
  6
SLD-Сплошная
 62
     7
370
    35
100
AcDbSpline
210
0.0
220
0.0
230
1.0
 70
     8
 71
     3
 72
    11
 73
     7
 74
     0
 42
0.000000001
 43
0.00000001
 40
0.0
 40
0.0
 40
0.0
 40
0.0
 40
0.2503774387939551
 40
0.5000629929310899
 40
0.7499746440992571
 40
1.0
 40
1.0
 40
1.0
 40
1.0
 10
992.2539680496648
 20
558.5375680716627
 30
0.0
 10
992.243594918066
 20
558.4932212322357
 30
0.0
 10
992.2228773196339
 20
558.4046500999574
 30
0.0
 10
992.2018825919183
 20
558.2697589499805
 30
0.0
 10
992.1897299126541
 20
558.1338746883098
 30
0.0
 10
992.1876758831017
 20
558.0429651215368
 30
0.0
 10
992.1866486347433
 20
557.9975
 30
0.0
  0
SPLINE
  5
DA
330
1F
100
AcDbEntity
  8
0
  6
SLD-Сплошная
 62
     7
370
    35
100
AcDbSpline
210
0.0
220
0.0
230
1.0
 70
     8
 71
     3
 72
     9
 73
     5
 74
     0
 42
0.000000001
 43
0.00000001
 40
0.0
 40
0.0
 40
0.0
 40
0.0
 40
0.583460751762071
 40
1.0
 40
1.0
 40
1.0
 40
1.0
 10
994.3866486347432
 20
560.1975000000001
 30
0.0
 10
994.3512893078656
 20
560.196638221516
 30
0.0
 10
994.2906865564881
 20
560.1951612095974
 30
0.0
 10
994.2301781858903
 20
560.1915077104157
 30
0.0
 10
994.2049740746894
 20
560.1899858846133
 30
0.0
  0
ARC
  5
DB
330
1F
100
AcDbEntity
  8
0
  6
SLD-Сплошная
 62
     7
370
    35
100
AcDbCircle
 10
994.3866486347
 20
557.9975
 30
0.0
 40
1.0
100
AcDbArc
 50
90.0
 51
179.9999999994
  0
ARC
  5
DC
330
1F
100
AcDbEntity
  8
0
  6
SLD-Сплошная
 62
     7
370
    35
100
AcDbCircle
 10
994.3866486347
 20
255.5975
 30
0.0
 40
1.0
100
AcDbArc
 50
179.9999999991
 51
270.0
  0
ARC
  5
DD
330
1F
100
AcDbEntity
  8
0
  6
SLD-Сплошная
 62
     7
370
    35
100
AcDbCircle
 10
994.3866486347
 20
255.5975
 30
0.0
 40
2.19999999999996
100
AcDbArc
 50
179.9999999991
 51
270.0
  0
LINE
  5
DE
330
1F
100
AcDbEntity
  8
0
  6
SLD-Сплошная
 62
     7
370
    35
100
AcDbLine
 10
994.3866486347
 20
560.1975
 30
0.0
 11
999.7724350724
 21
560.1975
 31
0.0
  0
LINE
  5
DF
330
1F
100
AcDbEntity
  8
0
  6
SLD-Сплошная
 62
     7
370
    35
100
AcDbLine
 10
994.3866486347
 20
558.9975
 30
0.0
 11
999.7724350724
 21
558.9975
 31
0.0
  0
LINE
  5
E0
330
1F
100
AcDbEntity
  8
0
  6
SLD-Сплошная
 62
     7
370
    35
100
AcDbLine
 10
999.7724350724
 20
253.3975
 30
0.0
 11
994.3866486347
 21
253.3975
 31
0.0
  0
LINE
  5
E1
330
1F
100
AcDbEntity
  8
0
  6
SLD-Сплошная
 62
     7
370
    35
100
AcDbLine
 10
999.7724350724
 20
254.5975
 30
0.0
 11
994.3866486347
 21
254.5975
 31
0.0
  0
LINE
  5
E2
330
1F
100
AcDbEntity
  8
0
  6
SLD-Сплошная
 62
     7
370
    35
100
AcDbLine
 10
1000.4795418535
 20
558.7046067812
 30
0.0
 11
1002.9443650814
 21
556.2397835534
 31
0.0
  0
LINE
  5
E3
330
1F
100
AcDbEntity
  8
0
  6
SLD-Сплошная
 62
     7
370
    35
100
AcDbLine
 10
992.1866486347
 20
255.5975
 30
0.0
 11
992.1866486347
 21
257.7975
 31
0.0
  0
LINE
  5
E4
330
1F
100
AcDbEntity
  8
0
  6
SLD-Сплошная
 62
     7
370
    35
100
AcDbLine
 10
993.3866486347
 20
255.5975
 30
0.0
 11
993.3866486347
 21
257.7975
 31
0.0
  0
LINE
  5
E5
330
1F
100
AcDbEntity
  8
0
  6
SLD-Сплошная
 62
     7
370
    35
100
AcDbLine
 10
992.1866486347
 20
555.7975
 30
0.0
 11
992.1866486347
 21
557.9975
 31
0.0
  0
LINE
  5
E6
330
1F
100
AcDbEntity
  8
0
  6
SLD-Сплошная
 62
     7
370
    35
100
AcDbLine
 10
993.3866486347
 20
555.7975
 30
0.0
 11
993.3866486347
 21
557.9975
 31
0.0
  0
LINE
  5
E7
330
1F
100
AcDbEntity
  8
0
  6
SLD-Сплошная
 62
     7
370
    35
100
AcDbLine
 10
992.1866486347
 20
-337.7025647742
 30
0.0
 11
993.3866486347
 21
-337.7025647742
 31
0.0
  0
LINE
  5
E8
330
1F
100
AcDbEntity
  8
0
  6
SLD-Сплошная
 62
     7
370
    35
100
AcDbLine
 10
992.1866486347
 20
255.5975
 30
0.0
 11
992.1866486347
 21
-337.7025647742
 31
0.0
  0
LINE
  5
E9
330
1F
100
AcDbEntity
  8
0
  6
SLD-Сплошная
 62
     7
370
    35
100
AcDbLine
 10
993.3866486347
 20
253.6379082058
 30
0.0
 11
993.3866486347
 21
-337.7025647742
 31
0.0
  0
SPLINE
  5
EA
330
1F
100
AcDbEntity
  8
0
  6
SLD-Сплошная
 62
     7
370
    35
100
AcDbSpline
210
0.0
220
0.0
230
1.0
 70
    24
 71
     3
 72
    19
 73
    15
 74
     0
 42
0.000000001
 43
0.00000001
 40
0.3853654083322882
 40
0.3853654083322882
 40
0.3853654083322882
 40
0.3853654083322882
 40
0.4210526315789359
 40
0.4736842105262893
 40
0.5263157894736916
 40
0.5789473684210549
 40
0.6315789473684277
 40
0.6842105263158025
 40
0.7368421052631753
 40
0.7894736842104453
 40
0.842105263157839
 40
0.8947368421052053
 40
0.9473684210525852
 40
1.0
 40
1.0
 40
1.0
 40
1.0
 10
1000.79367837557
 20
-530.2024999999999
 30
0.0
 10
1000.775472763075
 20
-530.2024999999999
 30
0.0
 10
1000.730086545535
 20
-530.2024999999999
 30
0.0
 10
1000.656416721063
 20
-530.2024999999999
 30
0.0
 10
1000.572380388958
 20
-530.2025
 30
0.0
 10
1000.486977368768
 20
-530.2024999999999
 30
0.0
 10
1000.400353563692
 20
-530.2024999999999
 30
0.0
 10
1000.312656970771
 20
-530.2024999999999
 30
0.0
 10
1000.224037417701
 20
-530.2024999999999
 30
0.0
 10
1000.134646309626
 20
-530.2025
 30
0.0
 10
1000.044636369721
 20
-530.2024999999999
 30
0.0
 10
999.9541613784669
 20
-530.2024999999999
 30
0.0
 10
999.863375910867
 20
-530.2024999999999
 30
0.0
 10
999.8027486852023
 20
-530.2024999999999
 30
0.0
 10
999.7724350723701
 20
-530.2024999999999
 30
0.0
  0
SPLINE
  5
EB
330
1F
100
AcDbEntity
  8
0
  6
SLD-Сплошная
 62
     7
370
    35
100
AcDbSpline
210
0.0
220
0.0
230
1.0
 70
     8
 71
     3
 72
     8
 73
     4
 74
     0
 42
0.000000001
 43
0.00000001
 40
0.0
 40
0.0
 40
0.0
 40
0.0
 40
1.0
 40
1.0
 40
1.0
 40
1.0
 10
1001.328069990981
 20
-530.2014999001528
 30
0.0
 10
1001.169914893302
 20
-530.201499900162
 30
0.0
 10
1000.991785163222
 20
-530.202500000262
 30
0.0
 10
1000.79367837231
 20
-530.2025000002001
 30
0.0
  0
SPLINE
  5
EC
330
1F
100
AcDbEntity
  8
0
  6
SLD-Сплошная
 62
     7
370
    35
100
AcDbSpline
210
0.0
220
0.0
230
1.0
 70
     8
 71
     3
 72
     8
 73
     4
 74
     0
 42
0.000000001
 43
0.00000001
 40
0.0
 40
0.0
 40
0.0
 40
0.0
 40
1.0
 40
1.0
 40
1.0
 40
1.0
 10
1001.058843343887
 20
-512.2325377475062
 30
0.0
 10
1000.968953752266
 20
-512.1676887523809
 30
0.0
 10
1000.877766279565
 20
-512.097123703099
 30
0.0
 10
1000.786057127283
 20
-512.0209841796959
 30
0.0
  0
SPLINE
  5
ED
330
1F
100
AcDbEntity
  8
0
  6
SLD-Сплошная
 62
     7
370
    35
100
AcDbSpline
210
0.0
220
0.0
230
1.0
 70
     8
 71
     3
 72
    10
 73
     6
 74
     0
 42
0.000000001
 43
0.00000001
 40
0.0
 40
0.0
 40
0.0
 40
0.0
 40
0.2565560513096234
 40
0.5898555227495956
 40
1.0
 40
1.0
 40
1.0
 40
1.0
 10
1001.058843343884
 20
-512.2325377475039
 30
0.0
 10
1001.082803153586
 20
-512.249449997982
 30
0.0
 10
1001.137889852984
 20
-512.2883334477999
 30
0.0
 10
1001.229104209004
 20
-512.350511617077
 30
0.0
 10
1001.292883898609
 20
-512.3956076037329
 30
0.0
 10
1001.328069990981
 20
-512.420486237698
 30
0.0
  0
SPLINE
  5
EE
330
1F
100
AcDbEntity
  8
0
  6
SLD-Сплошная
 62
     7
370
    35
100
AcDbSpline
210
0.0
220
0.0
230
1.0
 70
     8
 71
     3
 72
    14
 73
    10
 74
     0
 42
0.000000001
 43
0.00000001
 40
0.0
 40
0.0
 40
0.0
 40
0.0
 40
0.25
 40
0.25
 40
0.5
 40
0.5
 40
0.75
 40
0.75
 40
1.0
 40
1.0
 40
1.0
 40
1.0
 10
999.7724350723701
 20
-510.3558717255403
 30
0.0
 10
999.7887020552284
 20
-510.5257817528717
 30
0.0
 10
999.8256449349492
 20
-510.6903645726937
 30
0.0
 10
999.9439951907402
 20
-511.0080136349879
 30
0.0
 10
1000.023712629525
 20
-511.1594184128603
 30
0.0
 10
1000.209656051332
 20
-511.4398554163379
 30
0.0
 10
1000.317575816041
 20
-511.5715259647735
 30
0.0
 10
1000.544499930195
 20
-511.8109609136473
 30
0.0
 10
1000.664262826188
 20
-511.9198671176803
 30
0.0
 10
1000.786057127283
 20
-512.0209841796959
 30
0.0
  0
LINE
  5
EF
330
1F
100
AcDbEntity
  8
0
  6
SLD-Сплошная
 62
     7
370
    35
100
AcDbLine
 10
999.7724350724
 20
-510.3558717255
 30
0.0
 11
999.7724350724
 21
-510.0491282745
 31
0.0
  0
LINE
  5
F0
330
1F
100
AcDbEntity
  8
0
  6
SLD-Сплошная
 62
     7
370
    35
100
AcDbLine
 10
994.3866486347
 20
-343.2025
 30
0.0
 11
999.7724350724
 21
-343.2025
 31
0.0
  0
LINE
  5
F1
330
1F
100
AcDbEntity
  8
0
  6
SLD-Сплошная
 62
     7
370
    35
100
AcDbLine
 10
994.3866486347
 20
-530.2025
 30
0.0
 11
999.7724350724
 21
-530.2025
 31
0.0
  0
LINE
  5
F2
330
1F
100
AcDbEntity
  8
0
  6
SLD-Сплошная
 62
     7
370
    35
100
AcDbLine
 10
999.7724350724
 20
-343.2025
 30
0.0
 11
1001.328069991
 21
-343.2025
 31
0.0
  0
SPLINE
  5
F3
330
1F
100
AcDbEntity
  8
0
  6
SLD-Сплошная
 62
     7
370
    35
100
AcDbSpline
210
0.0
220
0.0
230
1.0
 70
     8
 71
     3
 72
    16
 73
    12
 74
     0
 42
0.000000001
 43
0.00000001
 40
0.0
 40
0.0
 40
0.0
 40
0.0
 40
0.2500000000000078
 40
0.2500000000000078
 40
0.5000000000000155
 40
0.5000000000000155
 40
0.7500000000000233
 40
0.7500000000000233
 40
0.8750000000000117
 40
0.8750000000000117
 40
1.0
 40
1.0
 40
1.0
 40
1.0
 10
1001.328069990981
 20
-507.9845137623018
 30
0.0
 10
1001.177306323121
 20
-508.0871214952244
 30
0.0
 10
1001.013071199279
 20
-508.2010024936535
 30
0.0
 10
1000.677062520253
 20
-508.4708134540169
 30
0.0
 10
1000.508258995594
 20
-508.6236755944697
 30
0.0
 10
1000.203104021086
 20
-508.9683402151518
 30
0.0
 10
1000.065691079672
 20
-509.1628356051514
 30
0.0
 10
999.9121251393018
 20
-509.4783519754791
 30
0.0
 10
999.8677357877244
 20
-509.5888135598898
 30
0.0
 10
999.8044739389537
 20
-509.8155866013519
 30
0.0
 10
999.7882403379605
 20
-509.9323110572072
 30
0.0
 10
999.7724350723701
 20
-510.0491282744596
 30
0.0
  0
LINE
  5
F4
330
1F
100
AcDbEntity
  8
0
  6
SLD-Сплошная
 62
     7
370
    35
100
AcDbLine
 10
992.1866486347
 20
-343.2025
 30
0.0
 11
994.3866486347
 21
-343.2025
 31
0.0
  0
SPLINE
  5
F5
330
1F
100
AcDbEntity
  8
0
  6
SLD-Сплошная
 62
     7
370
    35
100
AcDbSpline
210
0.0
220
0.0
230
1.0
 70
    24
 71
     3
 72
    17
 73
    13
 74
     0
 42
0.000000001
 43
0.00000001
 40
0.0
 40
0.0
 40
0.0
 40
0.0
 40
0.0625876055769852
 40
0.1249786288422556
 40
0.1874020215074123
 40
0.2500863806019983
 40
0.3749452091276527
 40
0.5000594542860659
 40
0.6249268793628051
 40
0.7500325474373005
 40
0.8745191154525136
 40
1.0
 40
1.0
 40
1.0
 40
1.0
 10
992.3953627044772
 20
-530.2024999999973
 30
0.0
 10
992.4149047744855
 20
-530.2024999999974
 30
0.0
 10
992.4539275345334
 20
-530.2024999999976
 30
0.0
 10
992.5214247430928
 20
-530.2024999999979
 30
0.0
 10
992.5952865934581
 20
-530.2024999999985
 30
0.0
 10
992.7026042483953
 20
-530.2024999999991
 30
0.0
 10
992.8523762507073
 20
-530.2025000000001
 30
0.0
 10
993.0545024008893
 20
-530.2025000000015
 30
0.0
 10
993.275954209192
 20
-530.2025000000029
 30
0.0
 10
993.5134600939175
 20
-530.2025000000045
 30
0.0
 10
993.7636225274446
 20
-530.2025000000064
 30
0.0
 10
993.9373375329818
 20
-530.2025000000076
 30
0.0
 10
994.0245405361349
 20
-530.2025000000083
 30
0.0
  0
SPLINE
  5
F6
330
1F
100
AcDbEntity
  8
0
  6
SLD-Сплошная
 62
     7
370
    35
100
AcDbSpline
210
0.0
220
0.0
230
1.0
 70
    24
 71
     3
 72
    11
 73
     7
 74
     0
 42
0.000000001
 43
0.00000001
 40
0.0
 40
0.0
 40
0.0
 40
0.0
 40
0.2500248345186097
 40
0.4999359645416648
 40
0.7490645934881934
 40
1.0
 40
1.0
 40
1.0
 40
1.0
 10
992.1866486347433
 20
-530.2024999999962
 30
0.0
 10
992.187675233398
 20
-530.2024999999963
 30
0.0
 10
992.1897279638382
 20
-530.2024999999962
 30
0.0
 10
992.20188135259
 20
-530.2024999999962
 30
0.0
 10
992.2228293505178
 20
-530.2024999999962
 30
0.0
 10
992.2435635118169
 20
-530.2024999999963
 30
0.0
 10
992.2539680496866
 20
-530.2024999999963
 30
0.0
  0
SPLINE
  5
F7
330
1F
100
AcDbEntity
  8
0
  6
SLD-Сплошная
 62
     7
370
    35
100
AcDbSpline
210
0.0
220
0.0
230
1.0
 70
    24
 71
     3
 72
     9
 73
     5
 74
     0
 42
0.000000001
 43
0.00000001
 40
0.0
 40
0.0
 40
0.0
 40
0.0
 40
0.4165392482465231
 40
1.0
 40
1.0
 40
1.0
 40
1.0
 10
994.2049740747135
 20
-530.2025000000095
 30
0.0
 10
994.2301781859117
 20
-530.2025000000096
 30
0.0
 10
994.2906865565014
 20
-530.2025000000101
 30
0.0
 10
994.3512893078708
 20
-530.2025000000106
 30
0.0
 10
994.3866486347432
 20
-530.2025000000108
 30
0.0
  0
LINE
  5
F8
330
1F
100
AcDbEntity
  8
0
  6
SLD-Сплошная
 62
     7
370
    35
100
AcDbLine
 10
994.2049740747
 20
-530.2025
 30
0.0
 11
994.0245405361
 21
-530.2025
 31
0.0
  0
LINE
  5
F9
330
1F
100
AcDbEntity
  8
0
  6
SLD-Сплошная
 62
     7
370
    35
100
AcDbLine
 10
992.1866486347
 20
-530.2025
 30
0.0
 11
992.1866486347
 21
-343.2025
 31
0.0
  0
ARC
  5
FA
330
1F
100
AcDbEntity
  8
0
  6
SLD-Сплошная
 62
     7
370
    35
100
AcDbCircle
 10
1003.9071389812
 20
-525.6468993239
 30
0.0
 40
4.926297871252683
100
AcDbArc
 50
295.8570855409
 51
5.1756649097
  0
ARC
  5
FB
330
1F
100
AcDbEntity
  8
0
  6
SLD-Сплошная
 62
     7
370
    35
100
AcDbCircle
 10
1003.0586108438
 20
-525.646899324
 30
0.0
 40
4.926297871253445
100
AcDbArc
 50
295.8570855409
 51
5.1756649097
  0
SPLINE
  5
FC
330
1F
100
AcDbEntity
  8
0
  6
SLD-Сплошная
 62
     7
370
    35
100
AcDbSpline
210
0.0
220
0.0
230
1.0
 70
     8
 71
     3
 72
    14
 73
    10
 74
     0
 42
0.000000001
 43
0.00000001
 40
0.0
 40
0.0
 40
0.0
 40
0.0
 40
0.25
 40
0.25
 40
0.5
 40
0.5
 40
0.75
 40
0.75
 40
1.0
 40
1.0
 40
1.0
 40
1.0
 10
1005.207106781168
 20
-530.0799993592896
 30
0.0
 10
1005.11555024624
 20
-530.109200499519
 30
0.0
 10
1005.00701922713
 20
-530.1325899554661
 30
0.0
 10
1004.766290958096
 20
-530.1678095961895
 30
0.0
 10
1004.635291419605
 20
-530.1794068877574
 30
0.0
 10
1004.373506917952
 20
-530.1941788677651
 30
0.0
 10
1004.241190667392
 20
-530.1975660798829
 30
0.0
 10
1003.999022384407
 20
-530.2011463327391
 30
0.0
 10
1003.886774360103
 20
-530.2014999000027
 30
0.0
 10
1003.792893218794
 20
-530.2014999000081
 30
0.0
  0
LINE
  5
FD
330
1F
100
AcDbEntity
  8
0
  6
SLD-Сплошная
 62
     7
370
    35
100
AcDbLine
 10
1003.7928932188
 20
-530.2014999
 30
0.0
 11
1001.328069991
 21
-530.2014999002
 31
0.0
  0
LINE
  5
FE
330
1F
100
AcDbEntity
  8
0
  6
SLD-Сплошная
 62
     7
370
    35
100
AcDbLine
 10
1001.2573593129
 20
-530.2025
 30
0.0
 11
1003.7221825407
 21
-530.2025
 31
0.0
  0
LINE
  5
FF
330
1F
100
AcDbEntity
  8
0
  6
SLD-Сплошная
 62
     7
370
    35
100
AcDbLine
 10
1003.7221825407
 20
-530.2025
 30
0.0
 11
1005.0694258984
 21
-530.2024999999
 31
0.0
  0
SPLINE
  5
100
330
1F
100
AcDbEntity
  8
0
  6
SLD-Сплошная
 62
     7
370
    35
100
AcDbSpline
210
0.0
220
0.0
230
1.0
 70
     8
 71
     3
 72
    10
 73
     6
 74
     0
 42
0.000000001
 43
0.00000001
 40
0.0
 40
0.0
 40
0.0
 40
0.0
 40
0.5
 40
0.5
 40
1.0
 40
1.0
 40
1.0
 40
1.0
 10
1005.069418290698
 20
-530.2024999999275
 30
0.0
 10
1005.257670023978
 20
-530.2024995038277
 30
0.0
 10
1005.434930526289
 20
-530.1939889380093
 30
0.0
 10
1005.767959016114
 20
-530.1542001805152
 30
0.0
 10
1005.921182914063
 20
-530.1228816269174
 30
0.0
 10
1006.055634918597
 20
-530.0799993592377
 30
0.0
  0
LINE
  5
101
330
1F
100
AcDbEntity
  8
0
  6
SLD-Сплошная
 62
     7
370
    35
100
AcDbLine
 10
1000.7936783756
 20
-530.2025
 30
0.0
 11
1001.2573593129
 21
-530.2025
 31
0.0
  0
LINE
  5
102
330
1F
100
AcDbEntity
  8
0
  6
SLD-Сплошная
 62
     7
370
    35
100
AcDbLine
 10
1007.9648232278
 20
-525.2025
 30
0.0
 11
1007.9648232278
 21
-348.2025
 31
0.0
  0
LINE
  5
103
330
1F
100
AcDbEntity
  8
0
  6
SLD-Сплошная
 62
     7
370
    35
100
AcDbLine
 10
1008.8133513652
 20
-525.2024999999
 30
0.0
 11
1008.8133513652
 21
-348.2025
 31
0.0
  0
ARC
  5
104
330
1F
100
AcDbEntity
  8
0
  6
SLD-Сплошная
 62
     7
370
    35
100
AcDbCircle
 10
1003.0586108438
 20
-347.758100676
 30
0.0
 40
4.926297871252586
100
AcDbArc
 50
354.8243350903
 51
64.1429144591
  0
ARC
  5
105
330
1F
100
AcDbEntity
  8
0
  6
SLD-Сплошная
 62
     7
370
    35
100
AcDbCircle
 10
1003.9071389812
 20
-347.758100676
 30
0.0
 40
4.926297871293648
100
AcDbArc
 50
354.8243350905
 51
64.1429144585
  0
LINE
  5
106
330
1F
100
AcDbEntity
  8
0
  6
SLD-Сплошная
 62
     7
370
    35
100
AcDbLine
 10
1006.0556349186
 20
-343.3250006407
 30
0.0
 11
1005.2071067812
 21
-343.3250006407
 31
0.0
  0
ARC
  5
107
330
1F
100
AcDbEntity
  8
0
  6
SLD-Сплошная
 62
     7
370
    35
100
AcDbCircle
 10
1002.4874209306
 20
-511.3885962606
 30
0.0
 40
1.55206041312784
100
AcDbArc
 50
221.6709478884
 51
327.2587992148
  0
LINE
  5
108
330
1F
100
AcDbEntity
  8
0
  6
SLD-Сплошная
 62
     7
370
    35
100
AcDbLine
 10
1002.9443650814
 20
-512.2280208438
 30
0.0
 11
1003.7928932188
 21
-512.2280208438
 31
0.0
  0
ARC
  5
109
330
1F
100
AcDbEntity
  8
0
  6
SLD-Сплошная
 62
     7
370
    35
100
AcDbCircle
 10
1001.4781136051
 20
-511.1754190906
 30
0.0
 40
1.80495535743583
100
AcDbArc
 50
288.5852032864
 51
324.3259541542
  0
ARC
  5
10A
330
1F
100
AcDbEntity
  8
0
  6
SLD-Сплошная
 62
     7
370
    35
100
AcDbCircle
 10
1002.4874209306
 20
-509.0164037394
 30
0.0
 40
1.552060413128059
100
AcDbArc
 50
32.7412007852
 51
138.3290521116
  0
ARC
  5
10B
330
1F
100
AcDbEntity
  8
0
  6
SLD-Сплошная
 62
     7
370
    35
100
AcDbCircle
 10
1001.4781136051
 20
-509.2295809093
 30
0.0
 40
1.80495535742763
100
AcDbArc
 50
35.6740458457
 51
71.4147967137
  0
LINE
  5
10C
330
1F
100
AcDbEntity
  8
0
  6
SLD-Сплошная
 62
     7
370
    35
100
AcDbLine
 10
1002.9443650814
 20
-508.1769791562
 30
0.0
 11
1003.7928932188
 21
-508.1769791562
 31
0.0
  0
LINE
  5
10D
330
1F
100
AcDbEntity
  8
0
  6
SLD-Сплошная
 62
     7
370
    35
100
AcDbLine
 10
1001.328069991
 20
-343.2025
 30
0.0
 11
1003.7928932188
 21
-343.2025
 31
0.0
  0
LINE
  5
10E
330
1F
100
AcDbEntity
  8
0
  6
SLD-Сплошная
 62
     7
370
    35
100
AcDbLine
 10
992.1866486347
 20
-555.2025
 30
0.0
 11
992.1866486347
 21
-530.2025
 31
0.0
  0
LINE
  5
10F
330
1F
100
AcDbEntity
  8
0
  6
SLD-Сплошная
 62
     7
370
    35
100
AcDbLine
 10
993.3866486347
 20
-555.2025
 30
0.0
 11
993.3866486347
 21
-530.2025
 31
0.0
  0
LINE
  5
110
330
1F
100
AcDbEntity
  8
0
  6
SLD-Сплошная
 62
     7
370
    35
100
AcDbLine
 10
992.1866486347
 20
-560.2025
 30
0.0
 11
993.3866486347
 21
-560.2025
 31
0.0
  0
LINE
  5
111
330
1F
100
AcDbEntity
  8
0
  6
SLD-Сплошная
 62
     7
370
    35
100
AcDbLine
 10
992.1866486347
 20
-555.2025
 30
0.0
 11
992.1866486347
 21
-560.2025
 31
0.0
  0
LINE
  5
112
330
1F
100
AcDbEntity
  8
0
  6
SLD-Сплошная
 62
     7
370
    35
100
AcDbLine
 10
993.3866486347
 20
-560.2025
 30
0.0
 11
993.3866486347
 21
-555.2025
 31
0.0
  0
SPLINE
  5
113
330
1F
100
AcDbEntity
  8
0
  6
SLD-Сплошная
 62
     7
370
    35
100
AcDbSpline
210
0.0
220
0.0
230
1.0
 70
     8
 71
     3
 72
    18
 73
    14
 74
     0
 42
0.000000001
 43
0.00000001
 40
0.0
 40
0.0
 40
0.0
 40
0.0
 40
0.1250000000000067
 40
0.1250000000000067
 40
0.2500000000000134
 40
0.2500000000000134
 40
0.5000000000000173
 40
0.5000000000000173
 40
0.7500000000000212
 40
0.7500000000000212
 40
0.8750000000000105
 40
0.8750000000000105
 40
1.0
 40
1.0
 40
1.0
 40
1.0
 10
1003.792893218795
 20
-508.1769791561921
 30
0.0
 10
1003.860384118042
 20
-508.3049519469261
 30
0.0
 10
1003.929255863066
 20
-508.4379034546618
 30
0.0
 10
1004.053243441321
 20
-508.7183539494474
 30
0.0
 10
1004.109861580919
 20
-508.8661737220256
 30
0.0
 10
1004.251328157531
 20
-509.3151843828976
 30
0.0
 10
1004.30979171874
 20
-509.6237556611094
 30
0.0
 10
1004.351695281519
 20
-510.2573084290135
 30
0.0
 10
1004.334847979867
 20
-510.5713869210666
 30
0.0
 10
1004.25373799866
 20
-511.0366195872977
 30
0.0
 10
1004.21690879281
 20
-511.1916356183282
 30
0.0
 10
1004.125994091181
 20
-511.4931264904084
 30
0.0
 10
1004.071564124457
 20
-511.6399263921364
 30
0.0
 10
1004.010485840524
 20
-511.7828176180603
 30
0.0
  0
SPLINE
  5
114
330
1F
100
AcDbEntity
  8
0
  6
SLD-Сплошная
 62
     7
370
    35
100
AcDbSpline
210
0.0
220
0.0
230
1.0
 70
     8
 71
     3
 72
    26
 73
    22
 74
     0
 42
0.000000001
 43
0.00000001
 40
0.0
 40
0.0
 40
0.0
 40
0.0
 40
0.0624999999999864
 40
0.0624999999999864
 40
0.1249999999999728
 40
0.1249999999999728
 40
0.249999999999982
 40
0.249999999999982
 40
0.3749999999999911
 40
0.3749999999999911
 40
0.5000000000000002
 40
0.5000000000000002
 40
0.6250000000000093
 40
0.6250000000000093
 40
0.7500000000000184
 40
0.7500000000000184
 40
0.8750000000000276
 40
0.8750000000000276
 40
0.9375000000000138
 40
0.9375000000000138
 40
1.0
 40
1.0
 40
1.0
 40
1.0
 10
1002.944365081371
 20
-508.1769791561921
 30
0.0
 10
1003.008254030372
 20
-508.2320108814296
 30
0.0
 10
1003.07550726044
 20
-508.288414275062
 30
0.0
 10
1003.211899252515
 20
-508.4118043753647
 30
0.0
 10
1003.282038201213
 20
-508.4782102236973
 30
0.0
 10
1003.489063178372
 20
-508.6870913502001
 30
0.0
 10
1003.623029541478
 20
-508.8398477454371
 30
0.0
 10
1003.862561383987
 20
-509.1842287783595
 30
0.0
 10
1003.964377526563
 20
-509.3711859386449
 30
0.0
 10
1004.107254684442
 20
-509.7738731867877
 30
0.0
 10
1004.146364340296
 20
-509.9853398610261
 30
0.0
 10
1004.146944233819
 20
-510.4144619403769
 30
0.0
 10
1004.108671877233
 20
-510.625613549603
 30
0.0
 10
1003.966286759821
 20
-511.0298966895235
 30
0.0
 10
1003.864944417433
 20
-511.2168591027787
 30
0.0
 10
1003.625061761857
 20
-511.5627350157067
 30
0.0
 10
1003.490334423045
 20
-511.7163183160354
 30
0.0
 10
1003.283224414269
 20
-511.9262040349822
 30
0.0
 10
1003.213056704372
 20
-511.9924909356035
 30
0.0
 10
1003.075516994762
 20
-512.1145488221164
 30
0.0
 10
1003.007976713596
 20
-512.1711528344741
 30
0.0
 10
1002.944365081371
 20
-512.2280208438078
 30
0.0
  0
SPLINE
  5
115
330
1F
100
AcDbEntity
  8
0
  6
SLD-Сплошная
 62
     7
370
    35
100
AcDbSpline
210
0.0
220
0.0
230
1.0
 70
     8
 71
     3
 72
     8
 73
     4
 74
     0
 42
0.000000001
 43
0.00000001
 40
0.0
 40
0.0
 40
0.0
 40
0.0
 40
1.0
 40
1.0
 40
1.0
 40
1.0
 10
1003.902775190128
 20
-512.0159626126301
 30
0.0
 10
1003.866262266368
 20
-512.0887089639077
 30
0.0
 10
1003.828190402071
 20
-512.158276311777
 30
0.0
 10
1003.792893218795
 20
-512.2280208438079
 30
0.0
  0
SPLINE
  5
116
330
1F
100
AcDbEntity
  8
0
  6
SLD-Сплошная
 62
     7
370
    35
100
AcDbSpline
210
0.0
220
0.0
230
1.0
 70
     8
 71
     3
 72
     9
 73
     5
 74
     0
 42
0.000000001
 43
0.00000001
 40
0.0596253034076224
 40
0.0596253034076224
 40
0.0596253034076224
 40
0.0596253034076224
 40
0.1060440209340296
 40
0.121372565078699
 40
0.121372565078699
 40
0.121372565078699
 40
0.121372565078699
 10
1004.010485840524
 20
-511.7828176180603
 30
0.0
 10
1003.98477123076
 20
-511.8427744579128
 30
0.0
 10
1003.949038367375
 20
-511.9213768267241
 30
0.0
 10
1003.912026709278
 20
-511.9973025184452
 30
0.0
 10
1003.902775190126
 20
-512.0159626126343
 30
0.0
  0
LINE
  5
117
330
1F
100
AcDbEntity
  8
0
  6
SLD-Сплошная
 62
     7
370
    35
100
AcDbLine
 10
1005.2071067812
 20
-343.3250006407
 30
0.0
 11
1005.2071067812
 21
-343.2025
 31
0.0
  0
LINE
  5
118
330
1F
100
AcDbEntity
  8
0
  6
SLD-Сплошная
 62
     7
370
    35
100
AcDbLine
 10
1003.7928932188
 20
-343.2025
 30
0.0
 11
1005.2071067812
 21
-343.2025
 31
0.0
  0
LINE
  5
119
330
1F
100
AcDbEntity
  8
0
  6
SLD-Сплошная
 62
     7
370
    35
100
AcDbLine
 10
1006.0556349186
 20
-343.2025
 30
0.0
 11
1005.2071067812
 21
-343.2025
 31
0.0
  0
LINE
  5
11A
330
1F
100
AcDbEntity
  8
0
  6
SLD-Сплошная
 62
     7
370
    35
100
AcDbLine
 10
1006.0556349186
 20
-343.3250006407
 30
0.0
 11
1006.0556349186
 21
-343.2025
 31
0.0
  0
LINE
  5
11B
330
1F
100
AcDbEntity
  8
0
  6
SLD-Сплошная
 62
     7
370
    35
100
AcDbLine
 10
992.1866486347
 20
-337.7025647742
 30
0.0
 11
992.1866486347
 21
-343.2025
 31
0.0
  0
LINE
  5
11C
330
1F
100
AcDbEntity
  8
0
  6
SLD-Сплошная
 62
     7
370
    35
100
AcDbLine
 10
993.3866486347
 20
-337.7025647742
 30
0.0
 11
993.3866486347
 21
-343.2025
 31
0.0
  0
LINE
  5
11D
330
1F
100
AcDbEntity
  8
0
  6
SLD-Сплошная
 62
     7
370
    35
100
AcDbLine
 10
991.1866486348
 20
-538.2025008432
 30
0.0
 11
991.1866486348
 21
-552.2025
 31
0.0
  0
LINE
  5
11E
330
1F
100
AcDbEntity
  8
0
  6
SLD-Сплошная
 62
     7
370
    35
100
AcDbLine
 10
993.9866486349
 20
-548.4525
 30
0.0
 11
993.9866486349
 21
-541.9525
 31
0.0
  0
LINE
  5
11F
330
1F
100
AcDbEntity
  8
0
  6
SLD-Сплошная
 62
     7
370
    35
100
AcDbLine
 10
1002.9443650814
 20
-512.2280208438
 30
0.0
 11
1003.285010557
 21
-511.9229533323
 31
0.0
  0
ARC
  5
120
330
1F
100
AcDbEntity
  8
0
  6
SLD-Сплошная
 62
     7
370
    35
100
AcDbCircle
 10
-553.9480844123
 20
-991.8866486348
 30
0.0
 40
0.3000000000000682
100
AcDbArc
 50
270.0
 51
315.0
  0
ARC
  5
121
330
1F
100
AcDbEntity
  8
0
  6
SLD-Сплошная
 62
     7
370
    35
100
AcDbCircle
 10
-536.4569155877
 20
-991.8866486348
 30
0.0
 40
0.3000000000000682
100
AcDbArc
 50
225.0
 51
270.0
  0
LINE
  5
122
330
1F
100
AcDbEntity
  8
0
  6
SLD-Сплошная
 62
     7
370
    35
100
AcDbLine
 10
-553.7359523779
 20
-992.0987806692
 30
0.0
 11
-553.2631601718
 21
-991.6259884631
 31
0.0
  0
LINE
  5
123
330
1F
100
AcDbEntity
  8
0
  6
SLD-Сплошная
 62
     7
370
    35
100
AcDbLine
 10
-537.1418398282
 20
-991.6259884631
 30
0.0
 11
-536.6690476221
 21
-992.0987806692
 31
0.0
  0
ARC
  5
124
330
1F
100
AcDbEntity
  8
0
  6
SLD-Сплошная
 62
     7
370
    35
100
AcDbCircle
 10
-538.2025
 20
-992.6866486348
 30
0.0
 40
1.499999999999932
100
AcDbArc
 50
45.0
 51
90.0
  0
ARC
  5
125
330
1F
100
AcDbEntity
  8
0
  6
SLD-Сплошная
 62
     7
370
    35
100
AcDbCircle
 10
-552.2025
 20
-992.6866486348
 30
0.0
 40
1.500000000000093
100
AcDbArc
 50
90.0
 51
135.0
  0
LINE
  5
126
330
1F
100
AcDbEntity
  8
0
  6
SLD-Сплошная
 62
     7
370
    35
100
AcDbLine
 10
-541.9525
 20
-993.3866486347
 30
0.0
 11
-541.9525
 21
-993.986648635
 31
0.0
  0
LINE
  5
127
330
1F
100
AcDbEntity
  8
0
  6
SLD-Сплошная
 62
     7
370
    35
100
AcDbLine
 10
-548.4525
 20
-993.986648635
 30
0.0
 11
-548.4525
 21
-993.3866486347
 31
0.0
  0
ARC
  5
128
330
1F
100
AcDbEntity
  8
0
  6
SLD-Сплошная
 62
     7
370
    35
100
AcDbCircle
 10
398.0519155877
 20
-991.8866486348
 30
0.0
 40
0.3000000000000682
100
AcDbArc
 50
270.0
 51
315.0
  0
ARC
  5
129
330
1F
100
AcDbEntity
  8
0
  6
SLD-Сплошная
 62
     7
370
    35
100
AcDbCircle
 10
415.5430844123
 20
-991.8866486348
 30
0.0
 40
0.3000000000000682
100
AcDbArc
 50
225.0
 51
270.0
  0
LINE
  5
12A
330
1F
100
AcDbEntity
  8
0
  6
SLD-Сплошная
 62
     7
370
    35
100
AcDbLine
 10
398.2640476221
 20
-992.0987806691
 30
0.0
 11
398.7368398282
 21
-991.625988463
 31
0.0
  0
LINE
  5
12B
330
1F
100
AcDbEntity
  8
0
  6
SLD-Сплошная
 62
     7
370
    35
100
AcDbLine
 10
414.8581601718
 20
-991.625988463
 30
0.0
 11
415.3309523779
 21
-992.0987806691
 31
0.0
  0
ARC
  5
12C
330
1F
100
AcDbEntity
  8
0
  6
SLD-Сплошная
 62
     7
370
    35
100
AcDbCircle
 10
413.7975
 20
-992.6866486348
 30
0.0
 40
1.500000000000012
100
AcDbArc
 50
45.0
 51
90.0
  0
ARC
  5
12D
330
1F
100
AcDbEntity
  8
0
  6
SLD-Сплошная
 62
     7
370
    35
100
AcDbCircle
 10
399.7975
 20
-992.6866486348
 30
0.0
 40
1.499999999999972
100
AcDbArc
 50
90.0
 51
135.0
  0
LINE
  5
12E
330
1F
100
AcDbEntity
  8
0
  6
SLD-Сплошная
 62
     7
370
    35
100
AcDbLine
 10
403.5475
 20
-993.9866486349
 30
0.0
 11
403.5475
 21
-993.3866486347
 31
0.0
  0
LINE
  5
12F
330
1F
100
AcDbEntity
  8
0
  6
SLD-Сплошная
 62
     7
370
    35
100
AcDbLine
 10
410.0475
 20
-993.3866486347
 30
0.0
 11
410.0475
 21
-993.9866486349
 31
0.0
  0
SPLINE
  5
130
330
1F
100
AcDbEntity
  8
0
  6
SLD-Сплошная
 62
     7
370
    35
100
AcDbSpline
210
0.0
220
0.0
230
1.0
 70
     8
 71
     3
 72
    10
 73
     6
 74
     0
 42
0.000000001
 43
0.00000001
 40
0.0
 40
0.0
 40
0.0
 40
0.0
 40
0.2565560513083389
 40
0.58985552274828
 40
0.9999999999999999
 40
0.9999999999999999
 40
0.9999999999999999
 40
0.9999999999999999
 10
-512.232537747506
 20
-1001.058843343886
 30
0.0
 10
-512.2494499979837
 20
-1001.082803153588
 30
0.0
 10
-512.288333447801
 20
-1001.137889852985
 30
0.0
 10
-512.3505116170774
 20
-1001.229104209004
 30
0.0
 10
-512.3956076037329
 20
-1001.292883898608
 30
0.0
 10
-512.4204862376978
 20
-1001.328069990979
 30
0.0
  0
SPLINE
  5
131
330
1F
100
AcDbEntity
  8
0
  6
SLD-Сплошная
 62
     7
370
    35
100
AcDbSpline
210
0.0
220
0.0
230
1.0
 70
     8
 71
     3
 72
     8
 73
     4
 74
     0
 42
0.000000001
 43
0.00000001
 40
0.0
 40
0.0
 40
0.0
 40
0.0
 40
1.0
 40
1.0
 40
1.0
 40
1.0
 10
-512.2325377475105
 20
-1001.058843343892
 30
0.0
 10
-512.1676887523851
 20
-1000.968953752271
 30
0.0
 10
-512.0971237031029
 20
-1000.877766279569
 30
0.0
 10
-512.0209841796996
 20
-1000.786057127287
 30
0.0
  0
SPLINE
  5
132
330
1F
100
AcDbEntity
  8
0
  6
SLD-Сплошная
 62
     7
370
    35
100
AcDbSpline
210
0.0
220
0.0
230
1.0
 70
     8
 71
     3
 72
    14
 73
    10
 74
     0
 42
0.000000001
 43
0.00000001
 40
0.0
 40
0.0
 40
0.0
 40
0.0
 40
0.25
 40
0.25
 40
0.5
 40
0.5
 40
0.75
 40
0.75
 40
1.0
 40
1.0
 40
1.0
 40
1.0
 10
-510.3558717255335
 20
-999.7724350723689
 30
0.0
 10
-510.5257817528661
 20
-999.7887020552267
 30
0.0
 10
-510.6903645726892
 20
-999.8256449349474
 30
0.0
 10
-511.0080136349858
 20
-999.9439951907384
 30
0.0
 10
-511.1594184128591
 20
-1000.023712629524
 30
0.0
 10
-511.4398554163386
 20
-1000.209656051332
 30
0.0
 10
-511.571525964775
 20
-1000.317575816042
 30
0.0
 10
-511.8109609136498
 20
-1000.544499930197
 30
0.0
 10
-511.9198671176836
 20
-1000.664262826191
 30
0.0
 10
-512.0209841796996
 20
-1000.786057127287
 30
0.0
  0
SPLINE
  5
133
330
1F
100
AcDbEntity
  8
0
  6
SLD-Сплошная
 62
     7
370
    35
100
AcDbSpline
210
0.0
220
0.0
230
1.0
 70
    24
 71
     3
 72
    19
 73
    15
 74
     0
 42
0.000000001
 43
0.00000001
 40
0.0
 40
0.0
 40
0.0
 40
0.0
 40
0.0526315789473804
 40
0.1052631578947613
 40
0.1578947368421307
 40
0.2105263157895264
 40
0.2631578947367994
 40
0.3157894736841724
 40
0.3684210526315502
 40
0.421052631578925
 40
0.4736842105263324
 40
0.5263157894736935
 40
0.5789473684210472
 40
0.6146345929553825
 40
0.6146345929553825
 40
0.6146345929553825
 40
0.6146345929553825
 10
-530.2024999999999
 20
-999.7724350723689
 30
0.0
 10
-530.2024999999999
 20
-999.8027486852012
 30
0.0
 10
-530.2024999999999
 20
-999.8633759108658
 30
0.0
 10
-530.2025
 20
-999.9541613784658
 30
0.0
 10
-530.2024999999999
 20
-1000.04463636972
 30
0.0
 10
-530.2024999999999
 20
-1000.134646309625
 30
0.0
 10
-530.2025000000001
 20
-1000.2240374177
 30
0.0
 10
-530.2024999999999
 20
-1000.31265697077
 30
0.0
 10
-530.2025
 20
-1000.400353563691
 30
0.0
 10
-530.2025
 20
-1000.486977368767
 30
0.0
 10
-530.2024999999999
 20
-1000.572380388957
 30
0.0
 10
-530.2024999999999
 20
-1000.656416721062
 30
0.0
 10
-530.2024999999999
 20
-1000.730086546207
 30
0.0
 10
-530.2025
 20
-1000.775472764397
 30
0.0
 10
-530.2025
 20
-1000.79367837754
 30
0.0
  0
SPLINE
  5
134
330
1F
100
AcDbEntity
  8
0
  6
SLD-Сплошная
 62
     7
370
    35
100
AcDbSpline
210
0.0
220
0.0
230
1.0
 70
     8
 71
     3
 72
     8
 73
     4
 74
     0
 42
0.000000001
 43
0.00000001
 40
0.0
 40
0.0
 40
0.0
 40
0.0
 40
1.0
 40
1.0
 40
1.0
 40
1.0
 10
-530.201499899981
 20
-1001.328069990979
 30
0.0
 10
-530.201499899981
 20
-1001.169914893837
 30
0.0
 10
-530.2025000000629
 20
-1000.991785164415
 30
0.0
 10
-530.2025000000008
 20
-1000.793678374279
 30
0.0
  0
LINE
  5
135
330
1F
100
AcDbEntity
  8
0
  6
SLD-Сплошная
 62
     7
370
    35
100
AcDbLine
 10
-343.2025
 20
-992.1866486347
 30
0.0
 11
-343.2025
 21
-994.3866486347
 31
0.0
  0
LINE
  5
136
330
1F
100
AcDbEntity
  8
0
  6
SLD-Сплошная
 62
     7
370
    35
100
AcDbLine
 10
-530.2025
 20
-992.1866486347
 30
0.0
 11
-343.2025
 21
-992.1866486347
 31
0.0
  0
LINE
  5
137
330
1F
100
AcDbEntity
  8
0
  6
SLD-Сплошная
 62
     7
370
    35
100
AcDbLine
 10
-530.2025
 20
-992.395363338
 30
0.0
 11
-530.2025
 21
-992.2539680497
 31
0.0
  0
SPLINE
  5
138
330
1F
100
AcDbEntity
  8
0
  6
SLD-Сплошная
 62
     7
370
    35
100
AcDbSpline
210
0.0
220
0.0
230
1.0
 70
    24
 71
     3
 72
    17
 73
    13
 74
     0
 42
0.000000001
 43
0.00000001
 40
0.0
 40
0.0
 40
0.0
 40
0.0
 40
0.0629069686059862
 40
0.1254057023705003
 40
0.1877206706777485
 40
0.2500783274497558
 40
0.3749241914317423
 40
0.5000518229139492
 40
0.6249063797705808
 40
0.7500252981879937
 40
0.8749473691556504
 40
1.0
 40
1.0
 40
1.0
 40
1.0
 10
-530.2025000000117
 20
-994.0245405360718
 30
0.0
 10
-530.2025000000112
 20
-993.9807218320805
 30
0.0
 10
-530.2025000000103
 20
-993.8933687856251
 30
0.0
 10
-530.2025000000091
 20
-993.7647341059615
 30
0.0
 10
-530.202500000008
 20
-993.6386346551302
 30
0.0
 10
-530.2025000000062
 20
-993.4742145349348
 30
0.0
 10
-530.2025000000042
 20
-993.2761122188729
 30
0.0
 10
-530.202500000002
 20
-993.0548213809354
 30
0.0
 10
-530.2025000000002
 20
-992.8524107791761
 30
0.0
 10
-530.2024999999985
 20
-992.6732712989452
 30
0.0
 10
-530.202499999997
 20
-992.5166539930839
 30
0.0
 10
-530.2024999999963
 20
-992.4358072081995
 30
0.0
 10
-530.202499999996
 20
-992.3953627029284
 30
0.0
  0
LINE
  5
139
330
1F
100
AcDbEntity
  8
0
  6
SLD-Сплошная
 62
     7
370
    35
100
AcDbLine
 10
-530.2025
 20
-994.2049740747
 30
0.0
 11
-530.2025
 21
-994.0245405361
 31
0.0
  0
SPLINE
  5
13A
330
1F
100
AcDbEntity
  8
0
  6
SLD-Сплошная
 62
     7
370
    35
100
AcDbSpline
210
0.0
220
0.0
230
1.0
 70
    24
 71
     3
 72
     9
 73
     5
 74
     0
 42
0.000000001
 43
0.00000001
 40
0.0
 40
0.0
 40
0.0
 40
0.0
 40
0.583460751762071
 40
1.0
 40
1.0
 40
1.0
 40
1.0
 10
-530.2025000000154
 20
-994.3866486347421
 30
0.0
 10
-530.202500000015
 20
-994.3512893078645
 30
0.0
 10
-530.2025000000144
 20
-994.2906865564869
 30
0.0
 10
-530.2025000000137
 20
-994.2301781858891
 30
0.0
 10
-530.2025000000134
 20
-994.2049740746883
 30
0.0
  0
LINE
  5
13B
330
1F
100
AcDbEntity
  8
0
  6
SLD-Сплошная
 62
     7
370
    35
100
AcDbLine
 10
-343.2025
 20
-999.7724350724
 30
0.0
 11
-343.2025
 21
-1001.328069991
 31
0.0
  0
SPLINE
  5
13C
330
1F
100
AcDbEntity
  8
0
  6
SLD-Сплошная
 62
     7
370
    35
100
AcDbSpline
210
0.0
220
0.0
230
1.0
 70
     8
 71
     3
 72
    16
 73
    12
 74
     0
 42
0.000000001
 43
0.00000001
 40
0.0
 40
0.0
 40
0.0
 40
0.0
 40
0.2499999999999933
 40
0.2499999999999933
 40
0.4999999999999867
 40
0.4999999999999867
 40
0.74999999999998
 40
0.74999999999998
 40
0.87499999999999
 40
0.87499999999999
 40
1.0
 40
1.0
 40
1.0
 40
1.0
 10
-507.9845137623021
 20
-1001.328069990979
 30
0.0
 10
-508.0871214952249
 20
-1001.177306323119
 30
0.0
 10
-508.2010024936543
 20
-1001.013071199278
 30
0.0
 10
-508.4708134540184
 20
-1000.67706252025
 30
0.0
 10
-508.623675594472
 20
-1000.508258995592
 30
0.0
 10
-508.9683402151551
 20
-1000.203104021083
 30
0.0
 10
-509.1628356051553
 20
-1000.065691079669
 30
0.0
 10
-509.4783519754841
 20
-999.912125139299
 30
0.0
 10
-509.5888135598952
 20
-999.8677357877218
 30
0.0
 10
-509.8155866013578
 20
-999.8044739389519
 30
0.0
 10
-509.9323110572137
 20
-999.788240337959
 30
0.0
 10
-510.0491282744661
 20
-999.7724350723689
 30
0.0
  0
LINE
  5
13D
330
1F
100
AcDbEntity
  8
0
  6
SLD-Сплошная
 62
     7
370
    35
100
AcDbLine
 10
-343.2025
 20
-994.3866486347
 30
0.0
 11
-343.2025
 21
-999.7724350724
 31
0.0
  0
LINE
  5
13E
330
1F
100
AcDbEntity
  8
0
  6
SLD-Сплошная
 62
     7
370
    35
100
AcDbLine
 10
-510.3558717255
 20
-999.7724350724
 30
0.0
 11
-510.0491282745
 21
-999.7724350724
 31
0.0
  0
LINE
  5
13F
330
1F
100
AcDbEntity
  8
0
  6
SLD-Сплошная
 62
     7
370
    35
100
AcDbLine
 10
-530.2025
 20
-994.3866486347
 30
0.0
 11
-530.2025
 21
-999.7724350724
 31
0.0
  0
ARC
  5
140
330
1F
100
AcDbEntity
  8
0
  6
SLD-Сплошная
 62
     7
370
    35
100
AcDbCircle
 10
-525.646899324
 20
-1003.9071389812
 30
0.0
 40
4.926297871251818
100
AcDbArc
 50
205.8570855408
 51
275.1756649097
  0
ARC
  5
141
330
1F
100
AcDbEntity
  8
0
  6
SLD-Сплошная
 62
     7
370
    35
100
AcDbCircle
 10
-525.646899324
 20
-1003.0586108438
 30
0.0
 40
4.926297871252251
100
AcDbArc
 50
205.8570855408
 51
275.1756649097
  0
SPLINE
  5
142
330
1F
100
AcDbEntity
  8
0
  6
SLD-Сплошная
 62
     7
370
    35
100
AcDbSpline
210
0.0
220
0.0
230
1.0
 70
     8
 71
     3
 72
    14
 73
    10
 74
     0
 42
0.000000001
 43
0.00000001
 40
0.0
 40
0.0
 40
0.0
 40
0.0
 40
0.25
 40
0.25
 40
0.5
 40
0.5
 40
0.75
 40
0.75
 40
1.0
 40
1.0
 40
1.0
 40
1.0
 10
-530.0799993593041
 20
-1005.207106781167
 30
0.0
 10
-530.1092004995338
 20
-1005.115550246239
 30
0.0
 10
-530.1325899554797
 20
-1005.007019227129
 30
0.0
 10
-530.1678095961992
 20
-1004.766290958095
 30
0.0
 10
-530.179406887764
 20
-1004.635291419603
 30
0.0
 10
-530.194178867764
 20
-1004.37350691795
 30
0.0
 10
-530.1975660798771
 20
-1004.24119066739
 30
0.0
 10
-530.201146332723
 20
-1003.999022384404
 30
0.0
 10
-530.2014998999812
 20
-1003.886774360099
 30
0.0
 10
-530.2014998999812
 20
-1003.792893218791
 30
0.0
  0
LINE
  5
143
330
1F
100
AcDbEntity
  8
0
  6
SLD-Сплошная
 62
     7
370
    35
100
AcDbLine
 10
-530.2014999
 20
-1003.7928932188
 30
0.0
 11
-530.2014999
 21
-1001.328069991
 31
0.0
  0
LINE
  5
144
330
1F
100
AcDbEntity
  8
0
  6
SLD-Сплошная
 62
     7
370
    35
100
AcDbLine
 10
-530.2025
 20
-1001.2573593129
 30
0.0
 11
-530.2025
 21
-1003.7221825407
 31
0.0
  0
LINE
  5
145
330
1F
100
AcDbEntity
  8
0
  6
SLD-Сплошная
 62
     7
370
    35
100
AcDbLine
 10
-530.2025
 20
-1003.7221825407
 30
0.0
 11
-530.2025
 21
-1005.0694506428
 31
0.0
  0
SPLINE
  5
146
330
1F
100
AcDbEntity
  8
0
  6
SLD-Сплошная
 62
     7
370
    35
100
AcDbSpline
210
0.0
220
0.0
230
1.0
 70
     8
 71
     3
 72
    10
 73
     6
 74
     0
 42
0.000000001
 43
0.00000001
 40
0.0
 40
0.0
 40
0.0
 40
0.0
 40
0.5
 40
0.5
 40
1.0
 40
1.0
 40
1.0
 40
1.0
 10
-530.2024999999122
 20
-1005.06943519071
 30
0.0
 10
-530.2024989923375
 20
-1005.25768367248
 30
0.0
 10
-530.1939880651337
 20
-1005.434941033515
 30
0.0
 10
-530.1541992627208
 20
-1005.767963497525
 30
0.0
 10
-530.1228809774844
 20
-1005.921184950482
 30
0.0
 10
-530.0799993593006
 20
-1006.055634918602
 30
0.0
  0
LINE
  5
147
330
1F
100
AcDbEntity
  8
0
  6
SLD-Сплошная
 62
     7
370
    35
100
AcDbLine
 10
-530.2025
 20
-1000.7936783776
 30
0.0
 11
-530.2025
 21
-1001.2573593129
 31
0.0
  0
ARC
  5
148
330
1F
100
AcDbEntity
  8
0
  6
SLD-Сплошная
 62
     7
370
    35
100
AcDbCircle
 10
-347.758100676
 20
-1003.0586108438
 30
0.0
 40
4.926297871252035
100
AcDbArc
 50
264.8243350903
 51
334.1429144592
  0
ARC
  5
149
330
1F
100
AcDbEntity
  8
0
  6
SLD-Сплошная
 62
     7
370
    35
100
AcDbCircle
 10
-347.7581006761
 20
-1003.9071389811
 30
0.0
 40
4.926297871332901
100
AcDbArc
 50
264.8243350907
 51
334.1429144578
  0
LINE
  5
14A
330
1F
100
AcDbEntity
  8
0
  6
SLD-Сплошная
 62
     7
370
    35
100
AcDbLine
 10
-343.3250006407
 20
-1006.0556349186
 30
0.0
 11
-343.3250006407
 21
-1005.2071067812
 31
0.0
  0
LINE
  5
14B
330
1F
100
AcDbEntity
  8
0
  6
SLD-Сплошная
 62
     7
370
    35
100
AcDbLine
 10
-525.2025
 20
-1007.9648232278
 30
0.0
 11
-348.2025
 21
-1007.9648232278
 31
0.0
  0
LINE
  5
14C
330
1F
100
AcDbEntity
  8
0
  6
SLD-Сплошная
 62
     7
370
    35
100
AcDbLine
 10
-525.2025
 20
-1008.8133513652
 30
0.0
 11
-348.2025
 21
-1008.8133513652
 31
0.0
  0
ARC
  5
14D
330
1F
100
AcDbEntity
  8
0
  6
SLD-Сплошная
 62
     7
370
    35
100
AcDbCircle
 10
-511.3885962606
 20
-1002.4874209306
 30
0.0
 40
1.552060413127689
100
AcDbArc
 50
131.6709478884
 51
237.2587992148
  0
LINE
  5
14E
330
1F
100
AcDbEntity
  8
0
  6
SLD-Сплошная
 62
     7
370
    35
100
AcDbLine
 10
-512.2280208438
 20
-1002.9443650814
 30
0.0
 11
-512.2280208438
 21
-1003.7928932188
 31
0.0
  0
ARC
  5
14F
330
1F
100
AcDbEntity
  8
0
  6
SLD-Сплошная
 62
     7
370
    35
100
AcDbCircle
 10
-511.1754190907
 20
-1001.4781136051
 30
0.0
 40
1.804955357430175
100
AcDbArc
 50
198.5852032858
 51
234.3259541543
  0
LINE
  5
150
330
1F
100
AcDbEntity
  8
0
  6
SLD-Сплошная
 62
     7
370
    35
100
AcDbLine
 10
-343.2025
 20
-1001.328069991
 30
0.0
 11
-343.2025
 21
-1003.7928932188
 31
0.0
  0
ARC
  5
151
330
1F
100
AcDbEntity
  8
0
  6
SLD-Сплошная
 62
     7
370
    35
100
AcDbCircle
 10
-509.0164037394
 20
-1002.4874209306
 30
0.0
 40
1.552060413127708
100
AcDbArc
 50
302.7412007852
 51
48.3290521116
  0
ARC
  5
152
330
1F
100
AcDbEntity
  8
0
  6
SLD-Сплошная
 62
     7
370
    35
100
AcDbCircle
 10
-509.2295809093
 20
-1001.4781136051
 30
0.0
 40
1.804955357429618
100
AcDbArc
 50
305.6740458457
 51
341.4147967142
  0
LINE
  5
153
330
1F
100
AcDbEntity
  8
0
  6
SLD-Сплошная
 62
     7
370
    35
100
AcDbLine
 10
-508.1769791562
 20
-1002.9443650814
 30
0.0
 11
-508.1769791562
 21
-1003.7928932188
 31
0.0
  0
SPLINE
  5
154
330
1F
100
AcDbEntity
  8
0
  6
SLD-Сплошная
 62
     7
370
    35
100
AcDbSpline
210
0.0
220
0.0
230
1.0
 70
     8
 71
     3
 72
    18
 73
    14
 74
     0
 42
0.000000001
 43
0.00000001
 40
0.0
 40
0.0
 40
0.0
 40
0.0
 40
0.1250000000000022
 40
0.1250000000000022
 40
0.2500000000000045
 40
0.2500000000000045
 40
0.500000000000009
 40
0.500000000000009
 40
0.7500000000000135
 40
0.7500000000000135
 40
0.8750000000000068
 40
0.8750000000000068
 40
1.0
 40
1.0
 40
1.0
 40
1.0
 10
-508.1769791561916
 20
-1003.792893218793
 30
0.0
 10
-508.3049519469254
 20
-1003.86038411804
 30
0.0
 10
-508.437903454661
 20
-1003.929255863064
 30
0.0
 10
-508.7183539494464
 20
-1004.05324344132
 30
0.0
 10
-508.8661737220241
 20
-1004.109861580918
 30
0.0
 10
-509.3151843828957
 20
-1004.25132815753
 30
0.0
 10
-509.6237556611069
 20
-1004.309791718738
 30
0.0
 10
-510.2573084290099
 20
-1004.351695281517
 30
0.0
 10
-510.571386921063
 20
-1004.334847979866
 30
0.0
 10
-511.0366195872933
 20
-1004.25373799866
 30
0.0
 10
-511.1916356183239
 20
-1004.21690879281
 30
0.0
 10
-511.4931264904039
 20
-1004.125994091181
 30
0.0
 10
-511.6399263921318
 20
-1004.071564124457
 30
0.0
 10
-511.7828176180558
 20
-1004.010485840525
 30
0.0
  0
SPLINE
  5
155
330
1F
100
AcDbEntity
  8
0
  6
SLD-Сплошная
 62
     7
370
    35
100
AcDbSpline
210
0.0
220
0.0
230
1.0
 70
     8
 71
     3
 72
    26
 73
    22
 74
     0
 42
0.000000001
 43
0.00000001
 40
0.0
 40
0.0
 40
0.0
 40
0.0
 40
0.0624999999999903
 40
0.0624999999999903
 40
0.1249999999999806
 40
0.1249999999999806
 40
0.2499999999999869
 40
0.2499999999999869
 40
0.3749999999999932
 40
0.3749999999999932
 40
0.4999999999999996
 40
0.4999999999999996
 40
0.6250000000000059
 40
0.6250000000000059
 40
0.7500000000000122
 40
0.7500000000000122
 40
0.8750000000000185
 40
0.8750000000000185
 40
0.9375000000000092
 40
0.9375000000000092
 40
1.0
 40
1.0
 40
1.0
 40
1.0
 10
-508.1769791561916
 20
-1002.94436508137
 30
0.0
 10
-508.2320108814291
 20
-1003.008254030371
 30
0.0
 10
-508.2884142750615
 20
-1003.075507260439
 30
0.0
 10
-508.4118043753641
 20
-1003.211899252514
 30
0.0
 10
-508.4782102236965
 20
-1003.282038201212
 30
0.0
 10
-508.687091350199
 20
-1003.48906317837
 30
0.0
 10
-508.8398477454357
 20
-1003.623029541477
 30
0.0
 10
-509.1842287783577
 20
-1003.862561383985
 30
0.0
 10
-509.3711859386416
 20
-1003.96437752656
 30
0.0
 10
-509.7738731867716
 20
-1004.107254684436
 30
0.0
 10
-509.9853398610225
 20
-1004.146364340294
 30
0.0
 10
-510.4144619403592
 20
-1004.14694423382
 30
0.0
 10
-510.6256135496
 20
-1004.108671877232
 30
0.0
 10
-511.0298966895096
 20
-1003.966286759826
 30
0.0
 10
-511.2168591027757
 20
-1003.864944417434
 30
0.0
 10
-511.5627350156959
 20
-1003.625061761864
 30
0.0
 10
-511.7163183160335
 20
-1003.490334423046
 30
0.0
 10
-511.9262040349767
 20
-1003.283224414273
 30
0.0
 10
-511.9924909356002
 20
-1003.213056704375
 30
0.0
 10
-512.1145488221164
 20
-1003.075516994761
 30
0.0
 10
-512.1711528344746
 20
-1003.007976713594
 30
0.0
 10
-512.2280208438085
 20
-1002.94436508137
 30
0.0
  0
SPLINE
  5
156
330
1F
100
AcDbEntity
  8
0
  6
SLD-Сплошная
 62
     7
370
    35
100
AcDbSpline
210
0.0
220
0.0
230
1.0
 70
     8
 71
     3
 72
     8
 73
     4
 74
     0
 42
0.000000001
 43
0.00000001
 40
0.0
 40
0.0
 40
0.0
 40
0.0
 40
1.0
 40
1.0
 40
1.0
 40
1.0
 10
-512.0159626126319
 20
-1003.902775190126
 30
0.0
 10
-512.0887089639089
 20
-1003.866262266367
 30
0.0
 10
-512.1582763117777
 20
-1003.828190402069
 30
0.0
 10
-512.2280208438083
 20
-1003.792893218793
 30
0.0
  0
SPLINE
  5
157
330
1F
100
AcDbEntity
  8
0
  6
SLD-Сплошная
 62
     7
370
    35
100
AcDbSpline
210
0.0
220
0.0
230
1.0
 70
     8
 71
     3
 72
     9
 73
     5
 74
     0
 42
0.000000001
 43
0.00000001
 40
0.059625303405786
 40
0.059625303405786
 40
0.059625303405786
 40
0.059625303405786
 40
0.1060440209322397
 40
0.1213725650786568
 40
0.1213725650786568
 40
0.1213725650786568
 40
0.1213725650786568
 10
-511.7828176180559
 20
-1004.010485840525
 30
0.0
 10
-511.8427744579101
 20
-1003.98477123076
 30
0.0
 10
-511.9213768267232
 20
-1003.949038367375
 30
0.0
 10
-511.9973025184457
 20
-1003.912026709277
 30
0.0
 10
-512.0159626126348
 20
-1003.902775190125
 30
0.0
  0
LINE
  5
158
330
1F
100
AcDbEntity
  8
0
  6
SLD-Сплошная
 62
     7
370
    35
100
AcDbLine
 10
-343.3250006407
 20
-1005.2071067812
 30
0.0
 11
-343.2025
 21
-1005.2071067812
 31
0.0
  0
LINE
  5
159
330
1F
100
AcDbEntity
  8
0
  6
SLD-Сплошная
 62
     7
370
    35
100
AcDbLine
 10
-343.2025
 20
-1003.7928932188
 30
0.0
 11
-343.2025
 21
-1005.2071067812
 31
0.0
  0
LINE
  5
15A
330
1F
100
AcDbEntity
  8
0
  6
SLD-Сплошная
 62
     7
370
    35
100
AcDbLine
 10
-343.3250006407
 20
-1006.0556349186
 30
0.0
 11
-343.2025
 21
-1006.0556349186
 31
0.0
  0
LINE
  5
15B
330
1F
100
AcDbEntity
  8
0
  6
SLD-Сплошная
 62
     7
370
    35
100
AcDbLine
 10
-343.2025
 20
-1006.0556349186
 30
0.0
 11
-343.2025
 21
-1005.2071067812
 31
0.0
  0
LINE
  5
15C
330
1F
100
AcDbEntity
  8
0
  6
SLD-Сплошная
 62
     7
370
    35
100
AcDbLine
 10
-555.2025
 20
-993.3866486347
 30
0.0
 11
-530.2025
 21
-993.3866486347
 31
0.0
  0
LINE
  5
15D
330
1F
100
AcDbEntity
  8
0
  6
SLD-Сплошная
 62
     7
370
    35
100
AcDbLine
 10
-555.2025
 20
-992.1866486347
 30
0.0
 11
-530.2025
 21
-992.1866486347
 31
0.0
  0
LINE
  5
15E
330
1F
100
AcDbEntity
  8
0
  6
SLD-Сплошная
 62
     7
370
    35
100
AcDbLine
 10
-560.2025
 20
-992.1866486347
 30
0.0
 11
-560.2025
 21
-993.3866486347
 31
0.0
  0
LINE
  5
15F
330
1F
100
AcDbEntity
  8
0
  6
SLD-Сплошная
 62
     7
370
    35
100
AcDbLine
 10
-560.2025
 20
-993.3866486347
 30
0.0
 11
-555.2025
 21
-993.3866486347
 31
0.0
  0
LINE
  5
160
330
1F
100
AcDbEntity
  8
0
  6
SLD-Сплошная
 62
     7
370
    35
100
AcDbLine
 10
-555.2025
 20
-992.1866486347
 30
0.0
 11
-560.2025
 21
-992.1866486347
 31
0.0
  0
LINE
  5
161
330
1F
100
AcDbEntity
  8
0
  6
SLD-Сплошная
 62
     7
370
    35
100
AcDbLine
 10
-337.7025289489
 20
-993.3866486347
 30
0.0
 11
-337.7025289489
 21
-992.1866486347
 31
0.0
  0
LINE
  5
162
330
1F
100
AcDbEntity
  8
0
  6
SLD-Сплошная
 62
     7
370
    35
100
AcDbLine
 10
-343.2024967835
 20
-993.3866486347
 30
0.0
 11
-337.7025289489
 21
-993.3866486347
 31
0.0
  0
LINE
  5
163
330
1F
100
AcDbEntity
  8
0
  6
SLD-Сплошная
 62
     7
370
    35
100
AcDbLine
 10
-343.2025
 20
-992.1866486347
 30
0.0
 11
-337.7025289489
 21
-992.1866486347
 31
0.0
  0
LINE
  5
164
330
1F
100
AcDbEntity
  8
0
  6
SLD-Сплошная
 62
     7
370
    35
100
AcDbLine
 10
555.7806757705
 20
-993.3866486347
 30
0.0
 11
555.7806757705
 21
-992.1866486347
 31
0.0
  0
LINE
  5
165
330
1F
100
AcDbEntity
  8
0
  6
SLD-Сплошная
 62
     7
370
    35
100
AcDbLine
 10
555.7806757705
 20
-993.3866486347
 30
0.0
 11
-337.7025289489
 21
-993.3866486347
 31
0.0
  0
LINE
  5
166
330
1F
100
AcDbEntity
  8
0
  6
SLD-Сплошная
 62
     7
370
    35
100
AcDbLine
 10
555.7806757705
 20
-992.1866486347
 30
0.0
 11
-337.7025289489
 21
-992.1866486347
 31
0.0
  0
LINE
  5
167
330
1F
100
AcDbEntity
  8
0
  6
SLD-Сплошная
 62
     7
370
    35
100
AcDbLine
 10
-538.2025
 20
-991.1866486348
 30
0.0
 11
-552.2025
 21
-991.1866486348
 31
0.0
  0
LINE
  5
168
330
1F
100
AcDbEntity
  8
0
  6
SLD-Сплошная
 62
     7
370
    35
100
AcDbLine
 10
-548.4525
 20
-993.986648635
 30
0.0
 11
-541.9525
 21
-993.986648635
 31
0.0
  0
LINE
  5
169
330
1F
100
AcDbEntity
  8
0
  6
SLD-Сплошная
 62
     7
370
    35
100
AcDbLine
 10
555.7974999951
 20
-993.3866486347
 30
0.0
 11
555.7975
 21
-992.1866486347
 31
0.0
  0
LINE
  5
16A
330
1F
100
AcDbEntity
  8
0
  6
SLD-Сплошная
 62
     7
370
    35
100
AcDbLine
 10
557.9975
 20
-993.3866486347
 30
0.0
 11
555.7974999951
 21
-993.3866486347
 31
0.0
  0
LINE
  5
16B
330
1F
100
AcDbEntity
  8
0
  6
SLD-Сплошная
 62
     7
370
    35
100
AcDbLine
 10
557.9975
 20
-992.1866486347
 30
0.0
 11
555.7975
 21
-992.1866486347
 31
0.0
  0
LINE
  5
16C
330
1F
100
AcDbEntity
  8
0
  6
SLD-Сплошная
 62
     7
370
    35
100
AcDbLine
 10
556.2397835534
 20
-1006.0556349186
 30
0.0
 11
557.0883116908
 21
-1005.2071067812
 31
0.0
  0
ARC
  5
16D
330
1F
100
AcDbEntity
  8
0
  6
SLD-Сплошная
 62
     7
370
    35
100
AcDbCircle
 10
557.795418472
 20
-1004.5
 30
0.0
 40
1.000000000000008
100
AcDbArc
 50
135.0
 51
225.0
  0
ARC
  5
16E
330
1F
100
AcDbEntity
  8
0
  6
SLD-Сплошная
 62
     7
370
    35
100
AcDbCircle
 10
557.795418472
 20
-1004.5
 30
0.0
 40
2.200000000015179
100
AcDbArc
 50
135.0
 51
225.0
  0
LINE
  5
16F
330
1F
100
AcDbEntity
  8
0
  6
SLD-Сплошная
 62
     7
370
    35
100
AcDbLine
 10
257.3552164466
 20
-1006.0556349186
 30
0.0
 11
256.5066883092
 21
-1005.2071067812
 31
0.0
  0
ARC
  5
170
330
1F
100
AcDbEntity
  8
0
  6
SLD-Сплошная
 62
     7
370
    35
100
AcDbCircle
 10
255.799581528
 20
-1004.5
 30
0.0
 40
1.000000000005133
100
AcDbArc
 50
315.0
 51
45.0
  0
ARC
  5
171
330
1F
100
AcDbEntity
  8
0
  6
SLD-Сплошная
 62
     7
370
    35
100
AcDbCircle
 10
255.799581528
 20
-1004.5
 30
0.0
 40
2.200000000000006
100
AcDbArc
 50
315.0
 51
45.0
  0
LINE
  5
172
330
1F
100
AcDbEntity
  8
0
  6
SLD-Сплошная
 62
     7
370
    35
100
AcDbLine
 10
558.7046067812
 20
-1000.4795418536
 30
0.0
 11
556.2397835534
 21
-1002.9443650814
 31
0.0
  0
LINE
  5
173
330
1F
100
AcDbEntity
  8
0
  6
SLD-Сплошная
 62
     7
370
    35
100
AcDbLine
 10
559.5531349186
 20
-1001.328069991
 30
0.0
 11
557.0883116908
 21
-1003.7928932188
 31
0.0
  0
LINE
  5
174
330
1F
100
AcDbEntity
  8
0
  6
SLD-Сплошная
 62
     7
370
    35
100
AcDbLine
 10
254.8903932188
 20
-1000.4795418536
 30
0.0
 11
257.3552164466
 21
-1002.9443650814
 31
0.0
  0
LINE
  5
175
330
1F
100
AcDbEntity
  8
0
  6
SLD-Сплошная
 62
     7
370
    35
100
AcDbLine
 10
254.0418650814
 20
-1001.328069991
 30
0.0
 11
256.5066883092
 21
-1003.7928932188
 31
0.0
  0
ARC
  5
176
330
1F
100
AcDbEntity
  8
0
  6
SLD-Сплошная
 62
     7
370
    35
100
AcDbCircle
 10
557.9975
 20
-999.7724350724
 30
0.0
 40
1.000000000000114
100
AcDbArc
 50
315.0
 51
0.0
  0
ARC
  5
177
330
1F
100
AcDbEntity
  8
0
  6
SLD-Сплошная
 62
     7
370
    35
100
AcDbCircle
 10
557.9975
 20
-999.7724350724
 30
0.0
 40
2.199999999999932
100
AcDbArc
 50
315.0
 51
0.0
  0
ARC
  5
178
330
1F
100
AcDbEntity
  8
0
  6
SLD-Сплошная
 62
     7
370
    35
100
AcDbCircle
 10
255.5975
 20
-999.7724350724
 30
0.0
 40
1.000000000000008
100
AcDbArc
 50
180.0
 51
225.0
  0
ARC
  5
179
330
1F
100
AcDbEntity
  8
0
  6
SLD-Сплошная
 62
     7
370
    35
100
AcDbCircle
 10
255.5975
 20
-999.7724350724
 30
0.0
 40
2.199999999999989
100
AcDbArc
 50
180.0
 51
225.0
  0
LINE
  5
17A
330
1F
100
AcDbEntity
  8
0
  6
SLD-Сплошная
 62
     7
370
    35
100
AcDbLine
 10
254.5975
 20
-994.3866486347
 30
0.0
 11
254.5975
 21
-999.7724350724
 31
0.0
  0
LINE
  5
17B
330
1F
100
AcDbEntity
  8
0
  6
SLD-Сплошная
 62
     7
370
    35
100
AcDbLine
 10
253.3975
 20
-994.3866486347
 30
0.0
 11
253.3975
 21
-999.7724350724
 31
0.0
  0
LINE
  5
17C
330
1F
100
AcDbEntity
  8
0
  6
SLD-Сплошная
 62
     7
370
    35
100
AcDbLine
 10
558.9975
 20
-994.3866486347
 30
0.0
 11
558.9975
 21
-999.7724350724
 31
0.0
  0
LINE
  5
17D
330
1F
100
AcDbEntity
  8
0
  6
SLD-Сплошная
 62
     7
370
    35
100
AcDbLine
 10
560.1975
 20
-994.3866486347
 30
0.0
 11
560.1975
 21
-999.7724350724
 31
0.0
  0
ARC
  5
17E
330
1F
100
AcDbEntity
  8
0
  6
SLD-Сплошная
 62
     7
370
    35
100
AcDbCircle
 10
557.9975
 20
-994.3866486347
 30
0.0
 40
1.0
100
AcDbArc
 50
360.0
 51
90.0
  0
ARC
  5
17F
330
1F
100
AcDbEntity
  8
0
  6
SLD-Сплошная
 62
     7
370
    35
100
AcDbCircle
 10
557.9975
 20
-994.3866486347
 30
0.0
 40
2.200000000000045
100
AcDbArc
 50
0.0
 51
90.0
  0
ARC
  5
180
330
1F
100
AcDbEntity
  8
0
  6
SLD-Сплошная
 62
     7
370
    35
100
AcDbCircle
 10
255.5975
 20
-994.3866486347
 30
0.0
 40
2.20000000000001
100
AcDbArc
 50
152.9643082106
 51
180.0
  0
ARC
  5
181
330
1F
100
AcDbEntity
  8
0
  6
SLD-Сплошная
 62
     7
370
    35
100
AcDbCircle
 10
255.5975
 20
-994.3866486347
 30
0.0
 40
1.0
100
AcDbArc
 50
90.0
 51
180.0
  0
LINE
  5
182
330
1F
100
AcDbEntity
  8
0
  6
SLD-Сплошная
 62
     7
370
    35
100
AcDbLine
 10
556.2397835534
 20
-1006.0556349186
 30
0.0
 11
558.9975
 21
-1008.8133513652
 31
0.0
  0
LINE
  5
183
330
1F
100
AcDbEntity
  8
0
  6
SLD-Сплошная
 62
     7
370
    35
100
AcDbLine
 10
558.9975
 20
-1008.8133513652
 30
0.0
 11
559.8460281374
 21
-1007.9648232278
 31
0.0
  0
LINE
  5
184
330
1F
100
AcDbEntity
  8
0
  6
SLD-Сплошная
 62
     7
370
    35
100
AcDbLine
 10
559.8460281374
 20
-1007.9648232278
 30
0.0
 11
557.0883116908
 21
-1005.2071067811
 31
0.0
  0
LINE
  5
185
330
1F
100
AcDbEntity
  8
0
  6
SLD-Сплошная
 62
     7
370
    35
100
AcDbLine
 10
256.5066883092
 20
-1005.2071067812
 30
0.0
 11
253.7489718626
 21
-1007.9648232278
 31
0.0
  0
LINE
  5
186
330
1F
100
AcDbEntity
  8
0
  6
SLD-Сплошная
 62
     7
370
    35
100
AcDbLine
 10
253.7489718626
 20
-1007.9648232278
 30
0.0
 11
254.5975
 21
-1008.8133513652
 31
0.0
  0
LINE
  5
187
330
1F
100
AcDbEntity
  8
0
  6
SLD-Сплошная
 62
     7
370
    35
100
AcDbLine
 10
254.5975
 20
-1008.8133513652
 30
0.0
 11
257.3552164467
 21
-1006.0556349186
 31
0.0
  0
SPLINE
  5
188
330
1F
100
AcDbEntity
  8
0
  6
SLD-Сплошная
 62
     7
370
    35
100
AcDbSpline
210
0.0
220
0.0
230
1.0
 70
     8
 71
     3
 72
     9
 73
     5
 74
     0
 42
0.000000001
 43
0.00000001
 40
0.0
 40
0.0
 40
0.0
 40
0.0
 40
0.5177941431346442
 40
0.9999999999999999
 40
0.9999999999999999
 40
0.9999999999999999
 40
0.9999999999999999
 10
556.9234231235496
 20
-1004.010485840521
 30
0.0
 10
556.9337711895456
 20
-1003.992603920297
 30
0.0
 10
556.9537560930698
 20
-1003.958069114407
 30
0.0
 10
556.9804652629285
 20
-1003.920763955998
 30
0.0
 10
556.9933445810661
 20
-1003.902775190122
 30
0.0
  0
SPLINE
  5
189
330
1F
100
AcDbEntity
  8
0
  6
SLD-Сплошная
 62
     7
370
    35
100
AcDbSpline
210
0.0
220
0.0
230
1.0
 70
     8
 71
     3
 72
     9
 73
     5
 74
     0
 42
0.000000001
 43
0.00000001
 40
0.0596253034076224
 40
0.0596253034076224
 40
0.0596253034076224
 40
0.0596253034076224
 40
0.1060440209340296
 40
0.121372565078699
 40
0.121372565078699
 40
0.121372565078699
 40
0.121372565078699
 10
256.6715768764517
 20
-1004.010485840523
 30
0.0
 10
256.657328458533
 20
-1003.984771230759
 30
0.0
 10
256.6358641355787
 20
-1003.949038367374
 30
0.0
 10
256.6087737519495
 20
-1003.912026709277
 30
0.0
 10
256.6016554189361
 20
-1003.902775190125
 30
0.0
  0
LINE
  5
18A
330
1F
100
AcDbEntity
  8
0
  6
SLD-Сплошная
 62
     7
370
    35
100
AcDbLine
 10
413.7975
 20
-991.1866486348
 30
0.0
 11
399.7975
 21
-991.1866486348
 31
0.0
  0
LINE
  5
18B
330
1F
100
AcDbEntity
  8
0
  6
SLD-Сплошная
 62
     7
370
    35
100
AcDbLine
 10
406.7975
 20
-993.9866486349
 30
0.0
 11
410.0475
 21
-993.9866486349
 31
0.0
  0
LINE
  5
18C
330
1F
100
AcDbEntity
  8
0
  6
SLD-Сплошная
 62
     7
370
    35
100
AcDbLine
 10
403.5475
 20
-993.9866486349
 30
0.0
 11
406.7975
 21
-993.9866486349
 31
0.0
  0
ENDSEC
  0
SECTION
  2
OBJECTS
  0
DICTIONARY
  5
C
330
0
100
AcDbDictionary
281
     1
  3
ACAD_DETAILVIEWSTYLE
350
194
  3
ACAD_GROUP
350
D
  3
ACAD_LAYOUT
350
1A
  3
ACAD_MATERIAL
350
43
  3
ACAD_MLEADERSTYLE
350
6B
  3
ACAD_MLINESTYLE
350
17
  3
ACAD_PLOTSETTINGS
350
19
  3
ACAD_PLOTSTYLENAME
350
E
  3
ACAD_SCALELIST
350
47
  3
ACAD_SECTIONVIEWSTYLE
350
195
  3
ACAD_TABLESTYLE
350
69
  3
ACAD_VISUALSTYLE
350
2A
  3
ACDB_RECOMPOSE_DATA
350
191
  3
AcDbVariableDictionary
350
18D
  0
SUN
  5
6D
330
29
100
AcDbSun
 90
        1
290
     0
 63
     7
421
 16777215
 40
1.0
291
     1
 91
  2455826
 92
 54000000
292
     0
 70
     2
 71
   256
280
     1
  0
DICTIONARY
  5
194
102
{ACAD_REACTORS
330
C
102
}
330
C
100
AcDbDictionary
281
     1
  0
DICTIONARY
  5
D
102
{ACAD_REACTORS
330
C
102
}
330
C
100
AcDbDictionary
281
     1
  0
DICTIONARY
  5
1A
102
{ACAD_REACTORS
330
C
102
}
330
C
100
AcDbDictionary
281
     1
  3
Layout1
350
1E
  3
Layout2
350
26
  3
Model
350
22
  0
DICTIONARY
  5
43
102
{ACAD_REACTORS
330
C
102
}
330
C
100
AcDbDictionary
281
     1
  3
ByBlock
350
45
  3
ByLayer
350
44
  3
Global
350
46
  0
DICTIONARY
  5
6B
102
{ACAD_REACTORS
330
C
102
}
330
C
100
AcDbDictionary
281
     1
  3
Standard
350
6C
  0
DICTIONARY
  5
17
102
{ACAD_REACTORS
330
C
102
}
330
C
100
AcDbDictionary
281
     1
  3
Standard
350
18
  0
DICTIONARY
  5
19
102
{ACAD_REACTORS
330
C
102
}
330
C
100
AcDbDictionary
281
     1
  0
ACDBDICTIONARYWDFLT
  5
E
102
{ACAD_REACTORS
330
C
102
}
330
C
100
AcDbDictionary
281
     1
  3
Normal
350
F
100
AcDbDictionaryWithDefault
340
F
  0
DICTIONARY
  5
47
102
{ACAD_REACTORS
330
C
102
}
330
C
100
AcDbDictionary
281
     1
  3
A0
350
48
  3
A1
350
49
  3
A2
350
4A
  3
A3
350
4B
  3
A4
350
4C
  3
A5
350
4D
  3
A6
350
4E
  3
A7
350
4F
  3
A8
350
50
  3
A9
350
51
  3
B0
350
52
  3
B1
350
53
  3
B2
350
54
  3
B3
350
55
  3
B4
350
56
  3
B5
350
57
  3
B6
350
58
  3
B7
350
59
  3
B8
350
5A
  3
B9
350
5B
  3
C0
350
5C
  3
C1
350
5D
  3
C2
350
5E
  3
C3
350
5F
  3
C4
350
60
  3
C5
350
61
  3
C6
350
62
  3
C7
350
63
  3
C8
350
64
  3
C9
350
65
  3
D0
350
66
  3
D1
350
67
  3
D2
350
68
  0
DICTIONARY
  5
195
102
{ACAD_REACTORS
330
C
102
}
330
C
100
AcDbDictionary
281
     1
  0
DICTIONARY
  5
69
102
{ACAD_REACTORS
330
C
102
}
330
C
100
AcDbDictionary
281
     1
  3
Standard
350
6A
  0
DICTIONARY
  5
2A
102
{ACAD_REACTORS
330
C
102
}
330
C
100
AcDbDictionary
281
     1
  3
2dWireframe
350
2F
  3
Basic
350
32
  3
Brighten
350
36
  3
ColorChange
350
3A
  3
Conceptual
350
34
  3
Dim
350
35
  3
EdgeColorOff
350
3D
  3
Facepattern
350
39
  3
Flat
350
2B
  3
FlatWithEdges
350
2C
  3
Gouraud
350
2D
  3
GouraudWithEdges
350
2E
  3
Hidden
350
31
  3
JitterOff
350
3B
  3
Linepattern
350
38
  3
OverhangOff
350
3C
  3
Realistic
350
33
  3
Shaded
350
42
  3
Shaded with edges
350
41
  3
Shades of Gray
350
3E
  3
Sketchy
350
3F
  3
Thicken
350
37
  3
Wireframe
350
30
  3
X-Ray
350
40
  0
XRECORD
  5
191
102
{ACAD_REACTORS
330
C
102
}
330
C
100
AcDbXrecord
280
     1
 90
        1
330
6A
  0
DICTIONARY
  5
18D
102
{ACAD_REACTORS
330
C
102
}
330
C
100
AcDbDictionary
281
     1
  3
CANNOSCALE
350
18E
  3
CMLEADERSTYLE
350
193
  3
CTABLESTYLE
350
192
  0
LAYOUT
  5
1E
102
{ACAD_REACTORS
330
1A
102
}
330
1A
100
AcDbPlotSettings
  1

  2
none_device
  4

  6

 40
0.0
 41
0.0
 42
0.0
 43
0.0
 44
0.0
 45
0.0
 46
0.0
 47
0.0
 48
0.0
 49
0.0
140
0.0
141
0.0
142
1.0
143
1.0
 70
   688
 72
     1
 73
     0
 74
     5
  7

 75
    16
 76
     0
 77
     2
 78
   300
147
1.0
148
0.0
149
0.0
100
AcDbLayout
  1
Layout1
 70
     1
 71
     1
 10
0.0
 20
0.0
 11
420.0
 21
297.0
 12
0.0
 22
0.0
 32
0.0
 14
1.0000000000E+20
 24
1.0000000000E+20
 34
1.0000000000E+20
 15
-1.0000000000E+20
 25
-1.0000000000E+20
 35
-1.0000000000E+20
146
0.0
 13
0.0
 23
0.0
 33
0.0
 16
1.0
 26
0.0
 36
0.0
 17
0.0
 27
1.0
 37
0.0
 76
     0
330
1B
  0
LAYOUT
  5
26
102
{ACAD_REACTORS
330
1A
102
}
330
1A
100
AcDbPlotSettings
  1

  2
none_device
  4

  6

 40
0.0
 41
0.0
 42
0.0
 43
0.0
 44
0.0
 45
0.0
 46
0.0
 47
0.0
 48
0.0
 49
0.0
140
0.0
141
0.0
142
1.0
143
1.0
 70
   688
 72
     1
 73
     0
 74
     5
  7

 75
    16
 76
     0
 77
     2
 78
   300
147
1.0
148
0.0
149
0.0
100
AcDbLayout
  1
Layout2
 70
     1
 71
     2
 10
0.0
 20
0.0
 11
0.0
 21
0.0
 12
0.0
 22
0.0
 32
0.0
 14
0.0
 24
0.0
 34
0.0
 15
0.0
 25
0.0
 35
0.0
146
0.0
 13
0.0
 23
0.0
 33
0.0
 16
1.0
 26
0.0
 36
0.0
 17
0.0
 27
1.0
 37
0.0
 76
     0
330
23
  0
LAYOUT
  5
22
102
{ACAD_REACTORS
330
1A
102
}
330
1A
100
AcDbPlotSettings
  1

  2
none_device
  4
Letter_(8.50_x_11.00_Inches)
  6

 40
6.35
 41
6.35
 42
6.35000508
 43
6.35000508
 44
215.9
 45
279.4
 46
0.0
 47
0.0
 48
0.0
 49
0.0
140
0.0
141
0.0
142
1.0
143
1.0
 70
  1712
 72
     1
 73
     0
 74
     0
  7

 75
     0
 76
     0
 77
     2
 78
   300
147
1.0
148
0.0
149
0.0
100
AcDbLayout
  1
Model
 70
     1
 71
     0
 10
0.0
 20
0.0
 11
1420.0
 21
1297.0
 12
0.0
 22
0.0
 32
0.0
 14
0.0
 24
0.0
 34
0.0
 15
1420.0
 25
1297.0
 35
0.0
146
0.0
 13
0.0
 23
0.0
 33
0.0
 16
1.0
 26
0.0
 36
0.0
 17
0.0
 27
1.0
 37
0.0
 76
     0
330
1F
331
29
  0
MATERIAL
  5
45
102
{ACAD_REACTORS
330
43
102
}
330
43
100
AcDbMaterial
  1
ByBlock
 72
     1
 94
      127
  0
MATERIAL
  5
44
102
{ACAD_REACTORS
330
43
102
}
330
43
100
AcDbMaterial
  1
ByLayer
 72
     1
 94
      127
  0
MATERIAL
  5
46
102
{ACAD_REACTORS
330
43
102
}
330
43
100
AcDbMaterial
  1
Global
 72
     1
 94
      127
  0
MLEADERSTYLE
  5
6C
102
{ACAD_REACTORS
330
6B
102
}
330
6B
100
AcDbMLeaderStyle
179
     2
170
     2
171
     1
172
     0
 90
        2
 40
0.0
 41
0.0
173
     1
 91
-1056964608
340
14
 92
       -2
290
     1
 42
2.0
291
     1
 43
8.0
  3
Standard
341
0
 44
4.0
300

342
11
174
     1
178
     6
175
     1
176
     0
 93
-1056964608
 45
4.0
292
     0
297
     0
 46
4.0
343
0
 94
-1056964608
 47
1.0
 49
1.0
140
1.0
293
     1
141
0.0
294
     1
177
     0
142
1.0
295
     0
296
     0
143
3.75
271
     0
272
     9
273
     9
298
     0
  0
MLINESTYLE
  5
18
102
{ACAD_REACTORS
330
17
102
}
330
17
100
AcDbMlineStyle
  2
Standard
 70
     0
  3

 62
   256
 51
90.0
 52
90.0
 71
     2
 49
0.5
 62
   256
  6
BYLAYER
 49
-0.5
 62
   256
  6
BYLAYER
  0
ACDBPLACEHOLDER
  5
F
102
{ACAD_REACTORS
330
E
102
}
330
E
  0
SCALE
  5
48
102
{ACAD_REACTORS
330
47
102
}
330
47
100
AcDbScale
 70
     0
300
1:1
140
1.0
141
1.0
290
     1
  0
SCALE
  5
49
102
{ACAD_REACTORS
330
47
102
}
330
47
100
AcDbScale
 70
     0
300
1:2
140
1.0
141
2.0
290
     0
  0
SCALE
  5
4A
102
{ACAD_REACTORS
330
47
102
}
330
47
100
AcDbScale
 70
     0
300
1:4
140
1.0
141
4.0
290
     0
  0
SCALE
  5
4B
102
{ACAD_REACTORS
330
47
102
}
330
47
100
AcDbScale
 70
     0
300
1:5
140
1.0
141
5.0
290
     0
  0
SCALE
  5
4C
102
{ACAD_REACTORS
330
47
102
}
330
47
100
AcDbScale
 70
     0
300
1:8
140
1.0
141
8.0
290
     0
  0
SCALE
  5
4D
102
{ACAD_REACTORS
330
47
102
}
330
47
100
AcDbScale
 70
     0
300
1:10
140
1.0
141
10.0
290
     0
  0
SCALE
  5
4E
102
{ACAD_REACTORS
330
47
102
}
330
47
100
AcDbScale
 70
     0
300
1:16
140
1.0
141
16.0
290
     0
  0
SCALE
  5
4F
102
{ACAD_REACTORS
330
47
102
}
330
47
100
AcDbScale
 70
     0
300
1:20
140
1.0
141
20.0
290
     0
  0
SCALE
  5
50
102
{ACAD_REACTORS
330
47
102
}
330
47
100
AcDbScale
 70
     0
300
1:30
140
1.0
141
30.0
290
     0
  0
SCALE
  5
51
102
{ACAD_REACTORS
330
47
102
}
330
47
100
AcDbScale
 70
     0
300
1:40
140
1.0
141
40.0
290
     0
  0
SCALE
  5
52
102
{ACAD_REACTORS
330
47
102
}
330
47
100
AcDbScale
 70
     0
300
1:50
140
1.0
141
50.0
290
     0
  0
SCALE
  5
53
102
{ACAD_REACTORS
330
47
102
}
330
47
100
AcDbScale
 70
     0
300
1:100
140
1.0
141
100.0
290
     0
  0
SCALE
  5
54
102
{ACAD_REACTORS
330
47
102
}
330
47
100
AcDbScale
 70
     0
300
2:1
140
2.0
141
1.0
290
     0
  0
SCALE
  5
55
102
{ACAD_REACTORS
330
47
102
}
330
47
100
AcDbScale
 70
     0
300
4:1
140
4.0
141
1.0
290
     0
  0
SCALE
  5
56
102
{ACAD_REACTORS
330
47
102
}
330
47
100
AcDbScale
 70
     0
300
8:1
140
8.0
141
1.0
290
     0
  0
SCALE
  5
57
102
{ACAD_REACTORS
330
47
102
}
330
47
100
AcDbScale
 70
     0
300
10:1
140
10.0
141
1.0
290
     0
  0
SCALE
  5
58
102
{ACAD_REACTORS
330
47
102
}
330
47
100
AcDbScale
 70
     0
300
100:1
140
100.0
141
1.0
290
     0
  0
SCALE
  5
59
102
{ACAD_REACTORS
330
47
102
}
330
47
100
AcDbScale
 70
     0
300
1/128" = 1'-0"
140
0.0078125
141
12.0
290
     0
  0
SCALE
  5
5A
102
{ACAD_REACTORS
330
47
102
}
330
47
100
AcDbScale
 70
     0
300
1/64" = 1'-0"
140
0.015625
141
12.0
290
     0
  0
SCALE
  5
5B
102
{ACAD_REACTORS
330
47
102
}
330
47
100
AcDbScale
 70
     0
300
1/32" = 1'-0"
140
0.03125
141
12.0
290
     0
  0
SCALE
  5
5C
102
{ACAD_REACTORS
330
47
102
}
330
47
100
AcDbScale
 70
     0
300
1/16" = 1'-0"
140
0.0625
141
12.0
290
     0
  0
SCALE
  5
5D
102
{ACAD_REACTORS
330
47
102
}
330
47
100
AcDbScale
 70
     0
300
3/32" = 1'-0"
140
0.09375
141
12.0
290
     0
  0
SCALE
  5
5E
102
{ACAD_REACTORS
330
47
102
}
330
47
100
AcDbScale
 70
     0
300
1/8" = 1'-0"
140
0.125
141
12.0
290
     0
  0
SCALE
  5
5F
102
{ACAD_REACTORS
330
47
102
}
330
47
100
AcDbScale
 70
     0
300
3/16" = 1'-0"
140
0.1875
141
12.0
290
     0
  0
SCALE
  5
60
102
{ACAD_REACTORS
330
47
102
}
330
47
100
AcDbScale
 70
     0
300
1/4" = 1'-0"
140
0.25
141
12.0
290
     0
  0
SCALE
  5
61
102
{ACAD_REACTORS
330
47
102
}
330
47
100
AcDbScale
 70
     0
300
3/8" = 1'-0"
140
0.375
141
12.0
290
     0
  0
SCALE
  5
62
102
{ACAD_REACTORS
330
47
102
}
330
47
100
AcDbScale
 70
     0
300
1/2" = 1'-0"
140
0.5
141
12.0
290
     0
  0
SCALE
  5
63
102
{ACAD_REACTORS
330
47
102
}
330
47
100
AcDbScale
 70
     0
300
3/4" = 1'-0"
140
0.75
141
12.0
290
     0
  0
SCALE
  5
64
102
{ACAD_REACTORS
330
47
102
}
330
47
100
AcDbScale
 70
     0
300
1" = 1'-0"
140
1.0
141
12.0
290
     0
  0
SCALE
  5
65
102
{ACAD_REACTORS
330
47
102
}
330
47
100
AcDbScale
 70
     0
300
1-1/2" = 1'-0"
140
1.5
141
12.0
290
     0
  0
SCALE
  5
66
102
{ACAD_REACTORS
330
47
102
}
330
47
100
AcDbScale
 70
     0
300
3" = 1'-0"
140
3.0
141
12.0
290
     0
  0
SCALE
  5
67
102
{ACAD_REACTORS
330
47
102
}
330
47
100
AcDbScale
 70
     0
300
6" = 1'-0"
140
6.0
141
12.0
290
     0
  0
SCALE
  5
68
102
{ACAD_REACTORS
330
47
102
}
330
47
100
AcDbScale
 70
     0
300
1'-0" = 1'-0"
140
12.0
141
12.0
290
     0
  0
TABLESTYLE
  5
6A
102
{ACAD_REACTORS
330
69
102
}
102
{ACAD_XDICTIONARY
360
18F
102
}
330
69
100
AcDbTableStyle
  3
Standard
 70
     0
 71
     0
 40
0.06
 41
0.06
280
     0
281
     0
  7
Standard
140
4.5
170
     2
 62
     0
 63
   257
283
     0
 90
        4
 91
        0
  1

274
    -2
284
     1
 64
     0
275
    -2
285
     1
 65
     0
276
    -2
286
     1
 66
     0
277
    -2
287
     1
 67
     0
278
    -2
288
     1
 68
     0
279
    -2
289
     1
 69
     0
  7
Standard
140
6.0
170
     5
 62
     0
 63
   257
283
     0
 90
        4
 91
        0
  1

274
    -2
284
     1
 64
     0
275
    -2
285
     1
 65
     0
276
    -2
286
     1
 66
     0
277
    -2
287
     1
 67
     0
278
    -2
288
     1
 68
     0
279
    -2
289
     1
 69
     0
  7
Standard
140
4.5
170
     5
 62
     0
 63
   257
283
     0
 90
        4
 91
        0
  1

274
    -2
284
     1
 64
     0
275
    -2
285
     1
 65
     0
276
    -2
286
     1
 66
     0
277
    -2
287
     1
 67
     0
278
    -2
288
     1
 68
     0
279
    -2
289
     1
 69
     0
  0
VISUALSTYLE
  5
2F
102
{ACAD_REACTORS
330
2A
102
}
330
2A
100
AcDbVisualStyle
  2
2dWireframe
 70
     4
177
     3
291
     0
 70
    58
 90
        0
176
     1
 90
        2
176
     1
 90
        0
176
     1
 90
        0
176
     1
 40
0.6
176
     1
 40
30.0
176
     1
 62
     7
420
 16777215
176
     1
 90
        1
176
     1
 90
        4
176
     1
 62
     7
176
     1
 62
   257
176
     1
 90
        1
176
     1
 90
        1
176
     1
 40
1.0
176
     1
 90
        0
176
     1
 62
   257
176
     1
 40
1.0
176
     1
 90
        1
176
     1
 90
        6
176
     1
 90
        2
176
     1
 62
     7
176
     1
 90
        5
176
     1
 90
        0
176
     1
 90
        0
176
     1
290
     0
176
     1
 90
        1
176
     1
 40
0.0
176
     1
 90
        0
176
     1
290
     1
176
     1
290
     1
176
     1
290
     0
176
     1
290
     0
176
     1
290
     0
176
     1
290
     0
176
     1
290
     0
176
     1
290
     0
176
     1
290
     0
176
     1
 90
       50
176
     1
 40
0.0
176
     1
 40
1.0
176
     1
 90
        0
176
     1
 62
    18
420
        0
176
     1
 90
       50
176
     1
 90
        3
176
     1
 62
     5
420
      255
176
     1
290
     0
176
     1
 90
       50
176
     1
 90
       50
176
     1
 90
       50
176
     1
290
     0
176
     1
 90
       50
176
     1
 62
   256
176
     0
 40
1.0
176
     0
 90
        2
176
     1
  1
strokes_ogs.tif
176
     1
290
     0
176
     1
 40
1.0
176
     1
 40
1.0
176
     1
  0
VISUALSTYLE
  5
32
102
{ACAD_REACTORS
330
2A
102
}
330
2A
100
AcDbVisualStyle
  2
Basic
 70
     7
177
     3
291
     1
 70
    58
 90
        1
176
     1
 90
        0
176
     1
 90
        1
176
     1
 90
        0
176
     1
 40
0.6
176
     1
 40
30.0
176
     1
 62
     7
420
 16777215
176
     1
 90
        0
176
     1
 90
        4
176
     1
 62
     7
176
     1
 62
   257
176
     1
 90
        1
176
     1
 90
        1
176
     1
 40
1.0
176
     1
 90
        8
176
     1
 62
     7
176
     1
 40
1.0
176
     1
 90
        1
176
     1
 90
        6
176
     1
 90
        2
176
     1
 62
     7
176
     1
 90
        5
176
     1
 90
        0
176
     1
 90
        0
176
     1
290
     0
176
     1
 90
        1
176
     1
 40
0.0
176
     1
 90
        0
176
     1
290
     0
176
     1
290
     1
176
     1
290
     1
176
     1
290
     0
176
     1
290
     0
176
     1
290
     0
176
     1
290
     0
176
     1
290
     0
176
     1
290
     0
176
     1
 90
       50
176
     1
 40
0.0
176
     1
 40
1.0
176
     1
 90
        0
176
     1
 62
    18
420
        0
176
     1
 90
       50
176
     1
 90
        3
176
     1
 62
     5
420
      255
176
     1
290
     0
176
     1
 90
       50
176
     1
 90
       50
176
     1
 90
       50
176
     1
290
     0
176
     1
 90
       50
176
     1
 62
   256
176
     0
 40
1.0
176
     0
 90
        2
176
     1
  1
strokes_ogs.tif
176
     1
290
     0
176
     1
 40
1.0
176
     1
 40
1.0
176
     1
  0
VISUALSTYLE
  5
36
102
{ACAD_REACTORS
330
2A
102
}
330
2A
100
AcDbVisualStyle
  2
Brighten
 70
    12
177
     3
291
     1
 70
    58
 90
        2
176
     1
 90
        2
176
     1
 90
        0
176
     1
 90
        0
176
     1
 40
0.6
176
     1
 40
30.0
176
     1
 62
     7
420
 16777215
176
     1
 90
        1
176
     1
 90
        4
176
     1
 62
     7
176
     1
 62
   257
176
     1
 90
        1
176
     1
 90
        1
176
     1
 40
1.0
176
     1
 90
        8
176
     1
 62
     7
176
     1
 40
1.0
176
     1
 90
        1
176
     1
 90
        6
176
     1
 90
        2
176
     1
 62
     7
176
     1
 90
        5
176
     1
 90
        0
176
     1
 90
        0
176
     1
290
     0
176
     1
 90
        1
176
     1
 40
50.0
176
     1
 90
        0
176
     1
290
     0
176
     1
290
     1
176
     1
290
     1
176
     1
290
     0
176
     1
290
     0
176
     1
290
     0
176
     1
290
     0
176
     1
290
     0
176
     1
290
     0
176
     1
 90
       50
176
     1
 40
0.0
176
     1
 40
1.0
176
     1
 90
        0
176
     1
 62
    18
420
        0
176
     1
 90
       50
176
     1
 90
        3
176
     1
 62
     5
420
      255
176
     1
290
     0
176
     1
 90
       50
176
     1
 90
       50
176
     1
 90
       50
176
     1
290
     0
176
     1
 90
       50
176
     1
 62
   256
176
     0
 40
1.0
176
     0
 90
        2
176
     1
  1
strokes_ogs.tif
176
     1
290
     0
176
     1
 40
1.0
176
     1
 40
1.0
176
     1
  0
VISUALSTYLE
  5
3A
102
{ACAD_REACTORS
330
2A
102
}
330
2A
100
AcDbVisualStyle
  2
ColorChange
 70
    16
177
     3
291
     1
 70
    58
 90
        2
176
     1
 90
        2
176
     1
 90
        3
176
     1
 90
        0
176
     1
 40
0.6
176
     1
 40
30.0
176
     1
 62
     8
420
  8421504
176
     1
 90
        1
176
     1
 90
        4
176
     1
 62
     7
176
     1
 62
   257
176
     1
 90
        1
176
     1
 90
        1
176
     1
 40
1.0
176
     1
 90
        8
176
     1
 62
     8
420
  8421504
176
     1
 40
1.0
176
     1
 90
        1
176
     1
 90
        6
176
     1
 90
        2
176
     1
 62
     7
176
     1
 90
        5
176
     1
 90
        0
176
     1
 90
        0
176
     1
290
     0
176
     1
 90
        1
176
     1
 40
0.0
176
     1
 90
        0
176
     1
290
     0
176
     1
290
     1
176
     1
290
     1
176
     1
290
     0
176
     1
290
     0
176
     1
290
     0
176
     1
290
     0
176
     1
290
     0
176
     1
290
     0
176
     1
 90
       50
176
     1
 40
0.0
176
     1
 40
1.0
176
     1
 90
        0
176
     1
 62
    18
420
        0
176
     1
 90
       50
176
     1
 90
        3
176
     1
 62
     5
420
      255
176
     1
290
     0
176
     1
 90
       50
176
     1
 90
       50
176
     1
 90
       50
176
     1
290
     0
176
     1
 90
       50
176
     1
 62
   256
176
     0
 40
1.0
176
     0
 90
        2
176
     1
  1
strokes_ogs.tif
176
     1
290
     0
176
     1
 40
1.0
176
     1
 40
1.0
176
     1
  0
VISUALSTYLE
  5
34
102
{ACAD_REACTORS
330
2A
102
}
330
2A
100
AcDbVisualStyle
  2
Conceptual
 70
     9
177
     3
291
     0
 70
    58
 90
        3
176
     1
 90
        2
176
     1
 90
        0
176
     1
 90
        0
176
     1
 40
0.6
176
     1
 40
30.0
176
     1
 62
     7
420
 16777215
176
     1
 90
        2
176
     1
 90
        2
176
     1
 62
     7
176
     1
 62
   257
176
     1
 90
        1
176
     1
 90
        1
176
     1
 40
179.0
176
     1
 90
        8
176
     1
 62
     7
176
     1
 40
1.0
176
     1
 90
        1
176
     1
 90
        6
176
     1
 90
        2
176
     1
 62
     7
176
     1
 90
        3
176
     1
 90
        0
176
     1
 90
        0
176
     1
290
     0
176
     1
 90
        1
176
     1
 40
0.0
176
     1
 90
        0
176
     1
290
     0
176
     1
290
     1
176
     1
290
     1
176
     1
290
     0
176
     1
290
     0
176
     1
290
     0
176
     1
290
     0
176
     1
290
     0
176
     1
290
     0
176
     1
 90
       50
176
     1
 40
0.0
176
     1
 40
1.0
176
     1
 90
        0
176
     1
 62
    18
420
        0
176
     1
 90
       50
176
     1
 90
        3
176
     1
 62
     5
420
      255
176
     1
290
     0
176
     1
 90
       50
176
     1
 90
       50
176
     1
 90
       50
176
     1
290
     0
176
     1
 90
       50
176
     1
 62
   256
176
     0
 40
1.0
176
     0
 90
        2
176
     1
  1
strokes_ogs.tif
176
     1
290
     0
176
     1
 40
1.0
176
     1
 40
1.0
176
     1
  0
VISUALSTYLE
  5
35
102
{ACAD_REACTORS
330
2A
102
}
330
2A
100
AcDbVisualStyle
  2
Dim
 70
    11
177
     3
291
     1
 70
    58
 90
        2
176
     1
 90
        2
176
     1
 90
        0
176
     1
 90
        0
176
     1
 40
0.6
176
     1
 40
30.0
176
     1
 62
     7
420
 16777215
176
     1
 90
        1
176
     1
 90
        4
176
     1
 62
     7
176
     1
 62
   257
176
     1
 90
        1
176
     1
 90
        1
176
     1
 40
1.0
176
     1
 90
        8
176
     1
 62
     7
176
     1
 40
1.0
176
     1
 90
        1
176
     1
 90
        6
176
     1
 90
        2
176
     1
 62
     7
176
     1
 90
        5
176
     1
 90
        0
176
     1
 90
        0
176
     1
290
     0
176
     1
 90
        1
176
     1
 40
-50.0
176
     1
 90
        0
176
     1
290
     0
176
     1
290
     1
176
     1
290
     1
176
     1
290
     0
176
     1
290
     0
176
     1
290
     0
176
     1
290
     0
176
     1
290
     0
176
     1
290
     0
176
     1
 90
       50
176
     1
 40
0.0
176
     1
 40
1.0
176
     1
 90
        0
176
     1
 62
    18
420
        0
176
     1
 90
       50
176
     1
 90
        3
176
     1
 62
     5
420
      255
176
     1
290
     0
176
     1
 90
       50
176
     1
 90
       50
176
     1
 90
       50
176
     1
290
     0
176
     1
 90
       50
176
     1
 62
   256
176
     0
 40
1.0
176
     0
 90
        2
176
     1
  1
strokes_ogs.tif
176
     1
290
     0
176
     1
 40
1.0
176
     1
 40
1.0
176
     1
  0
VISUALSTYLE
  5
3D
102
{ACAD_REACTORS
330
2A
102
}
330
2A
100
AcDbVisualStyle
  2
EdgeColorOff
 70
    22
177
     3
291
     1
 70
    58
 90
        2
176
     0
 90
        2
176
     0
 90
        0
176
     0
 90
        0
176
     0
 40
0.6
176
     0
 40
30.0
176
     0
 62
     7
420
 16777215
176
     0
 90
        1
176
     0
 90
        4
176
     0
 62
     7
176
     0
 62
   257
176
     0
 90
        1
176
     0
 90
        1
176
     0
 40
1.0
176
     0
 90
        8
176
     2
 62
     7
176
     0
 40
1.0
176
     0
 90
        1
176
     0
 90
        6
176
     0
 90
        2
176
     0
 62
     7
176
     0
 90
        5
176
     0
 90
        0
176
     0
 90
        0
176
     0
290
     0
176
     0
 90
        1
176
     0
 40
0.0
176
     0
 90
        0
176
     0
290
     0
176
     0
290
     1
176
     0
290
     1
176
     0
290
     0
176
     0
290
     0
176
     0
290
     0
176
     0
290
     0
176
     0
290
     0
176
     0
290
     0
176
     0
 90
       50
176
     0
 40
0.0
176
     0
 40
1.0
176
     0
 90
        0
176
     0
 62
    18
420
        0
176
     0
 90
       50
176
     0
 90
        3
176
     0
 62
     5
420
      255
176
     0
290
     0
176
     0
 90
       50
176
     0
 90
       50
176
     0
 90
       50
176
     0
290
     0
176
     0
 90
       50
176
     0
 62
   256
176
     0
 40
1.0
176
     0
 90
        2
176
     0
  1
strokes_ogs.tif
176
     0
290
     0
176
     0
 40
1.0
176
     0
 40
1.0
176
     0
  0
VISUALSTYLE
  5
39
102
{ACAD_REACTORS
330
2A
102
}
330
2A
100
AcDbVisualStyle
  2
Facepattern
 70
    15
177
     3
291
     1
 70
    58
 90
        2
176
     1
 90
        2
176
     1
 90
        0
176
     1
 90
        0
176
     1
 40
0.6
176
     1
 40
30.0
176
     1
 62
     7
420
 16777215
176
     1
 90
        1
176
     1
 90
        4
176
     1
 62
     7
176
     1
 62
   257
176
     1
 90
        1
176
     1
 90
        1
176
     1
 40
1.0
176
     1
 90
        8
176
     1
 62
     7
176
     1
 40
1.0
176
     1
 90
        1
176
     1
 90
        6
176
     1
 90
        2
176
     1
 62
     7
176
     1
 90
        5
176
     1
 90
        0
176
     1
 90
        0
176
     1
290
     0
176
     1
 90
        1
176
     1
 40
0.0
176
     1
 90
        0
176
     1
290
     0
176
     1
290
     1
176
     1
290
     1
176
     1
290
     0
176
     1
290
     0
176
     1
290
     0
176
     1
290
     0
176
     1
290
     0
176
     1
290
     0
176
     1
 90
       50
176
     1
 40
0.0
176
     1
 40
1.0
176
     1
 90
        0
176
     1
 62
    18
420
        0
176
     1
 90
       50
176
     1
 90
        3
176
     1
 62
     5
420
      255
176
     1
290
     0
176
     1
 90
       50
176
     1
 90
       50
176
     1
 90
       50
176
     1
290
     0
176
     1
 90
       50
176
     1
 62
   256
176
     0
 40
1.0
176
     0
 90
        2
176
     1
  1
strokes_ogs.tif
176
     1
290
     0
176
     1
 40
1.0
176
     1
 40
1.0
176
     1
  0
VISUALSTYLE
  5
2B
102
{ACAD_REACTORS
330
2A
102
}
330
2A
100
AcDbVisualStyle
  2
Flat
 70
     0
177
     3
291
     1
 70
    58
 90
        2
176
     1
 90
        1
176
     1
 90
        1
176
     1
 90
        2
176
     1
 40
0.6
176
     1
 40
30.0
176
     1
 62
     7
420
 16777215
176
     1
 90
        0
176
     1
 90
        0
176
     1
 62
     7
176
     1
 62
   257
176
     1
 90
        1
176
     1
 90
        1
176
     1
 40
1.0
176
     1
 90
        8
176
     1
 62
     7
176
     1
 40
1.0
176
     1
 90
        1
176
     1
 90
        6
176
     1
 90
        2
176
     1
 62
     7
176
     1
 90
        5
176
     1
 90
        0
176
     1
 90
        0
176
     1
290
     0
176
     1
 90
       13
176
     1
 40
0.0
176
     1
 90
        0
176
     1
290
     0
176
     1
290
     1
176
     1
290
     1
176
     1
290
     0
176
     1
290
     0
176
     1
290
     0
176
     1
290
     0
176
     1
290
     0
176
     1
290
     0
176
     1
 90
       50
176
     1
 40
0.0
176
     1
 40
1.0
176
     1
 90
        0
176
     1
 62
    18
420
        0
176
     1
 90
       50
176
     1
 90
        3
176
     1
 62
     5
420
      255
176
     1
290
     0
176
     1
 90
       50
176
     1
 90
       50
176
     1
 90
       50
176
     1
290
     0
176
     1
 90
       50
176
     1
 62
   256
176
     0
 40
1.0
176
     0
 90
        2
176
     1
  1
strokes_ogs.tif
176
     1
290
     0
176
     1
 40
1.0
176
     1
 40
1.0
176
     1
  0
VISUALSTYLE
  5
2C
102
{ACAD_REACTORS
330
2A
102
}
330
2A
100
AcDbVisualStyle
  2
FlatWithEdges
 70
     1
177
     3
291
     1
 70
    58
 90
        2
176
     1
 90
        1
176
     1
 90
        1
176
     1
 90
        2
176
     1
 40
0.6
176
     1
 40
30.0
176
     1
 62
     7
420
 16777215
176
     1
 90
        1
176
     1
 90
        0
176
     1
 62
     7
176
     1
 62
   257
176
     1
 90
        1
176
     1
 90
        1
176
     1
 40
1.0
176
     1
 90
        0
176
     1
 62
   257
176
     1
 40
1.0
176
     1
 90
        1
176
     1
 90
        6
176
     1
 90
        2
176
     1
 62
     7
176
     1
 90
        5
176
     1
 90
        0
176
     1
 90
        0
176
     1
290
     0
176
     1
 90
       13
176
     1
 40
0.0
176
     1
 90
        0
176
     1
290
     0
176
     1
290
     1
176
     1
290
     1
176
     1
290
     0
176
     1
290
     0
176
     1
290
     0
176
     1
290
     0
176
     1
290
     0
176
     1
290
     0
176
     1
 90
       50
176
     1
 40
0.0
176
     1
 40
1.0
176
     1
 90
        0
176
     1
 62
    18
420
        0
176
     1
 90
       50
176
     1
 90
        3
176
     1
 62
     5
420
      255
176
     1
290
     0
176
     1
 90
       50
176
     1
 90
       50
176
     1
 90
       50
176
     1
290
     0
176
     1
 90
       50
176
     1
 62
   256
176
     0
 40
1.0
176
     0
 90
        2
176
     1
  1
strokes_ogs.tif
176
     1
290
     0
176
     1
 40
1.0
176
     1
 40
1.0
176
     1
  0
VISUALSTYLE
  5
2D
102
{ACAD_REACTORS
330
2A
102
}
330
2A
100
AcDbVisualStyle
  2
Gouraud
 70
     2
177
     3
291
     1
 70
    58
 90
        2
176
     1
 90
        2
176
     1
 90
        1
176
     1
 90
        2
176
     1
 40
0.6
176
     1
 40
30.0
176
     1
 62
     7
420
 16777215
176
     1
 90
        0
176
     1
 90
        0
176
     1
 62
     7
176
     1
 62
   257
176
     1
 90
        1
176
     1
 90
        1
176
     1
 40
1.0
176
     1
 90
        0
176
     1
 62
     7
176
     1
 40
1.0
176
     1
 90
        1
176
     1
 90
        6
176
     1
 90
        2
176
     1
 62
     7
176
     1
 90
        5
176
     1
 90
        0
176
     1
 90
        0
176
     1
290
     0
176
     1
 90
       13
176
     1
 40
0.0
176
     1
 90
        0
176
     1
290
     0
176
     1
290
     1
176
     1
290
     1
176
     1
290
     0
176
     1
290
     0
176
     1
290
     0
176
     1
290
     0
176
     1
290
     0
176
     1
290
     0
176
     1
 90
       50
176
     1
 40
0.0
176
     1
 40
1.0
176
     1
 90
        0
176
     1
 62
    18
420
        0
176
     1
 90
       50
176
     1
 90
        3
176
     1
 62
     5
420
      255
176
     1
290
     0
176
     1
 90
       50
176
     1
 90
       50
176
     1
 90
       50
176
     1
290
     0
176
     1
 90
       50
176
     1
 62
   256
176
     0
 40
1.0
176
     0
 90
        2
176
     1
  1
strokes_ogs.tif
176
     1
290
     0
176
     1
 40
1.0
176
     1
 40
1.0
176
     1
  0
VISUALSTYLE
  5
2E
102
{ACAD_REACTORS
330
2A
102
}
330
2A
100
AcDbVisualStyle
  2
GouraudWithEdges
 70
     3
177
     3
291
     1
 70
    58
 90
        2
176
     1
 90
        2
176
     1
 90
        1
176
     1
 90
        2
176
     1
 40
0.6
176
     1
 40
30.0
176
     1
 62
     7
420
 16777215
176
     1
 90
        1
176
     1
 90
        0
176
     1
 62
     7
176
     1
 62
   257
176
     1
 90
        1
176
     1
 90
        1
176
     1
 40
1.0
176
     1
 90
        0
176
     1
 62
   257
176
     1
 40
1.0
176
     1
 90
        1
176
     1
 90
        6
176
     1
 90
        2
176
     1
 62
     7
176
     1
 90
        5
176
     1
 90
        0
176
     1
 90
        0
176
     1
290
     0
176
     1
 90
       13
176
     1
 40
0.0
176
     1
 90
        0
176
     1
290
     0
176
     1
290
     1
176
     1
290
     1
176
     1
290
     0
176
     1
290
     0
176
     1
290
     0
176
     1
290
     0
176
     1
290
     0
176
     1
290
     0
176
     1
 90
       50
176
     1
 40
0.0
176
     1
 40
1.0
176
     1
 90
        0
176
     1
 62
    18
420
        0
176
     1
 90
       50
176
     1
 90
        3
176
     1
 62
     5
420
      255
176
     1
290
     0
176
     1
 90
       50
176
     1
 90
       50
176
     1
 90
       50
176
     1
290
     0
176
     1
 90
       50
176
     1
 62
   256
176
     0
 40
1.0
176
     0
 90
        2
176
     1
  1
strokes_ogs.tif
176
     1
290
     0
176
     1
 40
1.0
176
     1
 40
1.0
176
     1
  0
VISUALSTYLE
  5
31
102
{ACAD_REACTORS
330
2A
102
}
330
2A
100
AcDbVisualStyle
  2
Hidden
 70
     6
177
     3
291
     0
 70
    58
 90
        1
176
     1
 90
        2
176
     1
 90
        2
176
     1
 90
        0
176
     1
 40
0.6
176
     1
 40
30.0
176
     1
 62
     7
420
 16777215
176
     1
 90
        2
176
     1
 90
        2
176
     1
 62
     7
176
     1
 62
   257
176
     1
 90
        2
176
     1
 90
        1
176
     1
 40
40.0
176
     1
 90
        0
176
     1
 62
   257
176
     1
 40
1.0
176
     1
 90
        1
176
     1
 90
        6
176
     1
 90
        2
176
     1
 62
     7
176
     1
 90
        3
176
     1
 90
        0
176
     1
 90
        0
176
     1
290
     0
176
     1
 90
        1
176
     1
 40
0.0
176
     1
 90
        0
176
     1
290
     0
176
     1
290
     1
176
     1
290
     1
176
     1
290
     0
176
     1
290
     0
176
     1
290
     0
176
     1
290
     0
176
     1
290
     0
176
     1
290
     0
176
     1
 90
       50
176
     1
 40
0.0
176
     1
 40
1.0
176
     1
 90
        0
176
     1
 62
    18
420
        0
176
     1
 90
       50
176
     1
 90
        3
176
     1
 62
     5
420
      255
176
     1
290
     0
176
     1
 90
       50
176
     1
 90
       50
176
     1
 90
       50
176
     1
290
     0
176
     1
 90
       50
176
     1
 62
   256
176
     0
 40
1.0
176
     0
 90
        2
176
     1
  1
strokes_ogs.tif
176
     1
290
     0
176
     1
 40
1.0
176
     1
 40
1.0
176
     1
  0
VISUALSTYLE
  5
3B
102
{ACAD_REACTORS
330
2A
102
}
330
2A
100
AcDbVisualStyle
  2
JitterOff
 70
    20
177
     3
291
     1
 70
    58
 90
        2
176
     0
 90
        2
176
     0
 90
        0
176
     0
 90
        0
176
     0
 40
0.6
176
     0
 40
30.0
176
     0
 62
     7
420
 16777215
176
     0
 90
        1
176
     0
 90
        4
176
     0
 62
     7
176
     0
 62
   257
176
     0
 90
        1
176
     0
 90
        1
176
     0
 40
1.0
176
     0
 90
       10
176
     2
 62
     7
176
     0
 40
1.0
176
     0
 90
        1
176
     0
 90
        6
176
     0
 90
        2
176
     0
 62
     7
176
     0
 90
        5
176
     0
 90
        0
176
     0
 90
        0
176
     0
290
     0
176
     0
 90
        1
176
     0
 40
0.0
176
     0
 90
        0
176
     0
290
     0
176
     0
290
     1
176
     0
290
     1
176
     0
290
     0
176
     0
290
     0
176
     0
290
     0
176
     0
290
     0
176
     0
290
     0
176
     0
290
     0
176
     0
 90
       50
176
     0
 40
0.0
176
     0
 40
1.0
176
     0
 90
        0
176
     0
 62
    18
420
        0
176
     0
 90
       50
176
     0
 90
        3
176
     0
 62
     5
420
      255
176
     0
290
     0
176
     0
 90
       50
176
     0
 90
       50
176
     0
 90
       50
176
     0
290
     0
176
     0
 90
       50
176
     0
 62
   256
176
     0
 40
1.0
176
     0
 90
        2
176
     0
  1
strokes_ogs.tif
176
     0
290
     0
176
     0
 40
1.0
176
     0
 40
1.0
176
     0
  0
VISUALSTYLE
  5
38
102
{ACAD_REACTORS
330
2A
102
}
330
2A
100
AcDbVisualStyle
  2
Linepattern
 70
    14
177
     3
291
     1
 70
    58
 90
        2
176
     1
 90
        2
176
     1
 90
        0
176
     1
 90
        0
176
     1
 40
0.6
176
     1
 40
30.0
176
     1
 62
     7
420
 16777215
176
     1
 90
        1
176
     1
 90
        4
176
     1
 62
     7
176
     1
 62
   257
176
     1
 90
        7
176
     1
 90
        7
176
     1
 40
1.0
176
     1
 90
        8
176
     1
 62
     7
176
     1
 40
1.0
176
     1
 90
        1
176
     1
 90
        6
176
     1
 90
        2
176
     1
 62
     7
176
     1
 90
        5
176
     1
 90
        0
176
     1
 90
        0
176
     1
290
     0
176
     1
 90
        1
176
     1
 40
0.0
176
     1
 90
        0
176
     1
290
     0
176
     1
290
     1
176
     1
290
     1
176
     1
290
     0
176
     1
290
     0
176
     1
290
     0
176
     1
290
     0
176
     1
290
     0
176
     1
290
     0
176
     1
 90
       50
176
     1
 40
0.0
176
     1
 40
1.0
176
     1
 90
        0
176
     1
 62
    18
420
        0
176
     1
 90
       50
176
     1
 90
        3
176
     1
 62
     5
420
      255
176
     1
290
     0
176
     1
 90
       50
176
     1
 90
       50
176
     1
 90
       50
176
     1
290
     0
176
     1
 90
       50
176
     1
 62
   256
176
     0
 40
1.0
176
     0
 90
        2
176
     1
  1
strokes_ogs.tif
176
     1
290
     0
176
     1
 40
1.0
176
     1
 40
1.0
176
     1
  0
VISUALSTYLE
  5
3C
102
{ACAD_REACTORS
330
2A
102
}
330
2A
100
AcDbVisualStyle
  2
OverhangOff
 70
    21
177
     3
291
     1
 70
    58
 90
        2
176
     0
 90
        2
176
     0
 90
        0
176
     0
 90
        0
176
     0
 40
0.6
176
     0
 40
30.0
176
     0
 62
     7
420
 16777215
176
     0
 90
        1
176
     0
 90
        4
176
     0
 62
     7
176
     0
 62
   257
176
     0
 90
        1
176
     0
 90
        1
176
     0
 40
1.0
176
     0
 90
        9
176
     2
 62
     7
176
     0
 40
1.0
176
     0
 90
        1
176
     0
 90
        6
176
     0
 90
        2
176
     0
 62
     7
176
     0
 90
        5
176
     0
 90
        0
176
     0
 90
        0
176
     0
290
     0
176
     0
 90
        1
176
     0
 40
0.0
176
     0
 90
        0
176
     0
290
     0
176
     0
290
     1
176
     0
290
     1
176
     0
290
     0
176
     0
290
     0
176
     0
290
     0
176
     0
290
     0
176
     0
290
     0
176
     0
290
     0
176
     0
 90
       50
176
     0
 40
0.0
176
     0
 40
1.0
176
     0
 90
        0
176
     0
 62
    18
420
        0
176
     0
 90
       50
176
     0
 90
        3
176
     0
 62
     5
420
      255
176
     0
290
     0
176
     0
 90
       50
176
     0
 90
       50
176
     0
 90
       50
176
     0
290
     0
176
     0
 90
       50
176
     0
 62
   256
176
     0
 40
1.0
176
     0
 90
        2
176
     0
  1
strokes_ogs.tif
176
     0
290
     0
176
     0
 40
1.0
176
     0
 40
1.0
176
     0
  0
VISUALSTYLE
  5
33
102
{ACAD_REACTORS
330
2A
102
}
330
2A
100
AcDbVisualStyle
  2
Realistic
 70
     8
177
     3
291
     0
 70
    58
 90
        2
176
     1
 90
        3
176
     1
 90
        0
176
     1
 90
        2
176
     1
 40
0.6
176
     1
 40
30.0
176
     1
 62
     7
420
 16777215
176
     1
 90
        0
176
     1
 90
        0
176
     1
 62
     7
176
     1
 62
   257
176
     1
 90
        1
176
     1
 90
        1
176
     1
 40
1.0
176
     1
 90
        8
176
     1
 62
   257
176
     1
 40
1.0
176
     1
 90
        1
176
     1
 90
        6
176
     1
 90
        2
176
     1
 62
     7
176
     1
 90
        3
176
     1
 90
        0
176
     1
 90
        0
176
     1
290
     0
176
     1
 90
       13
176
     1
 40
0.0
176
     1
 90
        0
176
     1
290
     0
176
     1
290
     1
176
     1
290
     1
176
     1
290
     0
176
     1
290
     0
176
     1
290
     0
176
     1
290
     0
176
     1
290
     0
176
     1
290
     0
176
     1
 90
       50
176
     1
 40
0.0
176
     1
 40
1.0
176
     1
 90
        0
176
     1
 62
    18
420
        0
176
     1
 90
       50
176
     1
 90
        3
176
     1
 62
     5
420
      255
176
     1
290
     0
176
     1
 90
       50
176
     1
 90
       50
176
     1
 90
       50
176
     1
290
     0
176
     1
 90
       50
176
     1
 62
   256
176
     0
 40
1.0
176
     0
 90
        2
176
     1
  1
strokes_ogs.tif
176
     1
290
     0
176
     1
 40
1.0
176
     1
 40
1.0
176
     1
  0
VISUALSTYLE
  5
42
102
{ACAD_REACTORS
330
2A
102
}
330
2A
100
AcDbVisualStyle
  2
Shaded
 70
    27
177
     3
291
     0
 70
    58
 90
        2
176
     1
 90
        2
176
     1
 90
        1
176
     1
 90
        2
176
     1
 40
0.6
176
     1
 40
30.0
176
     1
 62
     7
420
 16777215
176
     1
 90
        0
176
     1
 90
        4
176
     1
 62
     7
176
     1
 62
   257
176
     1
 90
        1
176
     1
 90
        1
176
     1
 40
1.0
176
     1
 90
        8
176
     1
 62
   257
176
     1
 40
1.0
176
     1
 90
        1
176
     1
 90
        6
176
     1
 90
        2
176
     1
 62
     8
420
  7895160
176
     1
 90
        3
176
     1
 90
        0
176
     1
 90
        0
176
     1
290
     0
176
     1
 90
        5
176
     1
 40
0.0
176
     1
 90
        0
176
     1
290
     0
176
     1
290
     1
176
     1
290
     1
176
     1
290
     0
176
     1
290
     0
176
     1
290
     0
176
     1
290
     0
176
     1
290
     0
176
     1
290
     0
176
     1
 90
       50
176
     1
 40
0.0
176
     1
 40
1.0
176
     1
 90
        0
176
     1
 62
    18
420
        0
176
     1
 90
       50
176
     1
 90
        3
176
     1
 62
     5
420
      255
176
     1
290
     0
176
     1
 90
       50
176
     1
 90
       50
176
     1
 90
       50
176
     1
290
     0
176
     1
 90
       50
176
     1
 62
   256
176
     0
 40
1.0
176
     0
 90
        2
176
     1
  1
strokes_ogs.tif
176
     1
290
     0
176
     1
 40
1.0
176
     1
 40
1.0
176
     1
  0
VISUALSTYLE
  5
41
102
{ACAD_REACTORS
330
2A
102
}
330
2A
100
AcDbVisualStyle
  2
Shaded with edges
 70
    26
177
     3
291
     0
 70
    58
 90
        2
176
     1
 90
        2
176
     1
 90
        1
176
     1
 90
        2
176
     1
 40
0.6
176
     1
 40
30.0
176
     1
 62
     7
420
 16777215
176
     1
 90
        1
176
     1
 90
       10
176
     1
 62
     7
176
     1
 62
   257
176
     1
 90
        2
176
     1
 90
        1
176
     1
 40
1.0
176
     1
 90
        8
176
     1
 62
   257
176
     1
 40
1.0
176
     1
 90
        1
176
     1
 90
        6
176
     1
 90
        2
176
     1
 62
     7
176
     1
 90
        3
176
     1
 90
        0
176
     1
 90
        0
176
     1
290
     0
176
     1
 90
        5
176
     1
 40
0.0
176
     1
 90
        0
176
     1
290
     0
176
     1
290
     1
176
     1
290
     1
176
     1
290
     0
176
     1
290
     0
176
     1
290
     0
176
     1
290
     0
176
     1
290
     0
176
     1
290
     0
176
     1
 90
       50
176
     1
 40
0.0
176
     1
 40
1.0
176
     1
 90
        0
176
     1
 62
    18
420
        0
176
     1
 90
       50
176
     1
 90
        3
176
     1
 62
     5
420
      255
176
     1
290
     0
176
     1
 90
       50
176
     1
 90
       50
176
     1
 90
       50
176
     1
290
     0
176
     1
 90
       50
176
     1
 62
   256
176
     0
 40
1.0
176
     0
 90
        2
176
     1
  1
strokes_ogs.tif
176
     1
290
     0
176
     1
 40
1.0
176
     1
 40
1.0
176
     1
  0
VISUALSTYLE
  5
3E
102
{ACAD_REACTORS
330
2A
102
}
330
2A
100
AcDbVisualStyle
  2
Shades of Gray
 70
    23
177
     3
291
     0
 70
    58
 90
        2
176
     1
 90
        2
176
     1
 90
        3
176
     1
 90
        0
176
     1
 40
0.6
176
     1
 40
30.0
176
     1
 62
     7
420
 16777215
176
     1
 90
        2
176
     1
 90
        2
176
     1
 62
     7
176
     1
 62
     7
176
     1
 90
        1
176
     1
 90
        1
176
     1
 40
40.0
176
     1
 90
        8
176
     1
 62
     7
176
     1
 40
1.0
176
     1
 90
        1
176
     1
 90
        6
176
     1
 90
        2
176
     1
 62
     7
176
     1
 90
        3
176
     1
 90
        0
176
     1
 90
        0
176
     1
290
     0
176
     1
 90
        1
176
     1
 40
0.0
176
     1
 90
        0
176
     1
290
     0
176
     1
290
     1
176
     1
290
     1
176
     1
290
     0
176
     1
290
     0
176
     1
290
     0
176
     1
290
     0
176
     1
290
     0
176
     1
290
     0
176
     1
 90
       50
176
     1
 40
0.0
176
     1
 40
1.0
176
     1
 90
        0
176
     1
 62
    18
420
        0
176
     1
 90
       50
176
     1
 90
        3
176
     1
 62
     5
420
      255
176
     1
290
     0
176
     1
 90
       50
176
     1
 90
       50
176
     1
 90
       50
176
     1
290
     0
176
     1
 90
       50
176
     1
 62
   256
176
     0
 40
1.0
176
     0
 90
        2
176
     1
  1
strokes_ogs.tif
176
     1
290
     0
176
     1
 40
1.0
176
     1
 40
1.0
176
     1
  0
VISUALSTYLE
  5
3F
102
{ACAD_REACTORS
330
2A
102
}
330
2A
100
AcDbVisualStyle
  2
Sketchy
 70
    24
177
     3
291
     0
 70
    58
 90
        1
176
     1
 90
        2
176
     1
 90
        2
176
     1
 90
        0
176
     1
 40
0.6
176
     1
 40
30.0
176
     1
 62
     7
420
 16777215
176
     1
 90
        2
176
     1
 90
        2
176
     1
 62
     7
176
     1
 62
     7
176
     1
 90
        1
176
     1
 90
        1
176
     1
 40
40.0
176
     1
 90
       11
176
     1
 62
     7
176
     1
 40
1.0
176
     1
 90
        1
176
     1
 90
        6
176
     1
 90
        2
176
     1
 62
     7
176
     1
 90
        6
176
     1
 90
        0
176
     1
 90
        0
176
     1
290
     0
176
     1
 90
        1
176
     1
 40
0.0
176
     1
 90
        0
176
     1
290
     0
176
     1
290
     1
176
     1
290
     1
176
     1
290
     0
176
     1
290
     0
176
     1
290
     0
176
     1
290
     0
176
     1
290
     0
176
     1
290
     0
176
     1
 90
       50
176
     1
 40
0.0
176
     1
 40
1.0
176
     1
 90
        0
176
     1
 62
    18
420
        0
176
     1
 90
       50
176
     1
 90
        3
176
     1
 62
     5
420
      255
176
     1
290
     0
176
     1
 90
       50
176
     1
 90
       50
176
     1
 90
       50
176
     1
290
     0
176
     1
 90
       50
176
     1
 62
   256
176
     0
 40
1.0
176
     0
 90
        2
176
     1
  1
strokes_ogs.tif
176
     1
290
     0
176
     1
 40
1.0
176
     1
 40
1.0
176
     1
  0
VISUALSTYLE
  5
37
102
{ACAD_REACTORS
330
2A
102
}
330
2A
100
AcDbVisualStyle
  2
Thicken
 70
    13
177
     3
291
     1
 70
    58
 90
        2
176
     1
 90
        2
176
     1
 90
        0
176
     1
 90
        0
176
     1
 40
0.6
176
     1
 40
30.0
176
     1
 62
     7
420
 16777215
176
     1
 90
        1
176
     1
 90
        4
176
     1
 62
     7
176
     1
 62
   257
176
     1
 90
        1
176
     1
 90
        1
176
     1
 40
1.0
176
     1
 90
       12
176
     1
 62
     7
176
     1
 40
1.0
176
     1
 90
        1
176
     1
 90
        6
176
     1
 90
        2
176
     1
 62
     7
176
     1
 90
        5
176
     1
 90
        0
176
     1
 90
        0
176
     1
290
     0
176
     1
 90
        1
176
     1
 40
0.0
176
     1
 90
        0
176
     1
290
     0
176
     1
290
     1
176
     1
290
     1
176
     1
290
     0
176
     1
290
     0
176
     1
290
     0
176
     1
290
     0
176
     1
290
     0
176
     1
290
     0
176
     1
 90
       50
176
     1
 40
0.0
176
     1
 40
1.0
176
     1
 90
        0
176
     1
 62
    18
420
        0
176
     1
 90
       50
176
     1
 90
        3
176
     1
 62
     5
420
      255
176
     1
290
     0
176
     1
 90
       50
176
     1
 90
       50
176
     1
 90
       50
176
     1
290
     0
176
     1
 90
       50
176
     1
 62
   256
176
     0
 40
1.0
176
     0
 90
        2
176
     1
  1
strokes_ogs.tif
176
     1
290
     0
176
     1
 40
1.0
176
     1
 40
1.0
176
     1
  0
VISUALSTYLE
  5
30
102
{ACAD_REACTORS
330
2A
102
}
330
2A
100
AcDbVisualStyle
  2
Wireframe
 70
     5
177
     3
291
     0
 70
    58
 90
        0
176
     1
 90
        2
176
     1
 90
        0
176
     1
 90
        0
176
     1
 40
0.6
176
     1
 40
30.0
176
     1
 62
     7
420
 16777215
176
     1
 90
        1
176
     1
 90
        4
176
     1
 62
     7
176
     1
 62
   257
176
     1
 90
        1
176
     1
 90
        1
176
     1
 40
1.0
176
     1
 90
        0
176
     1
 62
   257
176
     1
 40
1.0
176
     1
 90
        1
176
     1
 90
        6
176
     1
 90
        2
176
     1
 62
     7
176
     1
 90
        3
176
     1
 90
        0
176
     1
 90
        0
176
     1
290
     0
176
     1
 90
        1
176
     1
 40
0.0
176
     1
 90
        0
176
     1
290
     0
176
     1
290
     1
176
     1
290
     1
176
     1
290
     0
176
     1
290
     0
176
     1
290
     0
176
     1
290
     0
176
     1
290
     0
176
     1
290
     0
176
     1
 90
       50
176
     1
 40
0.0
176
     1
 40
1.0
176
     1
 90
        0
176
     1
 62
    18
420
        0
176
     1
 90
       50
176
     1
 90
        3
176
     1
 62
     5
420
      255
176
     1
290
     0
176
     1
 90
       50
176
     1
 90
       50
176
     1
 90
       50
176
     1
290
     0
176
     1
 90
       50
176
     1
 62
   256
176
     0
 40
1.0
176
     0
 90
        2
176
     1
  1
strokes_ogs.tif
176
     1
290
     0
176
     1
 40
1.0
176
     1
 40
1.0
176
     1
  0
VISUALSTYLE
  5
40
102
{ACAD_REACTORS
330
2A
102
}
330
2A
100
AcDbVisualStyle
  2
X-Ray
 70
    25
177
     3
291
     0
 70
    58
 90
        2
176
     1
 90
        2
176
     1
 90
        1
176
     1
 90
        1
176
     1
 40
0.5
176
     1
 40
30.0
176
     1
 62
     7
420
 16777215
176
     1
 90
        1
176
     1
 90
        0
176
     1
 62
     7
176
     1
 62
   257
176
     1
 90
        1
176
     1
 90
        1
176
     1
 40
1.0
176
     1
 90
        8
176
     1
 62
     7
176
     1
 40
1.0
176
     1
 90
        1
176
     1
 90
        6
176
     1
 90
        2
176
     1
 62
     7
176
     1
 90
        3
176
     1
 90
        0
176
     1
 90
        0
176
     1
290
     0
176
     1
 90
       13
176
     1
 40
0.0
176
     1
 90
        0
176
     1
290
     0
176
     1
290
     1
176
     1
290
     1
176
     1
290
     0
176
     1
290
     0
176
     1
290
     0
176
     1
290
     0
176
     1
290
     0
176
     1
290
     0
176
     1
 90
       50
176
     1
 40
0.0
176
     1
 40
1.0
176
     1
 90
        0
176
     1
 62
    18
420
        0
176
     1
 90
       50
176
     1
 90
        3
176
     1
 62
     5
420
      255
176
     1
290
     0
176
     1
 90
       50
176
     1
 90
       50
176
     1
 90
       50
176
     1
290
     0
176
     1
 90
       50
176
     1
 62
   256
176
     0
 40
1.0
176
     0
 90
        2
176
     1
  1
strokes_ogs.tif
176
     1
290
     0
176
     1
 40
1.0
176
     1
 40
1.0
176
     1
  0
DICTIONARYVAR
  5
18E
102
{ACAD_REACTORS
330
18D
102
}
330
18D
100
DictionaryVariables
280
     0
  1
1:1
  0
DICTIONARYVAR
  5
193
102
{ACAD_REACTORS
330
18D
102
}
330
18D
100
DictionaryVariables
280
     0
  1
Standard
  0
DICTIONARYVAR
  5
192
102
{ACAD_REACTORS
330
18D
102
}
330
18D
100
DictionaryVariables
280
     0
  1
Standard
  0
DICTIONARY
  5
18F
330
6A
100
AcDbDictionary
280
     1
281
     1
  3
ACAD_ROUNDTRIP_2008_TABLESTYLE_CELLSTYLEMAP
360
190
  0
CELLSTYLEMAP
  5
190
102
{ACAD_REACTORS
330
18F
102
}
330
18F
100
AcDbCellStyleMap
 90
        3
300
CELLSTYLE
  1
TABLEFORMAT_BEGIN
 90
        5
170
     1
 91
        0
 92
    32768
 62
   257
 93
        1
300
CONTENTFORMAT
  1
CONTENTFORMAT_BEGIN
 90
        0
 91
        0
 92
        4
 93
        0
300

 40
0.0
140
1.0
 94
        5
 62
     0
340
11
144
6.0
309
CONTENTFORMAT_END
171
     1
301
MARGIN
  1
CELLMARGIN_BEGIN
 40
1.5
 40
1.5
 40
1.5
 40
1.5
 40
1.5
 40
1.5
309
CELLMARGIN_END
 94
        6
 95
        1
302
GRIDFORMAT
  1
GRIDFORMAT_BEGIN
 90
        0
 91
        1
 62
     0
 92
       -2
340
14
 93
        0
 40
0.045
309
GRIDFORMAT_END
 95
        2
302
GRIDFORMAT
  1
GRIDFORMAT_BEGIN
 90
        0
 91
        1
 62
     0
 92
       -2
340
14
 93
        0
 40
0.045
309
GRIDFORMAT_END
 95
        4
302
GRIDFORMAT
  1
GRIDFORMAT_BEGIN
 90
        0
 91
        1
 62
     0
 92
       -2
340
14
 93
        0
 40
0.045
309
GRIDFORMAT_END
 95
        8
302
GRIDFORMAT
  1
GRIDFORMAT_BEGIN
 90
        0
 91
        1
 62
     0
 92
       -2
340
14
 93
        0
 40
0.045
309
GRIDFORMAT_END
 95
       16
302
GRIDFORMAT
  1
GRIDFORMAT_BEGIN
 90
        0
 91
        1
 62
     0
 92
       -2
340
14
 93
        0
 40
0.045
309
GRIDFORMAT_END
 95
       32
302
GRIDFORMAT
  1
GRIDFORMAT_BEGIN
 90
        0
 91
        1
 62
     0
 92
       -2
340
14
 93
        0
 40
0.045
309
GRIDFORMAT_END
309
TABLEFORMAT_END
  1
CELLSTYLE_BEGIN
 90
        1
 91
        1
300
_TITLE
309
CELLSTYLE_END
300
CELLSTYLE
  1
TABLEFORMAT_BEGIN
 90
        5
170
     1
 91
        0
 92
        0
 62
   257
 93
        1
300
CONTENTFORMAT
  1
CONTENTFORMAT_BEGIN
 90
        0
 91
        0
 92
        4
 93
        0
300

 40
0.0
140
1.0
 94
        5
 62
     0
340
11
144
4.5
309
CONTENTFORMAT_END
171
     1
301
MARGIN
  1
CELLMARGIN_BEGIN
 40
1.5
 40
1.5
 40
1.5
 40
1.5
 40
1.5
 40
1.5
309
CELLMARGIN_END
 94
        6
 95
        1
302
GRIDFORMAT
  1
GRIDFORMAT_BEGIN
 90
        0
 91
        1
 62
     0
 92
       -2
340
14
 93
        0
 40
0.045
309
GRIDFORMAT_END
 95
        2
302
GRIDFORMAT
  1
GRIDFORMAT_BEGIN
 90
        0
 91
        1
 62
     0
 92
       -2
340
14
 93
        0
 40
0.045
309
GRIDFORMAT_END
 95
        4
302
GRIDFORMAT
  1
GRIDFORMAT_BEGIN
 90
        0
 91
        1
 62
     0
 92
       -2
340
14
 93
        0
 40
0.045
309
GRIDFORMAT_END
 95
        8
302
GRIDFORMAT
  1
GRIDFORMAT_BEGIN
 90
        0
 91
        1
 62
     0
 92
       -2
340
14
 93
        0
 40
0.045
309
GRIDFORMAT_END
 95
       16
302
GRIDFORMAT
  1
GRIDFORMAT_BEGIN
 90
        0
 91
        1
 62
     0
 92
       -2
340
14
 93
        0
 40
0.045
309
GRIDFORMAT_END
 95
       32
302
GRIDFORMAT
  1
GRIDFORMAT_BEGIN
 90
        0
 91
        1
 62
     0
 92
       -2
340
14
 93
        0
 40
0.045
309
GRIDFORMAT_END
309
TABLEFORMAT_END
  1
CELLSTYLE_BEGIN
 90
        2
 91
        1
300
_HEADER
309
CELLSTYLE_END
300
CELLSTYLE
  1
TABLEFORMAT_BEGIN
 90
        5
170
     1
 91
        0
 92
        0
 62
   257
 93
        1
300
CONTENTFORMAT
  1
CONTENTFORMAT_BEGIN
 90
        0
 91
        0
 92
        4
 93
        0
300

 40
0.0
140
1.0
 94
        2
 62
     0
340
11
144
4.5
309
CONTENTFORMAT_END
171
     1
301
MARGIN
  1
CELLMARGIN_BEGIN
 40
1.5
 40
1.5
 40
1.5
 40
1.5
 40
1.5
 40
1.5
309
CELLMARGIN_END
 94
        6
 95
        1
302
GRIDFORMAT
  1
GRIDFORMAT_BEGIN
 90
        0
 91
        1
 62
     0
 92
       -2
340
14
 93
        0
 40
0.045
309
GRIDFORMAT_END
 95
        2
302
GRIDFORMAT
  1
GRIDFORMAT_BEGIN
 90
        0
 91
        1
 62
     0
 92
       -2
340
14
 93
        0
 40
0.045
309
GRIDFORMAT_END
 95
        4
302
GRIDFORMAT
  1
GRIDFORMAT_BEGIN
 90
        0
 91
        1
 62
     0
 92
       -2
340
14
 93
        0
 40
0.045
309
GRIDFORMAT_END
 95
        8
302
GRIDFORMAT
  1
GRIDFORMAT_BEGIN
 90
        0
 91
        1
 62
     0
 92
       -2
340
14
 93
        0
 40
0.045
309
GRIDFORMAT_END
 95
       16
302
GRIDFORMAT
  1
GRIDFORMAT_BEGIN
 90
        0
 91
        1
 62
     0
 92
       -2
340
14
 93
        0
 40
0.045
309
GRIDFORMAT_END
 95
       32
302
GRIDFORMAT
  1
GRIDFORMAT_BEGIN
 90
        0
 91
        1
 62
     0
 92
       -2
340
14
 93
        0
 40
0.045
309
GRIDFORMAT_END
309
TABLEFORMAT_END
  1
CELLSTYLE_BEGIN
 90
        3
 91
        2
300
_DATA
309
CELLSTYLE_END
  0
ENDSEC
  0
EOF
