  0
SECTION
  2
HEADER
  9
$ACADVER
  1
AC1027
  9
$ACADMAINTVER
 70
   105
  9
$DWGCODEPAGE
  3
ANSI_1251
  9
$REQUIREDVERSIONS
160
                 0
  9
$INSBASE
 10
0.0
 20
0.0
 30
0.0
  9
$EXTMIN
 10
0.0
 20
0.0
 30
0.0
  9
$EXTMAX
 10
1420.0
 20
1297.0
 30
0.0
  9
$LIMMIN
 10
0.0
 20
0.0
  9
$LIMMAX
 10
1420.0
 20
1297.0
  9
$ORTHOMODE
 70
     0
  9
$REGENMODE
 70
     1
  9
$FILLMODE
 70
     1
  9
$QTEXTMODE
 70
     0
  9
$MIRRTEXT
 70
     1
  9
$LTSCALE
 40
1.0
  9
$ATTMODE
 70
     1
  9
$TEXTSIZE
 40
5.0
  9
$TRACEWID
 40
1.0
  9
$TEXTSTYLE
  7
Standard
  9
$CLAYER
  8
0
  9
$CELTYPE
  6
ByLayer
  9
$CECOLOR
 62
   256
  9
$CELTSCALE
 40
1.0
  9
$DISPSILH
 70
     0
  9
$DIMSCALE
 40
1.0
  9
$DIMASZ
 40
5.0
  9
$DIMEXO
 40
0.0
  9
$DIMDLI
 40
3.75
  9
$DIMRND
 40
0.0
  9
$DIMDLE
 40
0.0
  9
$DIMEXE
 40
1.0
  9
$DIMTP
 40
0.0
  9
$DIMTM
 40
0.0
  9
$DIMTXT
 40
3.5
  9
$DIMCEN
 40
2.5
  9
$DIMTSZ
 40
0.0
  9
$DIMTOL
 70
     0
  9
$DIMLIM
 70
     0
  9
$DIMTIH
 70
     1
  9
$DIMTOH
 70
     1
  9
$DIMSE1
 70
     0
  9
$DIMSE2
 70
     0
  9
$DIMTAD
 70
     1
  9
$DIMZIN
 70
     0
  9
$DIMBLK
  1

  9
$DIMASO
 70
     1
  9
$DIMSHO
 70
     1
  9
$DIMPOST
  1

  9
$DIMAPOST
  1

  9
$DIMALT
 70
     0
  9
$DIMALTD
 70
     3
  9
$DIMALTF
 40
0.0393700787
  9
$DIMLFAC
 40
1.0
  9
$DIMTOFL
 70
     1
  9
$DIMTVP
 40
0.0
  9
$DIMTIX
 70
     0
  9
$DIMSOXD
 70
     0
  9
$DIMSAH
 70
     0
  9
$DIMBLK1
  1

  9
$DIMBLK2
  1

  9
$DIMSTYLE
  2
ISO-25
  9
$DIMCLRD
 70
     0
  9
$DIMCLRE
 70
     0
  9
$DIMCLRT
 70
     0
  9
$DIMTFAC
 40
1.0
  9
$DIMGAP
 40
1.5
  9
$DIMJUST
 70
     0
  9
$DIMSD1
 70
     0
  9
$DIMSD2
 70
     0
  9
$DIMTOLJ
 70
     0
  9
$DIMTZIN
 70
     0
  9
$DIMALTZ
 70
     0
  9
$DIMALTTZ
 70
     0
  9
$DIMUPT
 70
     0
  9
$DIMDEC
 70
     1
  9
$DIMTDEC
 70
     1
  9
$DIMALTU
 70
     2
  9
$DIMALTTD
 70
     3
  9
$DIMTXSTY
  7
Standard
  9
$DIMAUNIT
 70
     0
  9
$DIMADEC
 70
     2
  9
$DIMALTRND
 40
0.0
  9
$DIMAZIN
 70
     0
  9
$DIMDSEP
 70
    44
  9
$DIMATFIT
 70
     3
  9
$DIMFRAC
 70
     0
  9
$DIMLDRBLK
  1

  9
$DIMLUNIT
 70
     2
  9
$DIMLWD
 70
    -2
  9
$DIMLWE
 70
    -2
  9
$DIMTMOVE
 70
     0
  9
$DIMFXL
 40
1.0
  9
$DIMFXLON
 70
     0
  9
$DIMJOGANG
 40
0.7853981634
  9
$DIMTFILL
 70
     0
  9
$DIMTFILLCLR
 70
     0
  9
$DIMARCSYM
 70
     0
  9
$DIMLTYPE
  6

  9
$DIMLTEX1
  6

  9
$DIMLTEX2
  6

  9
$DIMTXTDIRECTION
 70
     0
  9
$LUNITS
 70
     2
  9
$LUPREC
 70
     1
  9
$SKETCHINC
 40
1.0
  9
$FILLETRAD
 40
10.0
  9
$AUNITS
 70
     0
  9
$AUPREC
 70
     2
  9
$MENU
  1
.
  9
$ELEVATION
 40
0.0
  9
$PELEVATION
 40
0.0
  9
$THICKNESS
 40
0.0
  9
$LIMCHECK
 70
     0
  9
$CHAMFERA
 40
0.0
  9
$CHAMFERB
 40
0.0
  9
$CHAMFERC
 40
0.0
  9
$CHAMFERD
 40
0.0
  9
$SKPOLY
 70
     0
  9
$TDCREATE
 40
2459607.584051794
  9
$TDUCREATE
 40
2459607.459051794
  9
$TDUPDATE
 40
2459607.58405243
  9
$TDUUPDATE
 40
2459607.45905243
  9
$TDINDWG
 40
0.0000000116
  9
$TDUSRTIMER
 40
0.0000000116
  9
$USRTIMER
 70
     1
  9
$ANGBASE
 50
0.0
  9
$ANGDIR
 70
     0
  9
$PDMODE
 70
     0
  9
$PDSIZE
 40
-1.0
  9
$PLINEWID
 40
0.0
  9
$SPLFRAME
 70
     0
  9
$SPLINETYPE
 70
     6
  9
$SPLINESEGS
 70
     8
  9
$HANDSEED
  5
40B
  9
$SURFTAB1
 70
     6
  9
$SURFTAB2
 70
     6
  9
$SURFTYPE
 70
     6
  9
$SURFU
 70
     6
  9
$SURFV
 70
     6
  9
$UCSBASE
  2

  9
$UCSNAME
  2

  9
$UCSORG
 10
0.0
 20
0.0
 30
0.0
  9
$UCSXDIR
 10
1.0
 20
0.0
 30
0.0
  9
$UCSYDIR
 10
0.0
 20
1.0
 30
0.0
  9
$UCSORTHOREF
  2

  9
$UCSORTHOVIEW
 70
     0
  9
$UCSORGTOP
 10
0.0
 20
0.0
 30
0.0
  9
$UCSORGBOTTOM
 10
0.0
 20
0.0
 30
0.0
  9
$UCSORGLEFT
 10
0.0
 20
0.0
 30
0.0
  9
$UCSORGRIGHT
 10
0.0
 20
0.0
 30
0.0
  9
$UCSORGFRONT
 10
0.0
 20
0.0
 30
0.0
  9
$UCSORGBACK
 10
0.0
 20
0.0
 30
0.0
  9
$PUCSBASE
  2

  9
$PUCSNAME
  2

  9
$PUCSORG
 10
0.0
 20
0.0
 30
0.0
  9
$PUCSXDIR
 10
1.0
 20
0.0
 30
0.0
  9
$PUCSYDIR
 10
0.0
 20
1.0
 30
0.0
  9
$PUCSORTHOREF
  2

  9
$PUCSORTHOVIEW
 70
     0
  9
$PUCSORGTOP
 10
0.0
 20
0.0
 30
0.0
  9
$PUCSORGBOTTOM
 10
0.0
 20
0.0
 30
0.0
  9
$PUCSORGLEFT
 10
0.0
 20
0.0
 30
0.0
  9
$PUCSORGRIGHT
 10
0.0
 20
0.0
 30
0.0
  9
$PUCSORGFRONT
 10
0.0
 20
0.0
 30
0.0
  9
$PUCSORGBACK
 10
0.0
 20
0.0
 30
0.0
  9
$USERI1
 70
     0
  9
$USERI2
 70
     0
  9
$USERI3
 70
     0
  9
$USERI4
 70
     0
  9
$USERI5
 70
     0
  9
$USERR1
 40
0.0
  9
$USERR2
 40
0.0
  9
$USERR3
 40
0.0
  9
$USERR4
 40
0.0
  9
$USERR5
 40
0.0
  9
$WORLDVIEW
 70
     1
  9
$SHADEDGE
 70
     3
  9
$SHADEDIF
 70
    70
  9
$TILEMODE
 70
     1
  9
$MAXACTVP
 70
    64
  9
$PINSBASE
 10
0.0
 20
0.0
 30
0.0
  9
$PLIMCHECK
 70
     0
  9
$PEXTMIN
 10
1.0000000000E+20
 20
1.0000000000E+20
 30
1.0000000000E+20
  9
$PEXTMAX
 10
-1.0000000000E+20
 20
-1.0000000000E+20
 30
-1.0000000000E+20
  9
$PLIMMIN
 10
0.0
 20
0.0
  9
$PLIMMAX
 10
420.0
 20
297.0
  9
$UNITMODE
 70
     0
  9
$VISRETAIN
 70
     1
  9
$PLINEGEN
 70
     0
  9
$PSLTSCALE
 70
     1
  9
$TREEDEPTH
 70
  3020
  9
$CMLSTYLE
  2
Standard
  9
$CMLJUST
 70
     0
  9
$CMLSCALE
 40
20.0
  9
$PROXYGRAPHICS
 70
     1
  9
$MEASUREMENT
 70
     1
  9
$CELWEIGHT
370
    -1
  9
$ENDCAPS
280
     0
  9
$JOINSTYLE
280
     0
  9
$LWDISPLAY
290
     1
  9
$INSUNITS
 70
     4
  9
$HYPERLINKBASE
  1

  9
$STYLESHEET
  1

  9
$XEDIT
290
     1
  9
$CEPSNTYPE
380
     0
  9
$PSTYLEMODE
290
     1
  9
$FINGERPRINTGUID
  2
{A2D34623-88B2-4B88-B84C-0B193DF2EE7A}
  9
$VERSIONGUID
  2
{FAEB1C32-E019-11D5-929B-00C0DF256EC4}
  9
$EXTNAMES
290
     1
  9
$PSVPSCALE
 40
0.0
  9
$OLESTARTUP
290
     0
  9
$SORTENTS
280
   127
  9
$INDEXCTL
280
     0
  9
$HIDETEXT
280
     1
  9
$XCLIPFRAME
280
     2
  9
$HALOGAP
280
     0
  9
$OBSCOLOR
 70
   257
  9
$OBSLTYPE
280
     0
  9
$INTERSECTIONDISPLAY
280
     0
  9
$INTERSECTIONCOLOR
 70
   257
  9
$DIMASSOC
280
     2
  9
$PROJECTNAME
  1

  9
$CAMERADISPLAY
290
     0
  9
$LENSLENGTH
 40
50.0
  9
$CAMERAHEIGHT
 40
0.0
  9
$STEPSPERSEC
 40
2.0
  9
$STEPSIZE
 40
6.0
  9
$3DDWFPREC
 40
2.0
  9
$PSOLWIDTH
 40
5.0
  9
$PSOLHEIGHT
 40
80.0
  9
$LOFTANG1
 40
1.5707963268
  9
$LOFTANG2
 40
1.5707963268
  9
$LOFTMAG1
 40
0.0
  9
$LOFTMAG2
 40
0.0
  9
$LOFTPARAM
 70
     7
  9
$LOFTNORMALS
280
     1
  9
$LATITUDE
 40
37.795
  9
$LONGITUDE
 40
-122.394
  9
$NORTHDIRECTION
 40
0.0
  9
$TIMEZONE
 70
 -8000
  9
$LIGHTGLYPHDISPLAY
280
     1
  9
$TILEMODELIGHTSYNCH
280
     1
  9
$CMATERIAL
347
44
  9
$SOLIDHIST
280
     0
  9
$SHOWHIST
280
     1
  9
$DWFFRAME
280
     2
  9
$DGNFRAME
280
     2
  9
$REALWORLDSCALE
290
     1
  9
$INTERFERECOLOR
 62
   256
  9
$CSHADOW
280
     0
  9
$SHADOWPLANELOCATION
 40
0.0
  0
ENDSEC
  0
SECTION
  2
CLASSES
  0
CLASS
  1
ACDBDICTIONARYWDFLT
  2
AcDbDictionaryWithDefault
  3
ObjectDBX Classes
 90
        0
 91
        4
280
     0
281
     0
  0
CLASS
  1
VISUALSTYLE
  2
AcDbVisualStyle
  3
ObjectDBX Classes
 90
     4095
 91
        4
280
     0
281
     0
  0
CLASS
  1
MATERIAL
  2
AcDbMaterial
  3
ObjectDBX Classes
 90
     1153
 91
        4
280
     0
281
     0
  0
CLASS
  1
SCALE
  2
AcDbScale
  3
ObjectDBX Classes
 90
     1153
 91
        4
280
     0
281
     0
  0
CLASS
  1
TABLESTYLE
  2
AcDbTableStyle
  3
ObjectDBX Classes
 90
     4095
 91
        4
280
     0
281
     0
  0
CLASS
  1
MLEADERSTYLE
  2
AcDbMLeaderStyle
  3
ACDB_MLEADERSTYLE_CLASS
 90
     4095
 91
        4
280
     0
281
     0
  0
CLASS
  1
SUN
  2
AcDbSun
  3
SCENEOE
 90
     1153
 91
        4
280
     0
281
     0
  0
CLASS
  1
DICTIONARYVAR
  2
AcDbDictionaryVar
  3
ObjectDBX Classes
 90
        0
 91
        4
280
     0
281
     0
  0
CLASS
  1
CELLSTYLEMAP
  2
AcDbCellStyleMap
  3
ObjectDBX Classes
 90
     1152
 91
        4
280
     0
281
     0
  0
ENDSEC
  0
SECTION
  2
TABLES
  0
TABLE
  2
VPORT
  5
8
330
0
100
AcDbSymbolTable
 70
     1
  0
VPORT
  5
29
330
8
100
AcDbSymbolTableRecord
100
AcDbViewportTableRecord
  2
*Active
 70
     0
 10
0.0
 20
0.0
 11
1.0
 21
1.0
 12
710.0
 22
648.5
 13
0.0
 23
0.0
 14
10.0
 24
10.0
 15
10.0
 25
10.0
 16
0.0
 26
0.0
 36
1.0
 17
0.0
 27
0.0
 37
0.0
 40
1297.0
 41
1.0948342328
 42
50.0
 43
0.0
 44
0.0
 50
0.0
 51
0.0
 71
     0
 72
  2000
 73
     1
 74
     3
 75
     0
 76
     0
 77
     0
 78
     0
281
     0
 65
     1
110
0.0
120
0.0
130
0.0
111
1.0
121
0.0
131
0.0
112
0.0
122
1.0
132
0.0
 79
     0
146
0.0
348
2F
 60
     3
 61
     5
292
     1
282
     1
141
0.0
142
0.0
 63
   250
361
6D
  0
ENDTAB
  0
TABLE
  2
LTYPE
  5
5
330
0
100
AcDbSymbolTable
 70
     8
  0
LTYPE
  5
14
330
5
100
AcDbSymbolTableRecord
100
AcDbLinetypeTableRecord
  2
ByBlock
 70
     0
  3

 72
    65
 73
     0
 40
0.0
  0
LTYPE
  5
15
330
5
100
AcDbSymbolTableRecord
100
AcDbLinetypeTableRecord
  2
ByLayer
 70
     0
  3

 72
    65
 73
     0
 40
0.0
  0
LTYPE
  5
16
330
5
100
AcDbSymbolTableRecord
100
AcDbLinetypeTableRecord
  2
Continuous
 70
     0
  3
Solid line
 72
    65
 73
     0
 40
0.0
  0
LTYPE
  5
6E
330
5
100
AcDbSymbolTableRecord
100
AcDbLinetypeTableRecord
  2
SLD-Сплошная
 70
     0
  3
SolidWorks Line Style
 72
    65
 73
     0
 40
0.0
  0
LTYPE
  5
6F
330
5
100
AcDbSymbolTableRecord
100
AcDbLinetypeTableRecord
  2
SLD-Штриховая
 70
     0
  3
SolidWorks Line Style
 72
    65
 73
     2
 40
1.905
 49
1.27
 74
     0
 49
-0.635
 74
     0
  0
LTYPE
  5
70
330
5
100
AcDbSymbolTableRecord
100
AcDbLinetypeTableRecord
  2
SLD-Штрихпункт.-с-двумя-точками
 70
     0
  3
SolidWorks Line Style
 72
    65
 73
     6
 40
12.7
 49
6.35
 74
     0
 49
-1.27
 74
     0
 49
1.27
 74
     0
 49
-1.27
 74
     0
 49
1.27
 74
     0
 49
-1.27
 74
     0
  0
LTYPE
  5
71
330
5
100
AcDbSymbolTableRecord
100
AcDbLinetypeTableRecord
  2
SLD-Штрихпункт.-утолщ.
 70
     0
  3
SolidWorks Line Style
 72
    65
 73
     4
 40
10.16
 49
6.35
 74
     0
 49
-1.27
 74
     0
 49
1.27
 74
     0
 49
-1.27
 74
     0
  0
LTYPE
  5
72
330
5
100
AcDbSymbolTableRecord
100
AcDbLinetypeTableRecord
  2
SLD-Осевая
 70
     0
  3
SolidWorks Line Style
 72
    65
 73
     4
 40
19.05
 49
15.24
 74
     0
 49
-1.27
 74
     0
 49
1.27
 74
     0
 49
-1.27
 74
     0
  0
LTYPE
  5
73
330
5
100
AcDbSymbolTableRecord
100
AcDbLinetypeTableRecord
  2
SLD-Сшитая
 70
     0
  3
SolidWorks Line Style
 72
    65
 73
     2
 40
0.635
 49
0.0
 74
     0
 49
-0.635
 74
     0
  0
LTYPE
  5
74
330
5
100
AcDbSymbolTableRecord
100
AcDbLinetypeTableRecord
  2
SLD-Тонкая-Толстая
 70
     0
  3
SolidWorks Line Style
 72
    65
 73
     2
 40
5.080508
 49
0.000508
 74
     0
 49
-5.08
 74
     0
  0
ENDTAB
  0
TABLE
  2
LAYER
  5
2
330
0
100
AcDbSymbolTable
 70
     5
  0
LAYER
  5
10
330
2
100
AcDbSymbolTableRecord
100
AcDbLayerTableRecord
  2
0
 70
     0
 62
     7
  6
Continuous
370
    -3
390
F
347
46
348
0
  0
LAYER
  5
75
330
2
100
AcDbSymbolTableRecord
100
AcDbLayerTableRecord
  2
ОСНОВНОЙ
 70
     0
 62
   236
  6
SLD-Сплошная
370
    35
390
F
347
46
348
0
  0
LAYER
  5
76
330
2
100
AcDbSymbolTableRecord
100
AcDbLayerTableRecord
  2
HELP
 70
     0
 62
   -57
  6
SLD-Сплошная
290
     0
370
    -3
390
F
347
46
348
0
  0
LAYER
  5
77
330
2
100
AcDbSymbolTableRecord
100
AcDbLayerTableRecord
  2
ТЕКСТ
 70
     0
 62
   150
  6
SLD-Сплошная
370
    -3
390
F
347
46
348
0
  0
LAYER
  5
78
330
2
100
AcDbSymbolTableRecord
100
AcDbLayerTableRecord
  2
ТОНКИЙ
 70
     0
 62
   174
  6
SLD-Сплошная
370
    -3
390
F
347
46
348
0
  0
ENDTAB
  0
TABLE
  2
STYLE
  5
3
330
0
100
AcDbSymbolTable
 70
     1
  0
STYLE
  5
11
330
3
100
AcDbSymbolTableRecord
100
AcDbTextStyleTableRecord
  2
Standard
 70
     0
 40
0.0
 41
1.0
 50
0.0
 71
     0
 42
5.0
  3
txt
  4

  0
ENDTAB
  0
TABLE
  2
VIEW
  5
6
330
0
100
AcDbSymbolTable
 70
     0
  0
ENDTAB
  0
TABLE
  2
UCS
  5
7
330
0
100
AcDbSymbolTable
 70
     0
  0
ENDTAB
  0
TABLE
  2
APPID
  5
9
330
0
100
AcDbSymbolTable
 70
     1
  0
APPID
  5
12
330
9
100
AcDbSymbolTableRecord
100
AcDbRegAppTableRecord
  2
ACAD
 70
     0
  0
ENDTAB
  0
TABLE
  2
DIMSTYLE
  5
A
330
0
100
AcDbSymbolTable
 70
     1
100
AcDbDimStyleTable
  0
DIMSTYLE
105
27
330
A
100
AcDbSymbolTableRecord
100
AcDbDimStyleTableRecord
  2
ISO-25
 70
     0
 41
2.5
 42
0.625
 43
3.75
 44
1.25
 73
     0
 74
     0
 77
     1
 78
     8
140
2.5
141
2.5
143
0.0393700787
147
0.625
171
     3
172
     1
178
     0
271
     2
272
     2
274
     3
278
    44
283
     0
284
     8
340
11
  0
ENDTAB
  0
TABLE
  2
BLOCK_RECORD
  5
1
330
0
100
AcDbSymbolTable
 70
     1
  0
BLOCK_RECORD
  5
1F
330
1
100
AcDbSymbolTableRecord
100
AcDbBlockTableRecord
  2
*Model_Space
340
22
 70
     0
280
     1
281
     0
  0
BLOCK_RECORD
  5
1B
330
1
100
AcDbSymbolTableRecord
100
AcDbBlockTableRecord
  2
*Paper_Space
340
1E
 70
     0
280
     1
281
     0
  0
BLOCK_RECORD
  5
23
330
1
100
AcDbSymbolTableRecord
100
AcDbBlockTableRecord
  2
*Paper_Space0
340
26
 70
     0
280
     1
281
     0
  0
ENDTAB
  0
ENDSEC
  0
SECTION
  2
BLOCKS
  0
BLOCK
  5
20
330
1F
100
AcDbEntity
  8
0
100
AcDbBlockBegin
  2
*Model_Space
 70
     0
 10
0.0
 20
0.0
 30
0.0
  3
*Model_Space
  1

  0
ENDBLK
  5
21
330
1F
100
AcDbEntity
  8
0
100
AcDbBlockEnd
  0
BLOCK
  5
1C
330
1B
100
AcDbEntity
 67
     1
  8
0
100
AcDbBlockBegin
  2
*Paper_Space
 70
     0
 10
0.0
 20
0.0
 30
0.0
  3
*Paper_Space
  1

  0
ENDBLK
  5
1D
330
1B
100
AcDbEntity
 67
     1
  8
0
100
AcDbBlockEnd
  0
BLOCK
  5
24
330
23
100
AcDbEntity
  8
0
100
AcDbBlockBegin
  2
*Paper_Space0
 70
     0
 10
0.0
 20
0.0
 30
0.0
  3
*Paper_Space0
  1

  0
ENDBLK
  5
25
330
23
100
AcDbEntity
  8
0
100
AcDbBlockEnd
  0
ENDSEC
  0
SECTION
  2
ENTITIES
  0
ARC
  5
79
330
1F
100
AcDbEntity
  8
0
  6
SLD-Сплошная
 62
     7
370
    35
100
AcDbCircle
 10
-294.6155456021
 20
154.9844543979
 30
0.0
 40
0.5155456020629003
100
AcDbArc
 50
290.0
 51
90.0
  0
ARC
  5
7A
330
1F
100
AcDbEntity
  8
0
  6
SLD-Сплошная
 62
     7
370
    35
100
AcDbCircle
 10
-305.3844543979
 20
154.9844543979
 30
0.0
 40
0.5155456020629003
100
AcDbArc
 50
90.0
 51
250.0
  0
LINE
  5
7B
330
1F
100
AcDbEntity
  8
0
  6
SLD-Сплошная
 62
     7
370
    35
100
AcDbLine
 10
-305.5607813786
 20
154.5
 30
0.0
 11
-304.2035165934
 21
154.0059960182
 31
0.0
  0
LINE
  5
7C
330
1F
100
AcDbEntity
  8
0
  6
SLD-Сплошная
 62
     7
370
    35
100
AcDbLine
 10
-295.7858830133
 20
154.0098542458
 30
0.0
 11
-294.4392186214
 21
154.5
 31
0.0
  0
ARC
  5
7D
330
1F
100
AcDbEntity
  8
0
  6
SLD-Сплошная
 62
     7
370
    35
100
AcDbCircle
 10
-304.2999705643
 20
153.7233003643
 30
0.0
 40
0.299972275757494
100
AcDbArc
 50
7.7671773653
 51
71.348521204
  0
ARC
  5
7E
330
1F
100
AcDbEntity
  8
0
  6
SLD-Сплошная
 62
     7
370
    35
100
AcDbCircle
 10
-295.7000285543
 20
153.7233104501
 30
0.0
 40
0.2999732357819594
100
AcDbArc
 50
107.300956313
 51
172.2622239196
  0
ARC
  5
7F
330
1F
100
AcDbEntity
  8
0
  6
SLD-Сплошная
 62
     7
370
    35
100
AcDbCircle
 10
505.3844543979
 20
154.9844543979
 30
0.0
 40
0.5155456020629003
100
AcDbArc
 50
290.0
 51
90.0
  0
ARC
  5
80
330
1F
100
AcDbEntity
  8
0
  6
SLD-Сплошная
 62
     7
370
    35
100
AcDbCircle
 10
494.6155456021
 20
154.9844543979
 30
0.0
 40
0.5155456020629003
100
AcDbArc
 50
90.0
 51
250.0
  0
LINE
  5
81
330
1F
100
AcDbEntity
  8
0
  6
SLD-Сплошная
 62
     7
370
    35
100
AcDbLine
 10
494.4392186214
 20
154.5
 30
0.0
 11
495.7964834066
 21
154.0059960182
 31
0.0
  0
LINE
  5
82
330
1F
100
AcDbEntity
  8
0
  6
SLD-Сплошная
 62
     7
370
    35
100
AcDbLine
 10
504.2141169867
 20
154.0098542458
 30
0.0
 11
505.5607813786
 21
154.5
 31
0.0
  0
ARC
  5
83
330
1F
100
AcDbEntity
  8
0
  6
SLD-Сплошная
 62
     7
370
    35
100
AcDbCircle
 10
495.7000294357
 20
153.7233003643
 30
0.0
 40
0.2999722757576861
100
AcDbArc
 50
7.7671773654
 51
71.348521204
  0
ARC
  5
84
330
1F
100
AcDbEntity
  8
0
  6
SLD-Сплошная
 62
     7
370
    35
100
AcDbCircle
 10
504.2999714457
 20
153.7233104501
 30
0.0
 40
0.2999732357821144
100
AcDbArc
 50
107.300956313
 51
172.2622239196
  0
ARC
  5
85
330
1F
100
AcDbEntity
  8
0
  6
SLD-Сплошная
 62
     7
370
    35
100
AcDbCircle
 10
-494.6155456021
 20
154.9844543979
 30
0.0
 40
0.5155456020629003
100
AcDbArc
 50
290.0
 51
90.0
  0
ARC
  5
86
330
1F
100
AcDbEntity
  8
0
  6
SLD-Сплошная
 62
     7
370
    35
100
AcDbCircle
 10
-505.3844543979
 20
154.9844543979
 30
0.0
 40
0.5155456020629003
100
AcDbArc
 50
90.0
 51
250.0
  0
LINE
  5
87
330
1F
100
AcDbEntity
  8
0
  6
SLD-Сплошная
 62
     7
370
    35
100
AcDbLine
 10
-505.5607813786
 20
154.5
 30
0.0
 11
-504.2035165934
 21
154.0059960182
 31
0.0
  0
LINE
  5
88
330
1F
100
AcDbEntity
  8
0
  6
SLD-Сплошная
 62
     7
370
    35
100
AcDbLine
 10
-495.7858830133
 20
154.0098542458
 30
0.0
 11
-494.4392186214
 21
154.5
 31
0.0
  0
ARC
  5
89
330
1F
100
AcDbEntity
  8
0
  6
SLD-Сплошная
 62
     7
370
    35
100
AcDbCircle
 10
-504.2999705643
 20
153.7233003643
 30
0.0
 40
0.299972275757558
100
AcDbArc
 50
7.7671773653
 51
71.348521204
  0
ARC
  5
8A
330
1F
100
AcDbEntity
  8
0
  6
SLD-Сплошная
 62
     7
370
    35
100
AcDbCircle
 10
-495.7000285543
 20
153.7233104501
 30
0.0
 40
0.2999732357820102
100
AcDbArc
 50
107.300956313
 51
172.2622239196
  0
ARC
  5
8B
330
1F
100
AcDbEntity
  8
0
  6
SLD-Сплошная
 62
     7
370
    35
100
AcDbCircle
 10
-94.6155456021
 20
154.9844543979
 30
0.0
 40
0.5155456020629003
100
AcDbArc
 50
290.0
 51
90.0
  0
ARC
  5
8C
330
1F
100
AcDbEntity
  8
0
  6
SLD-Сплошная
 62
     7
370
    35
100
AcDbCircle
 10
-105.3844543979
 20
154.9844543979
 30
0.0
 40
0.5155456020629003
100
AcDbArc
 50
90.0
 51
250.0
  0
LINE
  5
8D
330
1F
100
AcDbEntity
  8
0
  6
SLD-Сплошная
 62
     7
370
    35
100
AcDbLine
 10
-105.5607813786
 20
154.5
 30
0.0
 11
-104.2035165934
 21
154.0059960182
 31
0.0
  0
LINE
  5
8E
330
1F
100
AcDbEntity
  8
0
  6
SLD-Сплошная
 62
     7
370
    35
100
AcDbLine
 10
-95.7858830133
 20
154.0098542458
 30
0.0
 11
-94.4392186214
 21
154.5
 31
0.0
  0
ARC
  5
8F
330
1F
100
AcDbEntity
  8
0
  6
SLD-Сплошная
 62
     7
370
    35
100
AcDbCircle
 10
-104.2999705643
 20
153.7233003643
 30
0.0
 40
0.2999722757575261
100
AcDbArc
 50
7.7671773653
 51
71.348521204
  0
ARC
  5
90
330
1F
100
AcDbEntity
  8
0
  6
SLD-Сплошная
 62
     7
370
    35
100
AcDbCircle
 10
-95.7000285543
 20
153.7233104501
 30
0.0
 40
0.2999732357818916
100
AcDbArc
 50
107.300956313
 51
172.2622239196
  0
ARC
  5
91
330
1F
100
AcDbEntity
  8
0
  6
SLD-Сплошная
 62
     7
370
    35
100
AcDbCircle
 10
105.3844543979
 20
154.9844543979
 30
0.0
 40
0.5155456020629003
100
AcDbArc
 50
290.0
 51
90.0
  0
ARC
  5
92
330
1F
100
AcDbEntity
  8
0
  6
SLD-Сплошная
 62
     7
370
    35
100
AcDbCircle
 10
94.6155456021
 20
154.9844543979
 30
0.0
 40
0.5155456020629003
100
AcDbArc
 50
90.0
 51
250.0
  0
LINE
  5
93
330
1F
100
AcDbEntity
  8
0
  6
SLD-Сплошная
 62
     7
370
    35
100
AcDbLine
 10
94.4392186214
 20
154.5
 30
0.0
 11
95.7964834066
 21
154.0059960182
 31
0.0
  0
LINE
  5
94
330
1F
100
AcDbEntity
  8
0
  6
SLD-Сплошная
 62
     7
370
    35
100
AcDbLine
 10
104.2141169867
 20
154.0098542458
 30
0.0
 11
105.5607813786
 21
154.5
 31
0.0
  0
ARC
  5
95
330
1F
100
AcDbEntity
  8
0
  6
SLD-Сплошная
 62
     7
370
    35
100
AcDbCircle
 10
95.7000294357
 20
153.7233003643
 30
0.0
 40
0.299972275757558
100
AcDbArc
 50
7.7671773653
 51
71.348521204
  0
ARC
  5
96
330
1F
100
AcDbEntity
  8
0
  6
SLD-Сплошная
 62
     7
370
    35
100
AcDbCircle
 10
104.2999714457
 20
153.7233104501
 30
0.0
 40
0.2999732357819806
100
AcDbArc
 50
107.300956313
 51
172.2622239196
  0
ARC
  5
97
330
1F
100
AcDbEntity
  8
0
  6
SLD-Сплошная
 62
     7
370
    35
100
AcDbCircle
 10
305.3844543979
 20
154.9844543979
 30
0.0
 40
0.5155456020629003
100
AcDbArc
 50
290.0
 51
90.0
  0
ARC
  5
98
330
1F
100
AcDbEntity
  8
0
  6
SLD-Сплошная
 62
     7
370
    35
100
AcDbCircle
 10
294.6155456021
 20
154.9844543979
 30
0.0
 40
0.5155456020629003
100
AcDbArc
 50
90.0
 51
250.0
  0
LINE
  5
99
330
1F
100
AcDbEntity
  8
0
  6
SLD-Сплошная
 62
     7
370
    35
100
AcDbLine
 10
294.4392186214
 20
154.5
 30
0.0
 11
295.7964834066
 21
154.0059960182
 31
0.0
  0
LINE
  5
9A
330
1F
100
AcDbEntity
  8
0
  6
SLD-Сплошная
 62
     7
370
    35
100
AcDbLine
 10
304.2141169867
 20
154.0098542458
 30
0.0
 11
305.5607813786
 21
154.5
 31
0.0
  0
ARC
  5
9B
330
1F
100
AcDbEntity
  8
0
  6
SLD-Сплошная
 62
     7
370
    35
100
AcDbCircle
 10
295.7000294357
 20
153.7233003643
 30
0.0
 40
0.2999722757576978
100
AcDbArc
 50
7.7671773654
 51
71.348521204
  0
ARC
  5
9C
330
1F
100
AcDbEntity
  8
0
  6
SLD-Сплошная
 62
     7
370
    35
100
AcDbCircle
 10
304.2999714457
 20
153.7233104501
 30
0.0
 40
0.2999732357819764
100
AcDbArc
 50
107.300956313
 51
172.2622239196
  0
ARC
  5
9D
330
1F
100
AcDbEntity
  8
0
  6
SLD-Сплошная
 62
     7
370
    35
100
AcDbCircle
 10
494.6
 20
158.4
 30
0.0
 40
0.5000000000000284
100
AcDbArc
 50
110.0
 51
270.0
  0
ARC
  5
9E
330
1F
100
AcDbEntity
  8
0
  6
SLD-Сплошная
 62
     7
370
    35
100
AcDbCircle
 10
505.4
 20
158.4
 30
0.0
 40
0.5000000000000284
100
AcDbArc
 50
270.0
 51
70.0
  0
LINE
  5
9F
330
1F
100
AcDbEntity
  8
0
  6
SLD-Сплошная
 62
     7
370
    35
100
AcDbLine
 10
505.5710100717
 20
158.8698463104
 30
0.0
 11
504.4493984751
 21
159.278079546
 31
0.0
  0
LINE
  5
A0
330
1F
100
AcDbEntity
  8
0
  6
SLD-Сплошная
 62
     7
370
    35
100
AcDbLine
 10
495.3578307971
 20
159.207916739
 30
0.0
 11
494.4289899283
 21
158.8698463104
 31
0.0
  0
LINE
  5
A1
330
1F
100
AcDbEntity
  8
0
  6
SLD-Сплошная
 62
     7
370
    35
100
AcDbLine
 10
497.5
 20
150.5
 30
0.0
 11
497.5
 21
146.345
 31
0.0
  0
LINE
  5
A2
330
1F
100
AcDbEntity
  8
0
  6
SLD-Сплошная
 62
     7
370
    35
100
AcDbLine
 10
502.5
 20
146.345
 30
0.0
 11
502.5
 21
150.5
 31
0.0
  0
LINE
  5
A3
330
1F
100
AcDbEntity
  8
0
  6
SLD-Сплошная
 62
     7
370
    35
100
AcDbLine
 10
497.5
 20
146.345
 30
0.0
 11
497.945
 21
145.9
 31
0.0
  0
LINE
  5
A4
330
1F
100
AcDbEntity
  8
0
  6
SLD-Сплошная
 62
     7
370
    35
100
AcDbLine
 10
502.055
 20
145.9
 30
0.0
 11
502.5
 21
146.345
 31
0.0
  0
LINE
  5
A5
330
1F
100
AcDbEntity
  8
0
  6
SLD-Сплошная
 62
     7
370
    35
100
AcDbLine
 10
496.0
 20
163.3
 30
0.0
 11
495.7470679007
 21
163.1539695844
 31
0.0
  0
LINE
  5
A6
330
1F
100
AcDbEntity
  8
0
  6
SLD-Сплошная
 62
     7
370
    35
100
AcDbLine
 10
504.2529320993
 20
163.1539695844
 30
0.0
 11
504.0
 21
163.3
 31
0.0
  0
ARC
  5
A7
330
1F
100
AcDbEntity
  8
0
  6
SLD-Сплошная
 62
     7
370
    35
100
AcDbCircle
 10
-105.4
 20
158.4
 30
0.0
 40
0.5000000000000284
100
AcDbArc
 50
110.0
 51
270.0
  0
ARC
  5
A8
330
1F
100
AcDbEntity
  8
0
  6
SLD-Сплошная
 62
     7
370
    35
100
AcDbCircle
 10
-94.6
 20
158.4
 30
0.0
 40
0.5000000000000284
100
AcDbArc
 50
270.0
 51
70.0
  0
LINE
  5
A9
330
1F
100
AcDbEntity
  8
0
  6
SLD-Сплошная
 62
     7
370
    35
100
AcDbLine
 10
-94.4289899283
 20
158.8698463104
 30
0.0
 11
-95.5506015249
 21
159.278079546
 31
0.0
  0
LINE
  5
AA
330
1F
100
AcDbEntity
  8
0
  6
SLD-Сплошная
 62
     7
370
    35
100
AcDbLine
 10
-104.6421692029
 20
159.207916739
 30
0.0
 11
-105.5710100717
 21
158.8698463104
 31
0.0
  0
LINE
  5
AB
330
1F
100
AcDbEntity
  8
0
  6
SLD-Сплошная
 62
     7
370
    35
100
AcDbLine
 10
-102.5
 20
150.5
 30
0.0
 11
-102.5
 21
146.345
 31
0.0
  0
LINE
  5
AC
330
1F
100
AcDbEntity
  8
0
  6
SLD-Сплошная
 62
     7
370
    35
100
AcDbLine
 10
-97.5
 20
146.345
 30
0.0
 11
-97.5
 21
150.5
 31
0.0
  0
LINE
  5
AD
330
1F
100
AcDbEntity
  8
0
  6
SLD-Сплошная
 62
     7
370
    35
100
AcDbLine
 10
-102.5
 20
146.345
 30
0.0
 11
-102.055
 21
145.9
 31
0.0
  0
LINE
  5
AE
330
1F
100
AcDbEntity
  8
0
  6
SLD-Сплошная
 62
     7
370
    35
100
AcDbLine
 10
-97.945
 20
145.9
 30
0.0
 11
-97.5
 21
146.345
 31
0.0
  0
LINE
  5
AF
330
1F
100
AcDbEntity
  8
0
  6
SLD-Сплошная
 62
     7
370
    35
100
AcDbLine
 10
-104.0
 20
163.3
 30
0.0
 11
-104.2529320993
 21
163.1539695844
 31
0.0
  0
LINE
  5
B0
330
1F
100
AcDbEntity
  8
0
  6
SLD-Сплошная
 62
     7
370
    35
100
AcDbLine
 10
-95.7470679007
 20
163.1539695844
 30
0.0
 11
-96.0
 21
163.3
 31
0.0
  0
ARC
  5
B1
330
1F
100
AcDbEntity
  8
0
  6
SLD-Сплошная
 62
     7
370
    35
100
AcDbCircle
 10
-505.4
 20
158.4
 30
0.0
 40
0.5000000000000284
100
AcDbArc
 50
110.0
 51
270.0
  0
ARC
  5
B2
330
1F
100
AcDbEntity
  8
0
  6
SLD-Сплошная
 62
     7
370
    35
100
AcDbCircle
 10
-494.6
 20
158.4
 30
0.0
 40
0.5000000000000284
100
AcDbArc
 50
270.0
 51
70.0
  0
LINE
  5
B3
330
1F
100
AcDbEntity
  8
0
  6
SLD-Сплошная
 62
     7
370
    35
100
AcDbLine
 10
-494.4289899283
 20
158.8698463104
 30
0.0
 11
-495.5506015249
 21
159.278079546
 31
0.0
  0
LINE
  5
B4
330
1F
100
AcDbEntity
  8
0
  6
SLD-Сплошная
 62
     7
370
    35
100
AcDbLine
 10
-504.6421692029
 20
159.207916739
 30
0.0
 11
-505.5710100717
 21
158.8698463104
 31
0.0
  0
LINE
  5
B5
330
1F
100
AcDbEntity
  8
0
  6
SLD-Сплошная
 62
     7
370
    35
100
AcDbLine
 10
-502.5
 20
146.345
 30
0.0
 11
-502.055
 21
145.9
 31
0.0
  0
LINE
  5
B6
330
1F
100
AcDbEntity
  8
0
  6
SLD-Сплошная
 62
     7
370
    35
100
AcDbLine
 10
-497.945
 20
145.9
 30
0.0
 11
-497.5
 21
146.345
 31
0.0
  0
LINE
  5
B7
330
1F
100
AcDbEntity
  8
0
  6
SLD-Сплошная
 62
     7
370
    35
100
AcDbLine
 10
-502.5
 20
150.5
 30
0.0
 11
-502.5
 21
146.345
 31
0.0
  0
LINE
  5
B8
330
1F
100
AcDbEntity
  8
0
  6
SLD-Сплошная
 62
     7
370
    35
100
AcDbLine
 10
-497.5
 20
146.345
 30
0.0
 11
-497.5
 21
150.5
 31
0.0
  0
LINE
  5
B9
330
1F
100
AcDbEntity
  8
0
  6
SLD-Сплошная
 62
     7
370
    35
100
AcDbLine
 10
-504.0
 20
163.3
 30
0.0
 11
-504.2529320993
 21
163.1539695844
 31
0.0
  0
LINE
  5
BA
330
1F
100
AcDbEntity
  8
0
  6
SLD-Сплошная
 62
     7
370
    35
100
AcDbLine
 10
-495.7470679007
 20
163.1539695844
 30
0.0
 11
-496.0
 21
163.3
 31
0.0
  0
ARC
  5
BB
330
1F
100
AcDbEntity
  8
0
  6
SLD-Сплошная
 62
     7
370
    35
100
AcDbCircle
 10
94.6
 20
158.4
 30
0.0
 40
0.5000000000000284
100
AcDbArc
 50
110.0
 51
270.0
  0
ARC
  5
BC
330
1F
100
AcDbEntity
  8
0
  6
SLD-Сплошная
 62
     7
370
    35
100
AcDbCircle
 10
105.4
 20
158.4
 30
0.0
 40
0.5000000000000284
100
AcDbArc
 50
270.0
 51
70.0
  0
LINE
  5
BD
330
1F
100
AcDbEntity
  8
0
  6
SLD-Сплошная
 62
     7
370
    35
100
AcDbLine
 10
105.5710100717
 20
158.8698463104
 30
0.0
 11
104.4493984751
 21
159.278079546
 31
0.0
  0
LINE
  5
BE
330
1F
100
AcDbEntity
  8
0
  6
SLD-Сплошная
 62
     7
370
    35
100
AcDbLine
 10
95.3578307971
 20
159.207916739
 30
0.0
 11
94.4289899283
 21
158.8698463104
 31
0.0
  0
LINE
  5
BF
330
1F
100
AcDbEntity
  8
0
  6
SLD-Сплошная
 62
     7
370
    35
100
AcDbLine
 10
97.5
 20
146.345
 30
0.0
 11
97.945
 21
145.9
 31
0.0
  0
LINE
  5
C0
330
1F
100
AcDbEntity
  8
0
  6
SLD-Сплошная
 62
     7
370
    35
100
AcDbLine
 10
102.055
 20
145.9
 30
0.0
 11
102.5
 21
146.345
 31
0.0
  0
LINE
  5
C1
330
1F
100
AcDbEntity
  8
0
  6
SLD-Сплошная
 62
     7
370
    35
100
AcDbLine
 10
97.5
 20
150.5
 30
0.0
 11
97.5
 21
146.345
 31
0.0
  0
LINE
  5
C2
330
1F
100
AcDbEntity
  8
0
  6
SLD-Сплошная
 62
     7
370
    35
100
AcDbLine
 10
102.5
 20
146.345
 30
0.0
 11
102.5
 21
150.5
 31
0.0
  0
LINE
  5
C3
330
1F
100
AcDbEntity
  8
0
  6
SLD-Сплошная
 62
     7
370
    35
100
AcDbLine
 10
96.0
 20
163.3
 30
0.0
 11
95.7470679007
 21
163.1539695844
 31
0.0
  0
LINE
  5
C4
330
1F
100
AcDbEntity
  8
0
  6
SLD-Сплошная
 62
     7
370
    35
100
AcDbLine
 10
104.2529320993
 20
163.1539695844
 30
0.0
 11
104.0
 21
163.3
 31
0.0
  0
ARC
  5
C5
330
1F
100
AcDbEntity
  8
0
  6
SLD-Сплошная
 62
     7
370
    35
100
AcDbCircle
 10
294.6
 20
158.4
 30
0.0
 40
0.5000000000000284
100
AcDbArc
 50
110.0
 51
270.0
  0
ARC
  5
C6
330
1F
100
AcDbEntity
  8
0
  6
SLD-Сплошная
 62
     7
370
    35
100
AcDbCircle
 10
305.4
 20
158.4
 30
0.0
 40
0.5000000000000284
100
AcDbArc
 50
270.0
 51
70.0
  0
LINE
  5
C7
330
1F
100
AcDbEntity
  8
0
  6
SLD-Сплошная
 62
     7
370
    35
100
AcDbLine
 10
305.5710100717
 20
158.8698463104
 30
0.0
 11
304.4493984751
 21
159.278079546
 31
0.0
  0
LINE
  5
C8
330
1F
100
AcDbEntity
  8
0
  6
SLD-Сплошная
 62
     7
370
    35
100
AcDbLine
 10
295.3578307971
 20
159.207916739
 30
0.0
 11
294.4289899283
 21
158.8698463104
 31
0.0
  0
LINE
  5
C9
330
1F
100
AcDbEntity
  8
0
  6
SLD-Сплошная
 62
     7
370
    35
100
AcDbLine
 10
297.5
 20
146.345
 30
0.0
 11
297.945
 21
145.9
 31
0.0
  0
LINE
  5
CA
330
1F
100
AcDbEntity
  8
0
  6
SLD-Сплошная
 62
     7
370
    35
100
AcDbLine
 10
302.055
 20
145.9
 30
0.0
 11
302.5
 21
146.345
 31
0.0
  0
LINE
  5
CB
330
1F
100
AcDbEntity
  8
0
  6
SLD-Сплошная
 62
     7
370
    35
100
AcDbLine
 10
297.5
 20
150.5
 30
0.0
 11
297.5
 21
146.345
 31
0.0
  0
LINE
  5
CC
330
1F
100
AcDbEntity
  8
0
  6
SLD-Сплошная
 62
     7
370
    35
100
AcDbLine
 10
302.5
 20
146.345
 30
0.0
 11
302.5
 21
150.5
 31
0.0
  0
LINE
  5
CD
330
1F
100
AcDbEntity
  8
0
  6
SLD-Сплошная
 62
     7
370
    35
100
AcDbLine
 10
296.0
 20
163.3
 30
0.0
 11
295.7470679007
 21
163.1539695844
 31
0.0
  0
LINE
  5
CE
330
1F
100
AcDbEntity
  8
0
  6
SLD-Сплошная
 62
     7
370
    35
100
AcDbLine
 10
304.2529320993
 20
163.1539695844
 30
0.0
 11
304.0
 21
163.3
 31
0.0
  0
ARC
  5
CF
330
1F
100
AcDbEntity
  8
0
  6
SLD-Сплошная
 62
     7
370
    35
100
AcDbCircle
 10
-305.4
 20
158.4
 30
0.0
 40
0.5000000000000284
100
AcDbArc
 50
110.0
 51
270.0
  0
ARC
  5
D0
330
1F
100
AcDbEntity
  8
0
  6
SLD-Сплошная
 62
     7
370
    35
100
AcDbCircle
 10
-294.6
 20
158.4
 30
0.0
 40
0.5000000000000284
100
AcDbArc
 50
270.0
 51
70.0
  0
LINE
  5
D1
330
1F
100
AcDbEntity
  8
0
  6
SLD-Сплошная
 62
     7
370
    35
100
AcDbLine
 10
-294.4289899283
 20
158.8698463104
 30
0.0
 11
-295.5506015249
 21
159.278079546
 31
0.0
  0
LINE
  5
D2
330
1F
100
AcDbEntity
  8
0
  6
SLD-Сплошная
 62
     7
370
    35
100
AcDbLine
 10
-304.6421692029
 20
159.207916739
 30
0.0
 11
-305.5710100717
 21
158.8698463104
 31
0.0
  0
LINE
  5
D3
330
1F
100
AcDbEntity
  8
0
  6
SLD-Сплошная
 62
     7
370
    35
100
AcDbLine
 10
-302.5
 20
146.345
 30
0.0
 11
-302.055
 21
145.9
 31
0.0
  0
LINE
  5
D4
330
1F
100
AcDbEntity
  8
0
  6
SLD-Сплошная
 62
     7
370
    35
100
AcDbLine
 10
-297.945
 20
145.9
 30
0.0
 11
-297.5
 21
146.345
 31
0.0
  0
LINE
  5
D5
330
1F
100
AcDbEntity
  8
0
  6
SLD-Сплошная
 62
     7
370
    35
100
AcDbLine
 10
-302.5
 20
150.5
 30
0.0
 11
-302.5
 21
146.345
 31
0.0
  0
LINE
  5
D6
330
1F
100
AcDbEntity
  8
0
  6
SLD-Сплошная
 62
     7
370
    35
100
AcDbLine
 10
-297.5
 20
146.345
 30
0.0
 11
-297.5
 21
150.5
 31
0.0
  0
LINE
  5
D7
330
1F
100
AcDbEntity
  8
0
  6
SLD-Сплошная
 62
     7
370
    35
100
AcDbLine
 10
-304.0
 20
163.3
 30
0.0
 11
-304.2529320993
 21
163.1539695844
 31
0.0
  0
LINE
  5
D8
330
1F
100
AcDbEntity
  8
0
  6
SLD-Сплошная
 62
     7
370
    35
100
AcDbLine
 10
-295.7470679007
 20
163.1539695844
 30
0.0
 11
-296.0
 21
163.3
 31
0.0
  0
LINE
  5
D9
330
1F
100
AcDbEntity
  8
0
  6
SLD-Сплошная
 62
     7
370
    35
100
AcDbLine
 10
845.0
 20
659.1
 30
0.0
 11
-845.0
 21
659.1
 31
0.0
  0
LINE
  5
DA
330
1F
100
AcDbEntity
  8
0
  6
SLD-Сплошная
 62
     7
370
    35
100
AcDbLine
 10
845.0
 20
657.9
 30
0.0
 11
-845.0
 21
657.9
 31
0.0
  0
LINE
  5
DB
330
1F
100
AcDbEntity
  8
0
  6
SLD-Сплошная
 62
     7
370
    35
100
AcDbLine
 10
850.0
 20
659.1
 30
0.0
 11
850.0
 21
657.9
 31
0.0
  0
LINE
  5
DC
330
1F
100
AcDbEntity
  8
0
  6
SLD-Сплошная
 62
     7
370
    35
100
AcDbLine
 10
850.0
 20
657.9
 30
0.0
 11
845.0
 21
657.9
 31
0.0
  0
LINE
  5
DD
330
1F
100
AcDbEntity
  8
0
  6
SLD-Сплошная
 62
     7
370
    35
100
AcDbLine
 10
845.0
 20
659.1
 30
0.0
 11
850.0
 21
659.1
 31
0.0
  0
LINE
  5
DE
330
1F
100
AcDbEntity
  8
0
  6
SLD-Сплошная
 62
     7
370
    35
100
AcDbLine
 10
845.0
 20
157.9
 30
0.0
 11
850.0
 21
157.9
 31
0.0
  0
LINE
  5
DF
330
1F
100
AcDbEntity
  8
0
  6
SLD-Сплошная
 62
     7
370
    35
100
AcDbLine
 10
850.0
 20
157.9
 30
0.0
 11
850.0
 21
156.7
 31
0.0
  0
LINE
  5
E0
330
1F
100
AcDbEntity
  8
0
  6
SLD-Сплошная
 62
     7
370
    35
100
AcDbLine
 10
850.0
 20
156.7
 30
0.0
 11
845.0
 21
156.7
 31
0.0
  0
LINE
  5
E1
330
1F
100
AcDbEntity
  8
0
  6
SLD-Сплошная
 62
     7
370
    35
100
AcDbLine
 10
845.0
 20
157.9
 30
0.0
 11
-845.0
 21
157.9
 31
0.0
  0
LINE
  5
E2
330
1F
100
AcDbEntity
  8
0
  6
SLD-Сплошная
 62
     7
370
    35
100
AcDbLine
 10
845.0
 20
156.7
 30
0.0
 11
-845.0
 21
156.7
 31
0.0
  0
LINE
  5
E3
330
1F
100
AcDbEntity
  8
0
  6
SLD-Сплошная
 62
     7
370
    35
100
AcDbLine
 10
-850.0
 20
657.9
 30
0.0
 11
-850.0
 21
659.1
 31
0.0
  0
LINE
  5
E4
330
1F
100
AcDbEntity
  8
0
  6
SLD-Сплошная
 62
     7
370
    35
100
AcDbLine
 10
-850.0
 20
659.1
 30
0.0
 11
-845.0
 21
659.1
 31
0.0
  0
LINE
  5
E5
330
1F
100
AcDbEntity
  8
0
  6
SLD-Сплошная
 62
     7
370
    35
100
AcDbLine
 10
-845.0
 20
657.9
 30
0.0
 11
-850.0
 21
657.9
 31
0.0
  0
LINE
  5
E6
330
1F
100
AcDbEntity
  8
0
  6
SLD-Сплошная
 62
     7
370
    35
100
AcDbLine
 10
-850.0
 20
156.7
 30
0.0
 11
-850.0
 21
157.9
 31
0.0
  0
LINE
  5
E7
330
1F
100
AcDbEntity
  8
0
  6
SLD-Сплошная
 62
     7
370
    35
100
AcDbLine
 10
-850.0
 20
157.9
 30
0.0
 11
-845.0
 21
157.9
 31
0.0
  0
LINE
  5
E8
330
1F
100
AcDbEntity
  8
0
  6
SLD-Сплошная
 62
     7
370
    35
100
AcDbLine
 10
-845.0
 20
156.7
 30
0.0
 11
-850.0
 21
156.7
 31
0.0
  0
CIRCLE
  5
E9
330
1F
100
AcDbEntity
  8
0
  6
SLD-Сплошная
 62
     7
370
    35
100
AcDbCircle
 10
1052.0
 20
407.9
 30
0.0
 40
2.050000000000068
  0
CIRCLE
  5
EA
330
1F
100
AcDbEntity
  8
0
  6
SLD-Сплошная
 62
     7
370
    35
100
AcDbCircle
 10
-1052.0
 20
407.9
 30
0.0
 40
2.050000000000068
  0
LINE
  5
EB
330
1F
100
AcDbEntity
  8
0
  6
SLD-Сплошная
 62
     7
370
    35
100
AcDbLine
 10
850.0
 20
157.9
 30
0.0
 11
850.0
 21
158.9
 31
0.0
  0
LINE
  5
EC
330
1F
100
AcDbEntity
  8
0
  6
SLD-Сплошная
 62
     7
370
    35
100
AcDbLine
 10
-850.0
 20
158.9
 30
0.0
 11
-850.0
 21
157.9
 31
0.0
  0
LINE
  5
ED
330
1F
100
AcDbEntity
  8
0
  6
SLD-Сплошная
 62
     7
370
    35
100
AcDbLine
 10
-850.0
 20
657.9
 30
0.0
 11
-850.0
 21
656.9
 31
0.0
  0
LINE
  5
EE
330
1F
100
AcDbEntity
  8
0
  6
SLD-Сплошная
 62
     7
370
    35
100
AcDbLine
 10
850.0
 20
656.9
 30
0.0
 11
850.0
 21
657.9
 31
0.0
  0
LINE
  5
EF
330
1F
100
AcDbEntity
  8
0
  6
SLD-Сплошная
 62
     7
370
    35
100
AcDbLine
 10
-1062.0
 20
158.9
 30
0.0
 11
-1037.0
 21
158.9
 31
0.0
  0
ARC
  5
F0
330
1F
100
AcDbEntity
  8
0
  6
SLD-Сплошная
 62
     7
370
    35
100
AcDbCircle
 10
-1062.0
 20
163.9
 30
0.0
 40
5.000000000000114
100
AcDbArc
 50
180.0
 51
270.0
  0
LINE
  5
F1
330
1F
100
AcDbEntity
  8
0
  6
SLD-Сплошная
 62
     7
370
    35
100
AcDbLine
 10
-1067.0
 20
651.9
 30
0.0
 11
-1067.0
 21
163.9
 31
0.0
  0
ARC
  5
F2
330
1F
100
AcDbEntity
  8
0
  6
SLD-Сплошная
 62
     7
370
    35
100
AcDbCircle
 10
-1062.0
 20
651.9
 30
0.0
 40
5.0
100
AcDbArc
 50
90.0
 51
180.0
  0
LINE
  5
F3
330
1F
100
AcDbEntity
  8
0
  6
SLD-Сплошная
 62
     7
370
    35
100
AcDbLine
 10
-1062.0
 20
656.9
 30
0.0
 11
-1037.0
 21
656.9
 31
0.0
  0
LINE
  5
F4
330
1F
100
AcDbEntity
  8
0
  6
SLD-Сплошная
 62
     7
370
    35
100
AcDbLine
 10
855.0
 20
656.9
 30
0.0
 11
850.0
 21
656.9
 31
0.0
  0
LINE
  5
F5
330
1F
100
AcDbEntity
  8
0
  6
SLD-Сплошная
 62
     7
370
    35
100
AcDbLine
 10
1062.0
 20
656.9
 30
0.0
 11
1037.0
 21
656.9
 31
0.0
  0
ARC
  5
F6
330
1F
100
AcDbEntity
  8
0
  6
SLD-Сплошная
 62
     7
370
    35
100
AcDbCircle
 10
1062.0
 20
651.9
 30
0.0
 40
5.0
100
AcDbArc
 50
0.0
 51
90.0
  0
LINE
  5
F7
330
1F
100
AcDbEntity
  8
0
  6
SLD-Сплошная
 62
     7
370
    35
100
AcDbLine
 10
1067.0
 20
651.9
 30
0.0
 11
1067.0
 21
163.9
 31
0.0
  0
ARC
  5
F8
330
1F
100
AcDbEntity
  8
0
  6
SLD-Сплошная
 62
     7
370
    35
100
AcDbCircle
 10
1062.0
 20
163.9
 30
0.0
 40
5.000000000000114
100
AcDbArc
 50
270.0
 51
0.0
  0
LINE
  5
F9
330
1F
100
AcDbEntity
  8
0
  6
SLD-Сплошная
 62
     7
370
    35
100
AcDbLine
 10
1062.0
 20
158.9
 30
0.0
 11
1037.0
 21
158.9
 31
0.0
  0
LINE
  5
FA
330
1F
100
AcDbEntity
  8
0
  6
SLD-Сплошная
 62
     7
370
    35
100
AcDbLine
 10
850.0
 20
158.9
 30
0.0
 11
855.0
 21
158.9
 31
0.0
  0
LINE
  5
FB
330
1F
100
AcDbEntity
  8
0
  6
SLD-Сплошная
 62
     7
370
    35
100
AcDbLine
 10
-855.0
 20
158.9
 30
0.0
 11
-850.0
 21
158.9
 31
0.0
  0
LINE
  5
FC
330
1F
100
AcDbEntity
  8
0
  6
SLD-Сплошная
 62
     7
370
    35
100
AcDbLine
 10
-850.0
 20
656.9
 30
0.0
 11
-855.0
 21
656.9
 31
0.0
  0
LINE
  5
FD
330
1F
100
AcDbEntity
  8
0
  6
SLD-Сплошная
 62
     7
370
    35
100
AcDbLine
 10
1037.0
 20
158.9
 30
0.0
 11
1037.0
 21
156.7
 31
0.0
  0
LINE
  5
FE
330
1F
100
AcDbEntity
  8
0
  6
SLD-Сплошная
 62
     7
370
    35
100
AcDbLine
 10
1037.0
 20
156.7
 30
0.0
 11
855.0
 21
156.7
 31
0.0
  0
LINE
  5
FF
330
1F
100
AcDbEntity
  8
0
  6
SLD-Сплошная
 62
     7
370
    35
100
AcDbLine
 10
855.0
 20
156.7
 30
0.0
 11
855.0
 21
158.9
 31
0.0
  0
LINE
  5
100
330
1F
100
AcDbEntity
  8
0
  6
SLD-Сплошная
 62
     7
370
    35
100
AcDbLine
 10
-1037.0
 20
156.7
 30
0.0
 11
-855.0
 21
156.7
 31
0.0
  0
LINE
  5
101
330
1F
100
AcDbEntity
  8
0
  6
SLD-Сплошная
 62
     7
370
    35
100
AcDbLine
 10
-1037.0
 20
156.7
 30
0.0
 11
-1037.0
 21
158.9
 31
0.0
  0
LINE
  5
102
330
1F
100
AcDbEntity
  8
0
  6
SLD-Сплошная
 62
     7
370
    35
100
AcDbLine
 10
-855.0
 20
158.9
 30
0.0
 11
-855.0
 21
156.7
 31
0.0
  0
LINE
  5
103
330
1F
100
AcDbEntity
  8
0
  6
SLD-Сплошная
 62
     7
370
    35
100
AcDbLine
 10
-1037.0
 20
656.9
 30
0.0
 11
-1037.0
 21
659.1
 31
0.0
  0
LINE
  5
104
330
1F
100
AcDbEntity
  8
0
  6
SLD-Сплошная
 62
     7
370
    35
100
AcDbLine
 10
-1037.0
 20
659.1
 30
0.0
 11
-855.0
 21
659.1
 31
0.0
  0
LINE
  5
105
330
1F
100
AcDbEntity
  8
0
  6
SLD-Сплошная
 62
     7
370
    35
100
AcDbLine
 10
-855.0
 20
659.1
 30
0.0
 11
-855.0
 21
656.9
 31
0.0
  0
LINE
  5
106
330
1F
100
AcDbEntity
  8
0
  6
SLD-Сплошная
 62
     7
370
    35
100
AcDbLine
 10
1037.0
 20
659.1
 30
0.0
 11
855.0
 21
659.1
 31
0.0
  0
LINE
  5
107
330
1F
100
AcDbEntity
  8
0
  6
SLD-Сплошная
 62
     7
370
    35
100
AcDbLine
 10
1037.0
 20
659.1
 30
0.0
 11
1037.0
 21
656.9
 31
0.0
  0
LINE
  5
108
330
1F
100
AcDbEntity
  8
0
  6
SLD-Сплошная
 62
     7
370
    35
100
AcDbLine
 10
855.0
 20
656.9
 30
0.0
 11
855.0
 21
659.1
 31
0.0
  0
LINE
  5
109
330
1F
100
AcDbEntity
  8
0
  6
SLD-Сплошная
 62
     7
370
    35
100
AcDbLine
 10
-304.1984429357
 20
154.0199357781
 30
0.0
 11
-304.1984035533
 21
154.0193224936
 31
0.0
  0
LINE
  5
10A
330
1F
100
AcDbEntity
  8
0
  6
SLD-Сплошная
 62
     7
370
    35
100
AcDbLine
 10
-295.7998774812
 20
154.0483037301
 30
0.0
 11
-295.8004560989
 21
154.038583126
 31
0.0
  0
SPLINE
  5
10B
330
1F
100
AcDbEntity
  8
0
  6
SLD-Сплошная
 62
     7
370
    35
100
AcDbSpline
210
0.0
220
0.0
230
1.0
 70
    24
 71
     3
 72
    12
 73
     8
 74
     0
 42
0.000000001
 43
0.00000001
 40
0.0
 40
0.0
 40
0.0
 40
0.0
 40
0.0086674047364441
 40
0.2676326298829182
 40
0.528661600250874
 40
0.7638461449005823
 40
1.0
 40
1.0
 40
1.0
 40
1.0
 10
-299.9999999999999
 20
154.2458850428872
 30
0.0
 10
-299.9999999999999
 20
154.2454667745475
 30
0.0
 10
-300.0000000000001
 20
154.2325514603152
 30
0.0
 10
-299.9999999999999
 20
154.1973309185182
 30
0.0
 10
-299.9999999999999
 20
154.1233414225051
 30
0.0
 10
-299.9999999999999
 20
154.0327416643881
 30
0.0
 10
-299.9999999999999
 20
153.9664897181839
 30
0.0
 10
-299.9999999999999
 20
153.9332956213052
 30
0.0
  0
SPLINE
  5
10C
330
1F
100
AcDbEntity
  8
0
  6
SLD-Сплошная
 62
     7
370
    35
100
AcDbSpline
210
0.0
220
0.0
230
1.0
 70
     8
 71
     3
 72
    12
 73
     8
 74
     0
 42
0.000000001
 43
0.00000001
 40
0.0
 40
0.0
 40
0.0
 40
0.0
 40
0.2361538550994141
 40
0.4713383997490971
 40
0.732367370117046
 40
0.9913325952634743
 40
1.0
 40
1.0
 40
1.0
 40
1.0
 10
-295.9999999999999
 20
153.9332956213051
 30
0.0
 10
-295.9968548181808
 20
153.9664897181839
 30
0.0
 10
-295.990577364167
 20
154.0327416643879
 30
0.0
 10
-295.9443789750622
 20
154.1233414225052
 30
0.0
 10
-295.8777942821245
 20
154.1973309185178
 30
0.0
 10
-295.8203016623509
 20
154.2325514603159
 30
0.0
 10
-295.7898457678465
 20
154.2454667745475
 30
0.0
 10
-295.7888594398177
 20
154.2458850428872
 30
0.0
  0
SPLINE
  5
10D
330
1F
100
AcDbEntity
  8
0
  6
SLD-Сплошная
 62
     7
370
    35
100
AcDbSpline
210
0.0
220
0.0
230
1.0
 70
     8
 71
     3
 72
    12
 73
     8
 74
     0
 42
0.000000001
 43
0.00000001
 40
0.0
 40
0.0
 40
0.0
 40
0.0
 40
0.0086674047363283
 40
0.267632629882784
 40
0.5286616002507958
 40
0.7638461449005343
 40
0.9999999999999999
 40
0.9999999999999999
 40
0.9999999999999999
 40
0.9999999999999999
 10
-304.2111405601821
 20
154.2458850428872
 30
0.0
 10
-304.2101542321532
 20
154.2454667745475
 30
0.0
 10
-304.1796983376497
 20
154.2325514603148
 30
0.0
 10
-304.1222057178751
 20
154.1973309185182
 30
0.0
 10
-304.0556210249376
 20
154.1233414225051
 30
0.0
 10
-304.0094226358328
 20
154.0327416643879
 30
0.0
 10
-304.0031451818191
 20
153.9664897181839
 30
0.0
 10
-303.9999999999999
 20
153.9332956213051
 30
0.0
  0
SPLINE
  5
10E
330
1F
100
AcDbEntity
  8
0
  6
SLD-Сплошная
 62
     7
370
    35
100
AcDbSpline
210
0.0
220
0.0
230
1.0
 70
     8
 71
     3
 72
     9
 73
     5
 74
     0
 42
0.000000001
 43
0.00000001
 40
0.0
 40
0.0
 40
0.0
 40
0.0
 40
0.6837814517460612
 40
1.0
 40
1.0
 40
1.0
 40
1.0
 10
-297.9999999999999
 20
150.4999999999997
 30
0.0
 10
-297.5404492219901
 20
150.523226170757
 30
0.0
 10
-296.8683766221317
 20
150.5571934137963
 30
0.0
 10
-296.2086255319471
 20
150.7036786509625
 30
0.0
 10
-295.9999999999999
 20
150.7499999999998
 30
0.0
  0
LINE
  5
10F
330
1F
100
AcDbEntity
  8
0
  6
SLD-Сплошная
 62
     7
370
    35
100
AcDbLine
 10
-300.0
 20
150.75
 30
0.0
 11
-298.0
 21
150.5
 31
0.0
  0
LINE
  5
110
330
1F
100
AcDbEntity
  8
0
  6
SLD-Сплошная
 62
     7
370
    35
100
AcDbLine
 10
-300.0
 20
153.9332956213
 30
0.0
 11
-300.0
 21
150.75
 31
0.0
  0
LINE
  5
111
330
1F
100
AcDbEntity
  8
0
  6
SLD-Сплошная
 62
     7
370
    35
100
AcDbLine
 10
-296.0
 20
153.9332956213
 30
0.0
 11
-296.0
 21
150.75
 31
0.0
  0
SPLINE
  5
112
330
1F
100
AcDbEntity
  8
0
  6
SLD-Сплошная
 62
     7
370
    35
100
AcDbSpline
210
0.0
220
0.0
230
1.0
 70
     8
 71
     3
 72
     9
 73
     5
 74
     0
 42
0.000000001
 43
0.00000001
 40
0.0
 40
0.0
 40
0.0
 40
0.0
 40
0.6837814517460596
 40
1.0
 40
1.0
 40
1.0
 40
1.0
 10
-301.9999999999999
 20
150.4999999999997
 30
0.0
 10
-301.5404492219901
 20
150.523226170757
 30
0.0
 10
-300.8683766221318
 20
150.5571934137964
 30
0.0
 10
-300.2086255319471
 20
150.7036786509625
 30
0.0
 10
-299.9999999999999
 20
150.7499999999998
 30
0.0
  0
LINE
  5
113
330
1F
100
AcDbEntity
  8
0
  6
SLD-Сплошная
 62
     7
370
    35
100
AcDbLine
 10
-302.0
 20
150.5
 30
0.0
 11
-298.0
 21
150.5
 31
0.0
  0
LINE
  5
114
330
1F
100
AcDbEntity
  8
0
  6
SLD-Сплошная
 62
     7
370
    35
100
AcDbLine
 10
-304.0
 20
150.75
 30
0.0
 11
-302.0
 21
150.5
 31
0.0
  0
LINE
  5
115
330
1F
100
AcDbEntity
  8
0
  6
SLD-Сплошная
 62
     7
370
    35
100
AcDbLine
 10
-304.0
 20
153.9332956213
 30
0.0
 11
-304.0
 21
150.75
 31
0.0
  0
SPLINE
  5
116
330
1F
100
AcDbEntity
  8
0
  6
SLD-Сплошная
 62
     7
370
    35
100
AcDbSpline
210
0.0
220
0.0
230
1.0
 70
    24
 71
     3
 72
     9
 73
     5
 74
     0
 42
0.000000001
 43
0.00000001
 40
0.0
 40
0.0
 40
0.0
 40
0.0
 40
0.8037424145840146
 40
1.0
 40
1.0
 40
1.0
 40
1.0
 10
-303.9999999999999
 20
150.4999999999998
 30
0.0
 10
-303.9999999999999
 20
150.5318203256767
 30
0.0
 10
-303.9999999999999
 20
150.5714105290798
 30
0.0
 10
-303.9999999999999
 20
150.7207006761996
 30
0.0
 10
-303.9999999999999
 20
150.7499999999998
 30
0.0
  0
LINE
  5
117
330
1F
100
AcDbEntity
  8
0
  6
SLD-Сплошная
 62
     7
370
    35
100
AcDbLine
 10
-304.0
 20
150.5
 30
0.0
 11
-302.0
 21
150.5
 31
0.0
  0
SPLINE
  5
118
330
1F
100
AcDbEntity
  8
0
  6
SLD-Сплошная
 62
     7
370
    35
100
AcDbSpline
210
0.0
220
0.0
230
1.0
 70
    24
 71
     3
 72
     9
 73
     5
 74
     0
 42
0.000000001
 43
0.00000001
 40
0.0
 40
0.0
 40
0.0
 40
0.0
 40
0.8037424145840063
 40
1.0
 40
1.0
 40
1.0
 40
1.0
 10
-295.9999999999999
 20
150.4999999999997
 30
0.0
 10
-295.9999999999999
 20
150.5318203256767
 30
0.0
 10
-295.9999999999999
 20
150.5714105290796
 30
0.0
 10
-295.9999999999999
 20
150.7207006761996
 30
0.0
 10
-295.9999999999999
 20
150.7499999999998
 30
0.0
  0
LINE
  5
119
330
1F
100
AcDbEntity
  8
0
  6
SLD-Сплошная
 62
     7
370
    35
100
AcDbLine
 10
-296.0
 20
150.5
 30
0.0
 11
-298.0
 21
150.5
 31
0.0
  0
LINE
  5
11A
330
1F
100
AcDbEntity
  8
0
  6
SLD-Сплошная
 62
     7
370
    35
100
AcDbLine
 10
495.8015570643
 20
154.0199357781
 30
0.0
 11
495.8015964467
 21
154.0193224936
 31
0.0
  0
LINE
  5
11B
330
1F
100
AcDbEntity
  8
0
  6
SLD-Сплошная
 62
     7
370
    35
100
AcDbLine
 10
504.2001225188
 20
154.0483037301
 30
0.0
 11
504.1995439011
 21
154.038583126
 31
0.0
  0
SPLINE
  5
11C
330
1F
100
AcDbEntity
  8
0
  6
SLD-Сплошная
 62
     7
370
    35
100
AcDbSpline
210
0.0
220
0.0
230
1.0
 70
    24
 71
     3
 72
    12
 73
     8
 74
     0
 42
0.000000001
 43
0.00000001
 40
0.0
 40
0.0
 40
0.0
 40
0.0
 40
0.0086674047364441
 40
0.2676326298829182
 40
0.528661600250874
 40
0.7638461449005823
 40
1.0
 40
1.0
 40
1.0
 40
1.0
 10
500.0
 20
154.2458850428872
 30
0.0
 10
500.0
 20
154.2454667745475
 30
0.0
 10
499.999999999999
 20
154.2325514603152
 30
0.0
 10
500.0000000000005
 20
154.1973309185182
 30
0.0
 10
499.9999999999998
 20
154.1233414225051
 30
0.0
 10
500.0000000000003
 20
154.0327416643881
 30
0.0
 10
500.0000000000002
 20
153.9664897181839
 30
0.0
 10
500.0000000000001
 20
153.9332956213052
 30
0.0
  0
SPLINE
  5
11D
330
1F
100
AcDbEntity
  8
0
  6
SLD-Сплошная
 62
     7
370
    35
100
AcDbSpline
210
0.0
220
0.0
230
1.0
 70
     8
 71
     3
 72
    12
 73
     8
 74
     0
 42
0.000000001
 43
0.00000001
 40
0.0
 40
0.0
 40
0.0
 40
0.0
 40
0.2361538550994141
 40
0.4713383997490971
 40
0.732367370117046
 40
0.9913325952634743
 40
1.0
 40
1.0
 40
1.0
 40
1.0
 10
504.0
 20
153.9332956213051
 30
0.0
 10
504.0031451818191
 20
153.9664897181839
 30
0.0
 10
504.0094226358327
 20
154.0327416643879
 30
0.0
 10
504.055621024938
 20
154.1233414225052
 30
0.0
 10
504.1222057178748
 20
154.1973309185178
 30
0.0
 10
504.1796983376505
 20
154.2325514603159
 30
0.0
 10
504.2101542321533
 20
154.2454667745475
 30
0.0
 10
504.2111405601822
 20
154.2458850428872
 30
0.0
  0
SPLINE
  5
11E
330
1F
100
AcDbEntity
  8
0
  6
SLD-Сплошная
 62
     7
370
    35
100
AcDbSpline
210
0.0
220
0.0
230
1.0
 70
     8
 71
     3
 72
    12
 73
     8
 74
     0
 42
0.000000001
 43
0.00000001
 40
0.0
 40
0.0
 40
0.0
 40
0.0
 40
0.0086674047363283
 40
0.267632629882784
 40
0.5286616002507958
 40
0.7638461449005343
 40
0.9999999999999999
 40
0.9999999999999999
 40
0.9999999999999999
 40
0.9999999999999999
 10
495.7888594398179
 20
154.2458850428872
 30
0.0
 10
495.7898457678468
 20
154.2454667745475
 30
0.0
 10
495.8203016623476
 20
154.2325514603148
 30
0.0
 10
495.8777942821256
 20
154.1973309185182
 30
0.0
 10
495.9443789750621
 20
154.1233414225051
 30
0.0
 10
495.9905773641672
 20
154.0327416643879
 30
0.0
 10
495.9968548181808
 20
153.9664897181839
 30
0.0
 10
496.0
 20
153.9332956213051
 30
0.0
  0
SPLINE
  5
11F
330
1F
100
AcDbEntity
  8
0
  6
SLD-Сплошная
 62
     7
370
    35
100
AcDbSpline
210
0.0
220
0.0
230
1.0
 70
     8
 71
     3
 72
     9
 73
     5
 74
     0
 42
0.000000001
 43
0.00000001
 40
0.0
 40
0.0
 40
0.0
 40
0.0
 40
0.6837814517460596
 40
1.0
 40
1.0
 40
1.0
 40
1.0
 10
498.0
 20
150.4999999999997
 30
0.0
 10
498.4595507780098
 20
150.523226170757
 30
0.0
 10
499.1316233778682
 20
150.5571934137964
 30
0.0
 10
499.7913744680529
 20
150.7036786509625
 30
0.0
 10
500.0
 20
150.7499999999998
 30
0.0
  0
LINE
  5
120
330
1F
100
AcDbEntity
  8
0
  6
SLD-Сплошная
 62
     7
370
    35
100
AcDbLine
 10
500.0
 20
150.75
 30
0.0
 11
502.0
 21
150.5
 31
0.0
  0
LINE
  5
121
330
1F
100
AcDbEntity
  8
0
  6
SLD-Сплошная
 62
     7
370
    35
100
AcDbLine
 10
498.0
 20
150.5
 30
0.0
 11
502.0
 21
150.5
 31
0.0
  0
SPLINE
  5
122
330
1F
100
AcDbEntity
  8
0
  6
SLD-Сплошная
 62
     7
370
    35
100
AcDbSpline
210
0.0
220
0.0
230
1.0
 70
     8
 71
     3
 72
     9
 73
     5
 74
     0
 42
0.000000001
 43
0.00000001
 40
0.0
 40
0.0
 40
0.0
 40
0.0
 40
0.6837814517460612
 40
1.0
 40
1.0
 40
1.0
 40
1.0
 10
502.0
 20
150.4999999999997
 30
0.0
 10
502.4595507780099
 20
150.523226170757
 30
0.0
 10
503.1316233778683
 20
150.5571934137963
 30
0.0
 10
503.7913744680528
 20
150.7036786509625
 30
0.0
 10
504.0
 20
150.7499999999998
 30
0.0
  0
LINE
  5
123
330
1F
100
AcDbEntity
  8
0
  6
SLD-Сплошная
 62
     7
370
    35
100
AcDbLine
 10
500.0
 20
153.9332956213
 30
0.0
 11
500.0
 21
150.75
 31
0.0
  0
LINE
  5
124
330
1F
100
AcDbEntity
  8
0
  6
SLD-Сплошная
 62
     7
370
    35
100
AcDbLine
 10
504.0
 20
153.9332956213
 30
0.0
 11
504.0
 21
150.75
 31
0.0
  0
LINE
  5
125
330
1F
100
AcDbEntity
  8
0
  6
SLD-Сплошная
 62
     7
370
    35
100
AcDbLine
 10
496.0
 20
150.75
 30
0.0
 11
498.0
 21
150.5
 31
0.0
  0
LINE
  5
126
330
1F
100
AcDbEntity
  8
0
  6
SLD-Сплошная
 62
     7
370
    35
100
AcDbLine
 10
496.0
 20
153.9332956213
 30
0.0
 11
496.0
 21
150.75
 31
0.0
  0
SPLINE
  5
127
330
1F
100
AcDbEntity
  8
0
  6
SLD-Сплошная
 62
     7
370
    35
100
AcDbSpline
210
0.0
220
0.0
230
1.0
 70
    24
 71
     3
 72
     9
 73
     5
 74
     0
 42
0.000000001
 43
0.00000001
 40
0.0
 40
0.0
 40
0.0
 40
0.0
 40
0.8037424145840146
 40
1.0
 40
1.0
 40
1.0
 40
1.0
 10
496.0000000000001
 20
150.4999999999998
 30
0.0
 10
496.0000000000003
 20
150.5318203256767
 30
0.0
 10
496.0000000000005
 20
150.5714105290798
 30
0.0
 10
496.0000000000001
 20
150.7207006761996
 30
0.0
 10
496.0000000000001
 20
150.7499999999998
 30
0.0
  0
LINE
  5
128
330
1F
100
AcDbEntity
  8
0
  6
SLD-Сплошная
 62
     7
370
    35
100
AcDbLine
 10
496.0
 20
150.5
 30
0.0
 11
498.0
 21
150.5
 31
0.0
  0
SPLINE
  5
129
330
1F
100
AcDbEntity
  8
0
  6
SLD-Сплошная
 62
     7
370
    35
100
AcDbSpline
210
0.0
220
0.0
230
1.0
 70
    24
 71
     3
 72
     9
 73
     5
 74
     0
 42
0.000000001
 43
0.00000001
 40
0.0
 40
0.0
 40
0.0
 40
0.0
 40
0.8037424145840063
 40
1.0
 40
1.0
 40
1.0
 40
1.0
 10
504.0
 20
150.4999999999997
 30
0.0
 10
504.0000000000002
 20
150.5318203256767
 30
0.0
 10
504.0000000000001
 20
150.5714105290796
 30
0.0
 10
503.9999999999999
 20
150.7207006761996
 30
0.0
 10
504.0
 20
150.7499999999998
 30
0.0
  0
LINE
  5
12A
330
1F
100
AcDbEntity
  8
0
  6
SLD-Сплошная
 62
     7
370
    35
100
AcDbLine
 10
504.0
 20
150.5
 30
0.0
 11
502.0
 21
150.5
 31
0.0
  0
LINE
  5
12B
330
1F
100
AcDbEntity
  8
0
  6
SLD-Сплошная
 62
     7
370
    35
100
AcDbLine
 10
-504.1984429357
 20
154.0199357781
 30
0.0
 11
-504.1984035533
 21
154.0193224936
 31
0.0
  0
LINE
  5
12C
330
1F
100
AcDbEntity
  8
0
  6
SLD-Сплошная
 62
     7
370
    35
100
AcDbLine
 10
-495.7998774812
 20
154.0483037301
 30
0.0
 11
-495.8004560989
 21
154.038583126
 31
0.0
  0
SPLINE
  5
12D
330
1F
100
AcDbEntity
  8
0
  6
SLD-Сплошная
 62
     7
370
    35
100
AcDbSpline
210
0.0
220
0.0
230
1.0
 70
    24
 71
     3
 72
    12
 73
     8
 74
     0
 42
0.000000001
 43
0.00000001
 40
0.0
 40
0.0
 40
0.0
 40
0.0
 40
0.0086674047364441
 40
0.2676326298829182
 40
0.528661600250874
 40
0.7638461449005823
 40
1.0
 40
1.0
 40
1.0
 40
1.0
 10
-499.9999999999999
 20
154.2458850428872
 30
0.0
 10
-499.9999999999999
 20
154.2454667745475
 30
0.0
 10
-499.9999999999997
 20
154.2325514603152
 30
0.0
 10
-500.0
 20
154.1973309185182
 30
0.0
 10
-499.9999999999999
 20
154.1233414225051
 30
0.0
 10
-499.9999999999999
 20
154.0327416643881
 30
0.0
 10
-499.9999999999999
 20
153.9664897181839
 30
0.0
 10
-499.9999999999999
 20
153.9332956213052
 30
0.0
  0
SPLINE
  5
12E
330
1F
100
AcDbEntity
  8
0
  6
SLD-Сплошная
 62
     7
370
    35
100
AcDbSpline
210
0.0
220
0.0
230
1.0
 70
     8
 71
     3
 72
    12
 73
     8
 74
     0
 42
0.000000001
 43
0.00000001
 40
0.0
 40
0.0
 40
0.0
 40
0.0
 40
0.2361538550994141
 40
0.4713383997490971
 40
0.732367370117046
 40
0.9913325952634743
 40
1.0
 40
1.0
 40
1.0
 40
1.0
 10
-495.9999999999999
 20
153.9332956213051
 30
0.0
 10
-495.9968548181807
 20
153.9664897181839
 30
0.0
 10
-495.9905773641669
 20
154.0327416643879
 30
0.0
 10
-495.9443789750622
 20
154.1233414225052
 30
0.0
 10
-495.8777942821245
 20
154.1973309185178
 30
0.0
 10
-495.8203016623506
 20
154.2325514603159
 30
0.0
 10
-495.7898457678465
 20
154.2454667745475
 30
0.0
 10
-495.7888594398177
 20
154.2458850428872
 30
0.0
  0
SPLINE
  5
12F
330
1F
100
AcDbEntity
  8
0
  6
SLD-Сплошная
 62
     7
370
    35
100
AcDbSpline
210
0.0
220
0.0
230
1.0
 70
     8
 71
     3
 72
    12
 73
     8
 74
     0
 42
0.000000001
 43
0.00000001
 40
0.0
 40
0.0
 40
0.0
 40
0.0
 40
0.0086674047363283
 40
0.267632629882784
 40
0.5286616002507958
 40
0.7638461449005343
 40
0.9999999999999999
 40
0.9999999999999999
 40
0.9999999999999999
 40
0.9999999999999999
 10
-504.211140560182
 20
154.2458850428872
 30
0.0
 10
-504.2101542321532
 20
154.2454667745475
 30
0.0
 10
-504.179698337649
 20
154.2325514603148
 30
0.0
 10
-504.1222057178753
 20
154.1973309185182
 30
0.0
 10
-504.0556210249376
 20
154.1233414225051
 30
0.0
 10
-504.0094226358328
 20
154.0327416643879
 30
0.0
 10
-504.0031451818191
 20
153.9664897181839
 30
0.0
 10
-503.9999999999999
 20
153.9332956213051
 30
0.0
  0
SPLINE
  5
130
330
1F
100
AcDbEntity
  8
0
  6
SLD-Сплошная
 62
     7
370
    35
100
AcDbSpline
210
0.0
220
0.0
230
1.0
 70
     8
 71
     3
 72
     9
 73
     5
 74
     0
 42
0.000000001
 43
0.00000001
 40
0.0
 40
0.0
 40
0.0
 40
0.0
 40
0.6837814517460596
 40
1.0
 40
1.0
 40
1.0
 40
1.0
 10
-501.9999999999999
 20
150.4999999999997
 30
0.0
 10
-501.5404492219901
 20
150.523226170757
 30
0.0
 10
-500.8683766221317
 20
150.5571934137964
 30
0.0
 10
-500.208625531947
 20
150.7036786509625
 30
0.0
 10
-499.9999999999999
 20
150.7499999999998
 30
0.0
  0
LINE
  5
131
330
1F
100
AcDbEntity
  8
0
  6
SLD-Сплошная
 62
     7
370
    35
100
AcDbLine
 10
-504.0
 20
150.75
 30
0.0
 11
-502.0
 21
150.5
 31
0.0
  0
LINE
  5
132
330
1F
100
AcDbEntity
  8
0
  6
SLD-Сплошная
 62
     7
370
    35
100
AcDbLine
 10
-504.0
 20
153.9332956213
 30
0.0
 11
-504.0
 21
150.75
 31
0.0
  0
LINE
  5
133
330
1F
100
AcDbEntity
  8
0
  6
SLD-Сплошная
 62
     7
370
    35
100
AcDbLine
 10
-500.0
 20
153.9332956213
 30
0.0
 11
-500.0
 21
150.75
 31
0.0
  0
SPLINE
  5
134
330
1F
100
AcDbEntity
  8
0
  6
SLD-Сплошная
 62
     7
370
    35
100
AcDbSpline
210
0.0
220
0.0
230
1.0
 70
     8
 71
     3
 72
     9
 73
     5
 74
     0
 42
0.000000001
 43
0.00000001
 40
0.0
 40
0.0
 40
0.0
 40
0.0
 40
0.6837814517460612
 40
1.0
 40
1.0
 40
1.0
 40
1.0
 10
-497.9999999999999
 20
150.4999999999997
 30
0.0
 10
-497.5404492219901
 20
150.523226170757
 30
0.0
 10
-496.8683766221317
 20
150.5571934137963
 30
0.0
 10
-496.2086255319471
 20
150.7036786509625
 30
0.0
 10
-495.9999999999999
 20
150.7499999999998
 30
0.0
  0
LINE
  5
135
330
1F
100
AcDbEntity
  8
0
  6
SLD-Сплошная
 62
     7
370
    35
100
AcDbLine
 10
-500.0
 20
150.75
 30
0.0
 11
-498.0
 21
150.5
 31
0.0
  0
LINE
  5
136
330
1F
100
AcDbEntity
  8
0
  6
SLD-Сплошная
 62
     7
370
    35
100
AcDbLine
 10
-496.0
 20
153.9332956213
 30
0.0
 11
-496.0
 21
150.75
 31
0.0
  0
LINE
  5
137
330
1F
100
AcDbEntity
  8
0
  6
SLD-Сплошная
 62
     7
370
    35
100
AcDbLine
 10
-502.0
 20
150.5
 30
0.0
 11
-498.0
 21
150.5
 31
0.0
  0
SPLINE
  5
138
330
1F
100
AcDbEntity
  8
0
  6
SLD-Сплошная
 62
     7
370
    35
100
AcDbSpline
210
0.0
220
0.0
230
1.0
 70
    24
 71
     3
 72
     9
 73
     5
 74
     0
 42
0.000000001
 43
0.00000001
 40
0.0
 40
0.0
 40
0.0
 40
0.0
 40
0.8037424145840063
 40
1.0
 40
1.0
 40
1.0
 40
1.0
 10
-495.9999999999999
 20
150.4999999999997
 30
0.0
 10
-495.9999999999999
 20
150.5318203256767
 30
0.0
 10
-495.9999999999999
 20
150.5714105290796
 30
0.0
 10
-495.9999999999999
 20
150.7207006761996
 30
0.0
 10
-495.9999999999999
 20
150.7499999999998
 30
0.0
  0
LINE
  5
139
330
1F
100
AcDbEntity
  8
0
  6
SLD-Сплошная
 62
     7
370
    35
100
AcDbLine
 10
-496.0
 20
150.5
 30
0.0
 11
-498.0
 21
150.5
 31
0.0
  0
SPLINE
  5
13A
330
1F
100
AcDbEntity
  8
0
  6
SLD-Сплошная
 62
     7
370
    35
100
AcDbSpline
210
0.0
220
0.0
230
1.0
 70
    24
 71
     3
 72
     9
 73
     5
 74
     0
 42
0.000000001
 43
0.00000001
 40
0.0
 40
0.0
 40
0.0
 40
0.0
 40
0.8037424145840146
 40
1.0
 40
1.0
 40
1.0
 40
1.0
 10
-503.9999999999999
 20
150.4999999999998
 30
0.0
 10
-503.9999999999999
 20
150.5318203256767
 30
0.0
 10
-504.0
 20
150.5714105290798
 30
0.0
 10
-503.9999999999999
 20
150.7207006761996
 30
0.0
 10
-503.9999999999999
 20
150.7499999999998
 30
0.0
  0
LINE
  5
13B
330
1F
100
AcDbEntity
  8
0
  6
SLD-Сплошная
 62
     7
370
    35
100
AcDbLine
 10
-504.0
 20
150.5
 30
0.0
 11
-502.0
 21
150.5
 31
0.0
  0
LINE
  5
13C
330
1F
100
AcDbEntity
  8
0
  6
SLD-Сплошная
 62
     7
370
    35
100
AcDbLine
 10
-104.1984429357
 20
154.0199357781
 30
0.0
 11
-104.1984035533
 21
154.0193224936
 31
0.0
  0
LINE
  5
13D
330
1F
100
AcDbEntity
  8
0
  6
SLD-Сплошная
 62
     7
370
    35
100
AcDbLine
 10
-95.7998774812
 20
154.0483037301
 30
0.0
 11
-95.8004560989
 21
154.038583126
 31
0.0
  0
SPLINE
  5
13E
330
1F
100
AcDbEntity
  8
0
  6
SLD-Сплошная
 62
     7
370
    35
100
AcDbSpline
210
0.0
220
0.0
230
1.0
 70
    24
 71
     3
 72
    12
 73
     8
 74
     0
 42
0.000000001
 43
0.00000001
 40
0.0
 40
0.0
 40
0.0
 40
0.0
 40
0.0086674047364441
 40
0.2676326298829182
 40
0.528661600250874
 40
0.7638461449005823
 40
1.0
 40
1.0
 40
1.0
 40
1.0
 10
-99.99999999999997
 20
154.2458850428872
 30
0.0
 10
-99.99999999999997
 20
154.2454667745475
 30
0.0
 10
-100.0000000000004
 20
154.2325514603152
 30
0.0
 10
-99.99999999999982
 20
154.1973309185182
 30
0.0
 10
-100.0000000000001
 20
154.1233414225051
 30
0.0
 10
-99.99999999999987
 20
154.0327416643881
 30
0.0
 10
-99.99999999999993
 20
153.9664897181839
 30
0.0
 10
-99.99999999999993
 20
153.9332956213052
 30
0.0
  0
SPLINE
  5
13F
330
1F
100
AcDbEntity
  8
0
  6
SLD-Сплошная
 62
     7
370
    35
100
AcDbSpline
210
0.0
220
0.0
230
1.0
 70
     8
 71
     3
 72
    12
 73
     8
 74
     0
 42
0.000000001
 43
0.00000001
 40
0.0
 40
0.0
 40
0.0
 40
0.0
 40
0.2361538550994141
 40
0.4713383997490971
 40
0.732367370117046
 40
0.9913325952634743
 40
1.0
 40
1.0
 40
1.0
 40
1.0
 10
-95.99999999999997
 20
153.9332956213051
 30
0.0
 10
-95.99685481818082
 20
153.9664897181839
 30
0.0
 10
-95.990577364167
 20
154.0327416643879
 30
0.0
 10
-95.94437897506236
 20
154.1233414225052
 30
0.0
 10
-95.87779428212423
 20
154.1973309185178
 30
0.0
 10
-95.82030166235161
 20
154.2325514603159
 30
0.0
 10
-95.78984576784654
 20
154.2454667745475
 30
0.0
 10
-95.78885943981774
 20
154.2458850428872
 30
0.0
  0
SPLINE
  5
140
330
1F
100
AcDbEntity
  8
0
  6
SLD-Сплошная
 62
     7
370
    35
100
AcDbSpline
210
0.0
220
0.0
230
1.0
 70
     8
 71
     3
 72
    12
 73
     8
 74
     0
 42
0.000000001
 43
0.00000001
 40
0.0
 40
0.0
 40
0.0
 40
0.0
 40
0.0086674047363283
 40
0.267632629882784
 40
0.5286616002507958
 40
0.7638461449005343
 40
0.9999999999999999
 40
0.9999999999999999
 40
0.9999999999999999
 40
0.9999999999999999
 10
-104.2111405601821
 20
154.2458850428872
 30
0.0
 10
-104.2101542321533
 20
154.2454667745475
 30
0.0
 10
-104.17969833765
 20
154.2325514603148
 30
0.0
 10
-104.1222057178751
 20
154.1973309185182
 30
0.0
 10
-104.0556210249377
 20
154.1233414225051
 30
0.0
 10
-104.0094226358329
 20
154.0327416643879
 30
0.0
 10
-104.0031451818191
 20
153.9664897181839
 30
0.0
 10
-104.0
 20
153.9332956213051
 30
0.0
  0
SPLINE
  5
141
330
1F
100
AcDbEntity
  8
0
  6
SLD-Сплошная
 62
     7
370
    35
100
AcDbSpline
210
0.0
220
0.0
230
1.0
 70
     8
 71
     3
 72
     9
 73
     5
 74
     0
 42
0.000000001
 43
0.00000001
 40
0.0
 40
0.0
 40
0.0
 40
0.0
 40
0.6837814517460612
 40
1.0
 40
1.0
 40
1.0
 40
1.0
 10
-97.99999999999997
 20
150.4999999999997
 30
0.0
 10
-97.54044922199012
 20
150.523226170757
 30
0.0
 10
-96.86837662213176
 20
150.5571934137963
 30
0.0
 10
-96.20862553194709
 20
150.7036786509625
 30
0.0
 10
-95.99999999999997
 20
150.7499999999998
 30
0.0
  0
LINE
  5
142
330
1F
100
AcDbEntity
  8
0
  6
SLD-Сплошная
 62
     7
370
    35
100
AcDbLine
 10
-100.0
 20
150.75
 30
0.0
 11
-98.0
 21
150.5
 31
0.0
  0
LINE
  5
143
330
1F
100
AcDbEntity
  8
0
  6
SLD-Сплошная
 62
     7
370
    35
100
AcDbLine
 10
-100.0
 20
153.9332956213
 30
0.0
 11
-100.0
 21
150.75
 31
0.0
  0
LINE
  5
144
330
1F
100
AcDbEntity
  8
0
  6
SLD-Сплошная
 62
     7
370
    35
100
AcDbLine
 10
-96.0
 20
153.9332956213
 30
0.0
 11
-96.0
 21
150.75
 31
0.0
  0
SPLINE
  5
145
330
1F
100
AcDbEntity
  8
0
  6
SLD-Сплошная
 62
     7
370
    35
100
AcDbSpline
210
0.0
220
0.0
230
1.0
 70
     8
 71
     3
 72
     9
 73
     5
 74
     0
 42
0.000000001
 43
0.00000001
 40
0.0
 40
0.0
 40
0.0
 40
0.0
 40
0.6837814517460596
 40
1.0
 40
1.0
 40
1.0
 40
1.0
 10
-102.0
 20
150.4999999999997
 30
0.0
 10
-101.5404492219901
 20
150.523226170757
 30
0.0
 10
-100.8683766221318
 20
150.5571934137964
 30
0.0
 10
-100.2086255319471
 20
150.7036786509625
 30
0.0
 10
-99.99999999999997
 20
150.7499999999998
 30
0.0
  0
LINE
  5
146
330
1F
100
AcDbEntity
  8
0
  6
SLD-Сплошная
 62
     7
370
    35
100
AcDbLine
 10
-104.0
 20
150.75
 30
0.0
 11
-102.0
 21
150.5
 31
0.0
  0
LINE
  5
147
330
1F
100
AcDbEntity
  8
0
  6
SLD-Сплошная
 62
     7
370
    35
100
AcDbLine
 10
-104.0
 20
153.9332956213
 30
0.0
 11
-104.0
 21
150.75
 31
0.0
  0
LINE
  5
148
330
1F
100
AcDbEntity
  8
0
  6
SLD-Сплошная
 62
     7
370
    35
100
AcDbLine
 10
-102.0
 20
150.5
 30
0.0
 11
-98.0
 21
150.5
 31
0.0
  0
SPLINE
  5
149
330
1F
100
AcDbEntity
  8
0
  6
SLD-Сплошная
 62
     7
370
    35
100
AcDbSpline
210
0.0
220
0.0
230
1.0
 70
    24
 71
     3
 72
     9
 73
     5
 74
     0
 42
0.000000001
 43
0.00000001
 40
0.0
 40
0.0
 40
0.0
 40
0.0
 40
0.8037424145840146
 40
1.0
 40
1.0
 40
1.0
 40
1.0
 10
-103.9999999999999
 20
150.4999999999998
 30
0.0
 10
-104.0
 20
150.5318203256767
 30
0.0
 10
-104.0
 20
150.5714105290798
 30
0.0
 10
-103.9999999999999
 20
150.7207006761996
 30
0.0
 10
-103.9999999999999
 20
150.7499999999998
 30
0.0
  0
LINE
  5
14A
330
1F
100
AcDbEntity
  8
0
  6
SLD-Сплошная
 62
     7
370
    35
100
AcDbLine
 10
-104.0
 20
150.5
 30
0.0
 11
-102.0
 21
150.5
 31
0.0
  0
SPLINE
  5
14B
330
1F
100
AcDbEntity
  8
0
  6
SLD-Сплошная
 62
     7
370
    35
100
AcDbSpline
210
0.0
220
0.0
230
1.0
 70
    24
 71
     3
 72
     9
 73
     5
 74
     0
 42
0.000000001
 43
0.00000001
 40
0.0
 40
0.0
 40
0.0
 40
0.0
 40
0.8037424145840063
 40
1.0
 40
1.0
 40
1.0
 40
1.0
 10
-95.99999999999997
 20
150.4999999999997
 30
0.0
 10
-95.99999999999991
 20
150.5318203256767
 30
0.0
 10
-95.99999999999986
 20
150.5714105290796
 30
0.0
 10
-96.00000000000003
 20
150.7207006761996
 30
0.0
 10
-95.99999999999997
 20
150.7499999999998
 30
0.0
  0
LINE
  5
14C
330
1F
100
AcDbEntity
  8
0
  6
SLD-Сплошная
 62
     7
370
    35
100
AcDbLine
 10
-96.0
 20
150.5
 30
0.0
 11
-98.0
 21
150.5
 31
0.0
  0
LINE
  5
14D
330
1F
100
AcDbEntity
  8
0
  6
SLD-Сплошная
 62
     7
370
    35
100
AcDbLine
 10
95.8015570643
 20
154.0199357781
 30
0.0
 11
95.8015964467
 21
154.0193224936
 31
0.0
  0
LINE
  5
14E
330
1F
100
AcDbEntity
  8
0
  6
SLD-Сплошная
 62
     7
370
    35
100
AcDbLine
 10
104.2001225188
 20
154.0483037301
 30
0.0
 11
104.1995439011
 21
154.038583126
 31
0.0
  0
SPLINE
  5
14F
330
1F
100
AcDbEntity
  8
0
  6
SLD-Сплошная
 62
     7
370
    35
100
AcDbSpline
210
0.0
220
0.0
230
1.0
 70
    24
 71
     3
 72
    12
 73
     8
 74
     0
 42
0.000000001
 43
0.00000001
 40
0.0
 40
0.0
 40
0.0
 40
0.0
 40
0.0086674047364441
 40
0.2676326298829182
 40
0.528661600250874
 40
0.7638461449005823
 40
1.0
 40
1.0
 40
1.0
 40
1.0
 10
100.0
 20
154.2458850428872
 30
0.0
 10
99.99999999999997
 20
154.2454667745475
 30
0.0
 10
99.99999999999997
 20
154.2325514603152
 30
0.0
 10
100.0000000000001
 20
154.1973309185182
 30
0.0
 10
99.99999999999997
 20
154.1233414225051
 30
0.0
 10
100.0000000000001
 20
154.0327416643881
 30
0.0
 10
100.0000000000001
 20
153.9664897181839
 30
0.0
 10
100.0000000000001
 20
153.9332956213052
 30
0.0
  0
SPLINE
  5
150
330
1F
100
AcDbEntity
  8
0
  6
SLD-Сплошная
 62
     7
370
    35
100
AcDbSpline
210
0.0
220
0.0
230
1.0
 70
     8
 71
     3
 72
    12
 73
     8
 74
     0
 42
0.000000001
 43
0.00000001
 40
0.0
 40
0.0
 40
0.0
 40
0.0
 40
0.2361538550994074
 40
0.4713383997492355
 40
0.7323673701172221
 40
0.9913325952636879
 40
1.0
 40
1.0
 40
1.0
 40
1.0
 10
104.0000000000001
 20
153.9332956213051
 30
0.0
 10
104.0031451818192
 20
153.9664897181839
 30
0.0
 10
104.009422635833
 20
154.032741664388
 30
0.0
 10
104.0556210249378
 20
154.1233414225052
 30
0.0
 10
104.1222057178753
 20
154.1973309185177
 30
0.0
 10
104.17969833765
 20
154.2325514603164
 30
0.0
 10
104.2101542321534
 20
154.2454667745475
 30
0.0
 10
104.2111405601822
 20
154.2458850428872
 30
0.0
  0
SPLINE
  5
151
330
1F
100
AcDbEntity
  8
0
  6
SLD-Сплошная
 62
     7
370
    35
100
AcDbSpline
210
0.0
220
0.0
230
1.0
 70
     8
 71
     3
 72
    12
 73
     8
 74
     0
 42
0.000000001
 43
0.00000001
 40
0.0
 40
0.0
 40
0.0
 40
0.0
 40
0.0086674047363283
 40
0.267632629882784
 40
0.5286616002507958
 40
0.7638461449005343
 40
0.9999999999999999
 40
0.9999999999999999
 40
0.9999999999999999
 40
0.9999999999999999
 10
95.78885943981791
 20
154.2458850428872
 30
0.0
 10
95.78984576784677
 20
154.2454667745475
 30
0.0
 10
95.8203016623484
 20
154.2325514603148
 30
0.0
 10
95.87779428212562
 20
154.1973309185182
 30
0.0
 10
95.94437897506225
 20
154.1233414225051
 30
0.0
 10
95.99057736416705
 20
154.0327416643879
 30
0.0
 10
95.99685481818088
 20
153.9664897181839
 30
0.0
 10
96.00000000000003
 20
153.9332956213051
 30
0.0
  0
SPLINE
  5
152
330
1F
100
AcDbEntity
  8
0
  6
SLD-Сплошная
 62
     7
370
    35
100
AcDbSpline
210
0.0
220
0.0
230
1.0
 70
     8
 71
     3
 72
     9
 73
     5
 74
     0
 42
0.000000001
 43
0.00000001
 40
0.0
 40
0.0
 40
0.0
 40
0.0
 40
0.6837814517460596
 40
1.0
 40
1.0
 40
1.0
 40
1.0
 10
98.00000000000003
 20
150.4999999999997
 30
0.0
 10
98.45955077800994
 20
150.523226170757
 30
0.0
 10
99.13162337786818
 20
150.5571934137964
 30
0.0
 10
99.79137446805292
 20
150.7036786509625
 30
0.0
 10
100.0
 20
150.7499999999998
 30
0.0
  0
LINE
  5
153
330
1F
100
AcDbEntity
  8
0
  6
SLD-Сплошная
 62
     7
370
    35
100
AcDbLine
 10
96.0
 20
150.75
 30
0.0
 11
98.0
 21
150.5
 31
0.0
  0
LINE
  5
154
330
1F
100
AcDbEntity
  8
0
  6
SLD-Сплошная
 62
     7
370
    35
100
AcDbLine
 10
96.0
 20
153.9332956213
 30
0.0
 11
96.0
 21
150.75
 31
0.0
  0
LINE
  5
155
330
1F
100
AcDbEntity
  8
0
  6
SLD-Сплошная
 62
     7
370
    35
100
AcDbLine
 10
100.0
 20
153.9332956213
 30
0.0
 11
100.0
 21
150.75
 31
0.0
  0
SPLINE
  5
156
330
1F
100
AcDbEntity
  8
0
  6
SLD-Сплошная
 62
     7
370
    35
100
AcDbSpline
210
0.0
220
0.0
230
1.0
 70
     8
 71
     3
 72
     9
 73
     5
 74
     0
 42
0.000000001
 43
0.00000001
 40
0.0
 40
0.0
 40
0.0
 40
0.0
 40
0.6837814517460473
 40
1.0
 40
1.0
 40
1.0
 40
1.0
 10
102.0
 20
150.4999999999997
 30
0.0
 10
102.4595507780099
 20
150.5232261707571
 30
0.0
 10
103.1316233778682
 20
150.5571934137965
 30
0.0
 10
103.7913744680529
 20
150.7036786509624
 30
0.0
 10
104.0000000000001
 20
150.7499999999998
 30
0.0
  0
LINE
  5
157
330
1F
100
AcDbEntity
  8
0
  6
SLD-Сплошная
 62
     7
370
    35
100
AcDbLine
 10
100.0
 20
150.75
 30
0.0
 11
102.0
 21
150.5
 31
0.0
  0
LINE
  5
158
330
1F
100
AcDbEntity
  8
0
  6
SLD-Сплошная
 62
     7
370
    35
100
AcDbLine
 10
104.0
 20
153.9332956213
 30
0.0
 11
104.0
 21
150.75
 31
0.0
  0
LINE
  5
159
330
1F
100
AcDbEntity
  8
0
  6
SLD-Сплошная
 62
     7
370
    35
100
AcDbLine
 10
98.0
 20
150.5
 30
0.0
 11
102.0
 21
150.5
 31
0.0
  0
SPLINE
  5
15A
330
1F
100
AcDbEntity
  8
0
  6
SLD-Сплошная
 62
     7
370
    35
100
AcDbSpline
210
0.0
220
0.0
230
1.0
 70
    24
 71
     3
 72
     9
 73
     5
 74
     0
 42
0.000000001
 43
0.00000001
 40
0.0
 40
0.0
 40
0.0
 40
0.0
 40
0.8037424145840063
 40
1.0
 40
1.0
 40
1.0
 40
1.0
 10
104.0000000000001
 20
150.4999999999997
 30
0.0
 10
104.0000000000002
 20
150.5318203256767
 30
0.0
 10
104.0000000000003
 20
150.5714105290796
 30
0.0
 10
104.0
 20
150.7207006761996
 30
0.0
 10
104.0000000000001
 20
150.7499999999998
 30
0.0
  0
LINE
  5
15B
330
1F
100
AcDbEntity
  8
0
  6
SLD-Сплошная
 62
     7
370
    35
100
AcDbLine
 10
104.0
 20
150.5
 30
0.0
 11
102.0
 21
150.5
 31
0.0
  0
SPLINE
  5
15C
330
1F
100
AcDbEntity
  8
0
  6
SLD-Сплошная
 62
     7
370
    35
100
AcDbSpline
210
0.0
220
0.0
230
1.0
 70
    24
 71
     3
 72
     9
 73
     5
 74
     0
 42
0.000000001
 43
0.00000001
 40
0.0
 40
0.0
 40
0.0
 40
0.0
 40
0.8037424145840146
 40
1.0
 40
1.0
 40
1.0
 40
1.0
 10
96.00000000000009
 20
150.4999999999998
 30
0.0
 10
95.99999999999997
 20
150.5318203256767
 30
0.0
 10
96.00000000000009
 20
150.5714105290798
 30
0.0
 10
96.00000000000009
 20
150.7207006761996
 30
0.0
 10
96.00000000000009
 20
150.7499999999998
 30
0.0
  0
LINE
  5
15D
330
1F
100
AcDbEntity
  8
0
  6
SLD-Сплошная
 62
     7
370
    35
100
AcDbLine
 10
96.0
 20
150.5
 30
0.0
 11
98.0
 21
150.5
 31
0.0
  0
LINE
  5
15E
330
1F
100
AcDbEntity
  8
0
  6
SLD-Сплошная
 62
     7
370
    35
100
AcDbLine
 10
295.8015570643
 20
154.0199357781
 30
0.0
 11
295.8015964467
 21
154.0193224936
 31
0.0
  0
LINE
  5
15F
330
1F
100
AcDbEntity
  8
0
  6
SLD-Сплошная
 62
     7
370
    35
100
AcDbLine
 10
304.2001225188
 20
154.0483037301
 30
0.0
 11
304.1995439011
 21
154.038583126
 31
0.0
  0
SPLINE
  5
160
330
1F
100
AcDbEntity
  8
0
  6
SLD-Сплошная
 62
     7
370
    35
100
AcDbSpline
210
0.0
220
0.0
230
1.0
 70
    24
 71
     3
 72
    12
 73
     8
 74
     0
 42
0.000000001
 43
0.00000001
 40
0.0
 40
0.0
 40
0.0
 40
0.0
 40
0.0086674047364441
 40
0.2676326298829182
 40
0.528661600250874
 40
0.7638461449005823
 40
1.0
 40
1.0
 40
1.0
 40
1.0
 10
300.0000000000001
 20
154.2458850428872
 30
0.0
 10
300.0000000000001
 20
154.2454667745475
 30
0.0
 10
299.9999999999991
 20
154.2325514603152
 30
0.0
 10
300.0000000000005
 20
154.1973309185182
 30
0.0
 10
300.0000000000001
 20
154.1233414225051
 30
0.0
 10
300.0000000000003
 20
154.0327416643881
 30
0.0
 10
300.0000000000003
 20
153.9664897181839
 30
0.0
 10
300.0000000000002
 20
153.9332956213052
 30
0.0
  0
SPLINE
  5
161
330
1F
100
AcDbEntity
  8
0
  6
SLD-Сплошная
 62
     7
370
    35
100
AcDbSpline
210
0.0
220
0.0
230
1.0
 70
     8
 71
     3
 72
    12
 73
     8
 74
     0
 42
0.000000001
 43
0.00000001
 40
0.0
 40
0.0
 40
0.0
 40
0.0
 40
0.0086674047363283
 40
0.267632629882784
 40
0.5286616002507958
 40
0.7638461449005343
 40
0.9999999999999999
 40
0.9999999999999999
 40
0.9999999999999999
 40
0.9999999999999999
 10
295.7888594398179
 20
154.2458850428872
 30
0.0
 10
295.7898457678467
 20
154.2454667745475
 30
0.0
 10
295.8203016623486
 20
154.2325514603148
 30
0.0
 10
295.8777942821254
 20
154.1973309185182
 30
0.0
 10
295.9443789750624
 20
154.1233414225051
 30
0.0
 10
295.990577364167
 20
154.0327416643879
 30
0.0
 10
295.996854818181
 20
153.9664897181839
 30
0.0
 10
296.0000000000001
 20
153.9332956213051
 30
0.0
  0
SPLINE
  5
162
330
1F
100
AcDbEntity
  8
0
  6
SLD-Сплошная
 62
     7
370
    35
100
AcDbSpline
210
0.0
220
0.0
230
1.0
 70
     8
 71
     3
 72
    12
 73
     8
 74
     0
 42
0.000000001
 43
0.00000001
 40
0.0
 40
0.0
 40
0.0
 40
0.0
 40
0.2361538550994141
 40
0.4713383997490971
 40
0.732367370117046
 40
0.9913325952634743
 40
1.0
 40
1.0
 40
1.0
 40
1.0
 10
304.0000000000001
 20
153.9332956213051
 30
0.0
 10
304.0031451818193
 20
153.9664897181839
 30
0.0
 10
304.0094226358329
 20
154.0327416643879
 30
0.0
 10
304.0556210249375
 20
154.1233414225052
 30
0.0
 10
304.1222057178764
 20
154.1973309185178
 30
0.0
 10
304.1796983376469
 20
154.2325514603159
 30
0.0
 10
304.2101542321535
 20
154.2454667745475
 30
0.0
 10
304.2111405601823
 20
154.2458850428872
 30
0.0
  0
SPLINE
  5
163
330
1F
100
AcDbEntity
  8
0
  6
SLD-Сплошная
 62
     7
370
    35
100
AcDbSpline
210
0.0
220
0.0
230
1.0
 70
     8
 71
     3
 72
     9
 73
     5
 74
     0
 42
0.000000001
 43
0.00000001
 40
0.0
 40
0.0
 40
0.0
 40
0.0
 40
0.6837814517460596
 40
1.0
 40
1.0
 40
1.0
 40
1.0
 10
298.0000000000001
 20
150.4999999999997
 30
0.0
 10
298.45955077801
 20
150.523226170757
 30
0.0
 10
299.1316233778683
 20
150.5571934137964
 30
0.0
 10
299.7913744680529
 20
150.7036786509625
 30
0.0
 10
300.0000000000001
 20
150.7499999999998
 30
0.0
  0
LINE
  5
164
330
1F
100
AcDbEntity
  8
0
  6
SLD-Сплошная
 62
     7
370
    35
100
AcDbLine
 10
300.0
 20
150.75
 30
0.0
 11
302.0
 21
150.5
 31
0.0
  0
LINE
  5
165
330
1F
100
AcDbEntity
  8
0
  6
SLD-Сплошная
 62
     7
370
    35
100
AcDbLine
 10
298.0
 20
150.5
 30
0.0
 11
302.0
 21
150.5
 31
0.0
  0
SPLINE
  5
166
330
1F
100
AcDbEntity
  8
0
  6
SLD-Сплошная
 62
     7
370
    35
100
AcDbSpline
210
0.0
220
0.0
230
1.0
 70
     8
 71
     3
 72
     9
 73
     5
 74
     0
 42
0.000000001
 43
0.00000001
 40
0.0
 40
0.0
 40
0.0
 40
0.0
 40
0.6837814517460612
 40
1.0
 40
1.0
 40
1.0
 40
1.0
 10
302.0000000000001
 20
150.4999999999997
 30
0.0
 10
302.4595507780098
 20
150.523226170757
 30
0.0
 10
303.1316233778683
 20
150.5571934137963
 30
0.0
 10
303.7913744680528
 20
150.7036786509625
 30
0.0
 10
304.0000000000001
 20
150.7499999999998
 30
0.0
  0
LINE
  5
167
330
1F
100
AcDbEntity
  8
0
  6
SLD-Сплошная
 62
     7
370
    35
100
AcDbLine
 10
300.0
 20
153.9332956213
 30
0.0
 11
300.0
 21
150.75
 31
0.0
  0
LINE
  5
168
330
1F
100
AcDbEntity
  8
0
  6
SLD-Сплошная
 62
     7
370
    35
100
AcDbLine
 10
304.0
 20
153.9332956213
 30
0.0
 11
304.0
 21
150.75
 31
0.0
  0
LINE
  5
169
330
1F
100
AcDbEntity
  8
0
  6
SLD-Сплошная
 62
     7
370
    35
100
AcDbLine
 10
296.0
 20
150.75
 30
0.0
 11
298.0
 21
150.5
 31
0.0
  0
LINE
  5
16A
330
1F
100
AcDbEntity
  8
0
  6
SLD-Сплошная
 62
     7
370
    35
100
AcDbLine
 10
296.0
 20
153.9332956213
 30
0.0
 11
296.0
 21
150.75
 31
0.0
  0
SPLINE
  5
16B
330
1F
100
AcDbEntity
  8
0
  6
SLD-Сплошная
 62
     7
370
    35
100
AcDbSpline
210
0.0
220
0.0
230
1.0
 70
    24
 71
     3
 72
     9
 73
     5
 74
     0
 42
0.000000001
 43
0.00000001
 40
0.0
 40
0.0
 40
0.0
 40
0.0
 40
0.8037424145840146
 40
1.0
 40
1.0
 40
1.0
 40
1.0
 10
296.0000000000002
 20
150.4999999999998
 30
0.0
 10
296.0000000000003
 20
150.5318203256767
 30
0.0
 10
296.0000000000006
 20
150.5714105290798
 30
0.0
 10
296.0000000000001
 20
150.7207006761996
 30
0.0
 10
296.0000000000002
 20
150.7499999999998
 30
0.0
  0
LINE
  5
16C
330
1F
100
AcDbEntity
  8
0
  6
SLD-Сплошная
 62
     7
370
    35
100
AcDbLine
 10
296.0
 20
150.5
 30
0.0
 11
298.0
 21
150.5
 31
0.0
  0
SPLINE
  5
16D
330
1F
100
AcDbEntity
  8
0
  6
SLD-Сплошная
 62
     7
370
    35
100
AcDbSpline
210
0.0
220
0.0
230
1.0
 70
    24
 71
     3
 72
     9
 73
     5
 74
     0
 42
0.000000001
 43
0.00000001
 40
0.0
 40
0.0
 40
0.0
 40
0.0
 40
0.8037424145840063
 40
1.0
 40
1.0
 40
1.0
 40
1.0
 10
304.0000000000001
 20
150.4999999999997
 30
0.0
 10
304.0000000000002
 20
150.5318203256767
 30
0.0
 10
304.0000000000001
 20
150.5714105290796
 30
0.0
 10
303.9999999999999
 20
150.7207006761996
 30
0.0
 10
304.0000000000001
 20
150.7499999999998
 30
0.0
  0
LINE
  5
16E
330
1F
100
AcDbEntity
  8
0
  6
SLD-Сплошная
 62
     7
370
    35
100
AcDbLine
 10
304.0
 20
150.5
 30
0.0
 11
302.0
 21
150.5
 31
0.0
  0
SPLINE
  5
16F
330
1F
100
AcDbEntity
  8
0
  6
SLD-Сплошная
 62
     7
370
    35
100
AcDbSpline
210
0.0
220
0.0
230
1.0
 70
     8
 71
     3
 72
    12
 73
     8
 74
     0
 42
0.000000001
 43
0.00000001
 40
0.0
 40
0.0
 40
0.0
 40
0.0
 40
0.2361538550993534
 40
0.4713383997490545
 40
0.732367370116835
 40
0.9913325952639411
 40
1.0
 40
1.0
 40
1.0
 40
1.0
 10
503.0503835096416
 20
159.440273628881
 30
0.0
 10
503.0527820123306
 20
159.4070795320023
 30
0.0
 10
503.0575691728822
 20
159.3408275857981
 30
0.0
 10
503.0927998739566
 20
159.2502278276812
 30
0.0
 10
503.1435770862881
 20
159.1762383316677
 30
0.0
 10
503.1874207211125
 20
159.1410177898713
 30
0.0
 10
503.210646260702
 20
159.1281024756387
 30
0.0
 10
503.2113984303905
 20
159.127684207299
 30
0.0
  0
SPLINE
  5
170
330
1F
100
AcDbEntity
  8
0
  6
SLD-Сплошная
 62
     7
370
    35
100
AcDbSpline
210
0.0
220
0.0
230
1.0
 70
     8
 71
     3
 72
    12
 73
     8
 74
     0
 42
0.000000001
 43
0.00000001
 40
0.0
 40
0.0
 40
0.0
 40
0.0
 40
0.2361538550996711
 40
0.47133839974903
 40
0.7323673701176664
 40
0.9913325952639366
 40
0.9999999999999999
 40
0.9999999999999999
 40
0.9999999999999999
 40
0.9999999999999999
 10
498.5216321444453
 20
159.4402736288811
 30
0.0
 10
498.5204697105199
 20
159.4070795320024
 30
0.0
 10
498.5181496139627
 20
159.3408275857984
 30
0.0
 10
498.5010750606052
 20
159.2502278276809
 30
0.0
 10
498.4764658931778
 20
159.1762383316682
 30
0.0
 10
498.4552170829239
 20
159.1410177898709
 30
0.0
 10
498.4439608290644
 20
159.1281024756387
 30
0.0
 10
498.4435962901512
 20
159.1276842072991
 30
0.0
  0
LINE
  5
171
330
1F
100
AcDbEntity
  8
0
  6
SLD-Сплошная
 62
     7
370
    35
100
AcDbLine
 10
498.5216321444
 20
162.9427344101
 30
0.0
 11
500.786007827
 21
163.3
 31
0.0
  0
SPLINE
  5
172
330
1F
100
AcDbEntity
  8
0
  6
SLD-Сплошная
 62
     7
370
    35
100
AcDbSpline
210
0.0
220
0.0
230
1.0
 70
     8
 71
     3
 72
     9
 73
     5
 74
     0
 42
0.000000001
 43
0.00000001
 40
0.0
 40
0.0
 40
0.0
 40
0.0
 40
0.0701852045454295
 40
1.0
 40
1.0
 40
1.0
 40
1.0
 10
500.7860078270433
 20
163.2999999999997
 30
0.0
 10
500.8396751619238
 20
163.2996432638502
 30
0.0
 10
501.604328271196
 20
163.2945604810636
 30
0.0
 10
502.3536515958236
 20
163.112249685333
 30
0.0
 10
503.0503835096416
 20
162.9427344100916
 30
0.0
  0
LINE
  5
173
330
1F
100
AcDbEntity
  8
0
  6
SLD-Сплошная
 62
     7
370
    35
100
AcDbLine
 10
503.0503835096
 20
159.4402736289
 30
0.0
 11
503.0503835096
 21
162.9427344101
 31
0.0
  0
LINE
  5
174
330
1F
100
AcDbEntity
  8
0
  6
SLD-Сплошная
 62
     7
370
    35
100
AcDbLine
 10
498.5216321444
 20
159.4402736289
 30
0.0
 11
498.5216321444
 21
162.9427344101
 31
0.0
  0
SPLINE
  5
175
330
1F
100
AcDbEntity
  8
0
  6
SLD-Сплошная
 62
     7
370
    35
100
AcDbSpline
210
0.0
220
0.0
230
1.0
 70
     8
 71
     3
 72
     9
 73
     5
 74
     0
 42
0.000000001
 43
0.00000001
 40
0.0
 40
0.0
 40
0.0
 40
0.0
 40
0.2210460768286266
 40
1.0
 40
1.0
 40
1.0
 40
1.0
 10
496.9964403896238
 20
163.2999999999997
 30
0.0
 10
497.1105056464971
 20
163.2964177496901
 30
0.0
 10
497.6265304432725
 20
163.2802118510779
 30
0.0
 10
498.129692267485
 20
163.0905062962624
 30
0.0
 10
498.5216321444452
 20
162.9427344100916
 30
0.0
  0
LINE
  5
176
330
1F
100
AcDbEntity
  8
0
  6
SLD-Сплошная
 62
     7
370
    35
100
AcDbLine
 10
496.9964403896
 20
163.3
 30
0.0
 11
500.786007827
 21
163.3
 31
0.0
  0
LINE
  5
177
330
1F
100
AcDbEntity
  8
0
  6
SLD-Сплошная
 62
     7
370
    35
100
AcDbLine
 10
503.0503835096
 20
162.9427344101
 30
0.0
 11
503.7895674374
 21
163.3
 31
0.0
  0
LINE
  5
178
330
1F
100
AcDbEntity
  8
0
  6
SLD-Сплошная
 62
     7
370
    35
100
AcDbLine
 10
503.7895674374
 20
163.3
 30
0.0
 11
500.786007827
 21
163.3
 31
0.0
  0
SPLINE
  5
179
330
1F
100
AcDbEntity
  8
0
  6
SLD-Сплошная
 62
     7
370
    35
100
AcDbSpline
210
0.0
220
0.0
230
1.0
 70
     8
 71
     3
 72
    12
 73
     8
 74
     0
 42
0.000000001
 43
0.00000001
 40
0.0
 40
0.0
 40
0.0
 40
0.0
 40
0.2361538550992886
 40
0.4713383997487957
 40
0.7323673701171841
 40
0.9913325952628878
 40
1.0
 40
1.0
 40
1.0
 40
1.0
 10
495.471248634803
 20
159.4402736288811
 30
0.0
 10
495.4676876981885
 20
159.4070795320023
 30
0.0
 10
495.4605804410796
 20
159.3408275857983
 30
0.0
 10
495.4082751866482
 20
159.2502278276807
 30
0.0
 10
495.3328888068867
 20
159.176238331669
 30
0.0
 10
495.2677963618157
 20
159.1410177898694
 30
0.0
 10
495.2333145683612
 20
159.1281024756386
 30
0.0
 10
495.2321978597595
 20
159.127684207299
 30
0.0
  0
SPLINE
  5
17A
330
1F
100
AcDbEntity
  8
0
  6
SLD-Сплошная
 62
     7
370
    35
100
AcDbSpline
210
0.0
220
0.0
230
1.0
 70
     8
 71
     3
 72
     9
 73
     5
 74
     0
 42
0.000000001
 43
0.00000001
 40
0.0
 40
0.0
 40
0.0
 40
0.0
 40
0.19722420431313
 40
1.0
 40
1.0
 40
1.0
 40
1.0
 10
495.4712486348029
 20
162.9427344100916
 30
0.0
 10
495.5691624553023
 20
162.9843725670052
 30
0.0
 10
496.065621907834
 20
163.195493494371
 30
0.0
 10
496.5819470570937
 20
163.2534632684709
 30
0.0
 10
496.9964403896238
 20
163.2999999999997
 30
0.0
  0
LINE
  5
17B
330
1F
100
AcDbEntity
  8
0
  6
SLD-Сплошная
 62
     7
370
    35
100
AcDbLine
 10
495.4712486348
 20
159.4402736289
 30
0.0
 11
495.4712486348
 21
162.9427344101
 31
0.0
  0
SPLINE
  5
17C
330
1F
100
AcDbEntity
  8
0
  6
SLD-Сплошная
 62
     7
370
    35
100
AcDbSpline
210
0.0
220
0.0
230
1.0
 70
     8
 71
     3
 72
    10
 73
     6
 74
     0
 42
0.000000001
 43
0.00000001
 40
0.0
 40
0.0
 40
0.0
 40
0.0
 40
0.2602598142126783
 40
0.629369266881876
 40
1.0
 40
1.0
 40
1.0
 40
1.0
 10
504.6421692028872
 20
159.2079167389967
 30
0.0
 10
504.6249912221201
 20
159.2232510742313
 30
0.0
 10
504.5834508360467
 20
159.2603330930359
 30
0.0
 10
504.5398419229186
 20
159.341306329013
 30
0.0
 10
504.5324532826983
 20
159.4072393317104
 30
0.0
 10
504.5287513651954
 20
159.4402736288811
 30
0.0
  0
LINE
  5
17D
330
1F
100
AcDbEntity
  8
0
  6
SLD-Сплошная
 62
     7
370
    35
100
AcDbLine
 10
498.1227752435
 20
146.345
 30
0.0
 11
502.5
 21
146.345
 31
0.0
  0
LINE
  5
17E
330
1F
100
AcDbEntity
  8
0
  6
SLD-Сплошная
 62
     7
370
    35
100
AcDbLine
 10
497.5
 20
146.345
 30
0.0
 11
498.1227752435
 21
146.345
 31
0.0
  0
LINE
  5
17F
330
1F
100
AcDbEntity
  8
0
  6
SLD-Сплошная
 62
     7
370
    35
100
AcDbLine
 10
498.4569212502
 20
145.9
 30
0.0
 11
502.055
 21
145.9
 31
0.0
  0
LINE
  5
180
330
1F
100
AcDbEntity
  8
0
  6
SLD-Сплошная
 62
     7
370
    35
100
AcDbLine
 10
497.945
 20
145.9
 30
0.0
 11
498.4569212502
 21
145.9
 31
0.0
  0
SPLINE
  5
181
330
1F
100
AcDbEntity
  8
0
  6
SLD-Сплошная
 62
     7
370
    35
100
AcDbSpline
210
0.0
220
0.0
230
1.0
 70
     8
 71
     3
 72
     9
 73
     5
 74
     0
 42
0.000000001
 43
0.00000001
 40
0.0
 40
0.0
 40
0.0
 40
0.0
 40
0.1199201001172648
 40
1.0
 40
1.0
 40
1.0
 40
1.0
 10
503.7895674374189
 20
163.2999999999998
 30
0.0
 10
503.8070924517139
 20
163.2998494777303
 30
0.0
 10
503.9532315416396
 20
163.2985942897398
 30
0.0
 10
504.0964418048717
 20
163.1936135017246
 30
0.0
 10
504.2224782789992
 20
163.1012220203185
 30
0.0
  0
LINE
  5
182
330
1F
100
AcDbEntity
  8
0
  6
SLD-Сплошная
 62
     7
370
    35
100
AcDbLine
 10
504.5287513652
 20
159.4402736289
 30
0.0
 11
504.5287513652
 21
162.9427344101
 31
0.0
  0
LINE
  5
183
330
1F
100
AcDbEntity
  8
0
  6
SLD-Сплошная
 62
     7
370
    35
100
AcDbLine
 10
495.777521721
 20
163.1012220203
 30
0.0
 11
495.4712486348
 21
162.9427344101
 31
0.0
  0
LINE
  5
184
330
1F
100
AcDbEntity
  8
0
  6
SLD-Сплошная
 62
     7
370
    35
100
AcDbLine
 10
496.9964403896
 20
163.3
 30
0.0
 11
496.0
 21
163.3
 31
0.0
  0
LINE
  5
185
330
1F
100
AcDbEntity
  8
0
  6
SLD-Сплошная
 62
     7
370
    35
100
AcDbLine
 10
504.0
 20
163.3
 30
0.0
 11
503.7895674374
 21
163.3
 31
0.0
  0
SPLINE
  5
186
330
1F
100
AcDbEntity
  8
0
  6
SLD-Сплошная
 62
     7
370
    35
100
AcDbSpline
210
0.0
220
0.0
230
1.0
 70
     8
 71
     3
 72
    12
 73
     8
 74
     0
 42
0.000000001
 43
0.00000001
 40
0.0
 40
0.0
 40
0.0
 40
0.0
 40
0.2361538550993657
 40
0.4713383997491369
 40
0.7323673701168854
 40
0.9913325952640222
 40
1.0
 40
1.0
 40
1.0
 40
1.0
 10
-96.94961649035827
 20
159.4402736288811
 30
0.0
 10
-96.9472179876693
 20
159.4070795320024
 30
0.0
 10
-96.94243082711796
 20
159.3408275857982
 30
0.0
 10
-96.90720012604353
 20
159.2502278276812
 30
0.0
 10
-96.85642291371083
 20
159.1762383316678
 30
0.0
 10
-96.81257927888981
 20
159.1410177898711
 30
0.0
 10
-96.78935373929798
 20
159.1281024756387
 30
0.0
 10
-96.7886015696095
 20
159.127684207299
 30
0.0
  0
SPLINE
  5
187
330
1F
100
AcDbEntity
  8
0
  6
SLD-Сплошная
 62
     7
370
    35
100
AcDbSpline
210
0.0
220
0.0
230
1.0
 70
     8
 71
     3
 72
    12
 73
     8
 74
     0
 42
0.000000001
 43
0.00000001
 40
0.0
 40
0.0
 40
0.0
 40
0.0
 40
0.2361538550996711
 40
0.47133839974903
 40
0.7323673701176664
 40
0.9913325952639366
 40
0.9999999999999999
 40
0.9999999999999999
 40
0.9999999999999999
 40
0.9999999999999999
 10
-101.4783678555547
 20
159.4402736288811
 30
0.0
 10
-101.4795302894802
 20
159.4070795320024
 30
0.0
 10
-101.4818503860375
 20
159.3408275857984
 30
0.0
 10
-101.4989249393948
 20
159.2502278276809
 30
0.0
 10
-101.5235341068228
 20
159.1762383316682
 30
0.0
 10
-101.544782917075
 20
159.1410177898709
 30
0.0
 10
-101.5560391709356
 20
159.1281024756387
 30
0.0
 10
-101.5564037098488
 20
159.1276842072991
 30
0.0
  0
LINE
  5
188
330
1F
100
AcDbEntity
  8
0
  6
SLD-Сплошная
 62
     7
370
    35
100
AcDbLine
 10
-101.4783678556
 20
162.9427344101
 30
0.0
 11
-99.213992173
 21
163.3
 31
0.0
  0
SPLINE
  5
189
330
1F
100
AcDbEntity
  8
0
  6
SLD-Сплошная
 62
     7
370
    35
100
AcDbSpline
210
0.0
220
0.0
230
1.0
 70
     8
 71
     3
 72
     9
 73
     5
 74
     0
 42
0.000000001
 43
0.00000001
 40
0.0
 40
0.0
 40
0.0
 40
0.0
 40
0.0701852045454046
 40
1.0
 40
1.0
 40
1.0
 40
1.0
 10
-99.21399217295668
 20
163.2999999999997
 30
0.0
 10
-99.16032483807608
 20
163.2996432638502
 30
0.0
 10
-98.39567172880365
 20
163.2945604810636
 30
0.0
 10
-97.64634840417624
 20
163.1122496853329
 30
0.0
 10
-96.94961649035832
 20
162.9427344100916
 30
0.0
  0
LINE
  5
18A
330
1F
100
AcDbEntity
  8
0
  6
SLD-Сплошная
 62
     7
370
    35
100
AcDbLine
 10
-96.9496164904
 20
159.4402736289
 30
0.0
 11
-96.9496164904
 21
162.9427344101
 31
0.0
  0
LINE
  5
18B
330
1F
100
AcDbEntity
  8
0
  6
SLD-Сплошная
 62
     7
370
    35
100
AcDbLine
 10
-101.4783678556
 20
159.4402736289
 30
0.0
 11
-101.4783678556
 21
162.9427344101
 31
0.0
  0
SPLINE
  5
18C
330
1F
100
AcDbEntity
  8
0
  6
SLD-Сплошная
 62
     7
370
    35
100
AcDbSpline
210
0.0
220
0.0
230
1.0
 70
     8
 71
     3
 72
     9
 73
     5
 74
     0
 42
0.000000001
 43
0.00000001
 40
0.0
 40
0.0
 40
0.0
 40
0.0
 40
0.2210460768286388
 40
1.0
 40
1.0
 40
1.0
 40
1.0
 10
-103.0035596103763
 20
163.2999999999997
 30
0.0
 10
-102.8894943535028
 20
163.29641774969
 30
0.0
 10
-102.3734695567275
 20
163.2802118510778
 30
0.0
 10
-101.8703077325151
 20
163.0905062962624
 30
0.0
 10
-101.4783678555548
 20
162.9427344100916
 30
0.0
  0
LINE
  5
18D
330
1F
100
AcDbEntity
  8
0
  6
SLD-Сплошная
 62
     7
370
    35
100
AcDbLine
 10
-103.0035596104
 20
163.3
 30
0.0
 11
-99.213992173
 21
163.3
 31
0.0
  0
LINE
  5
18E
330
1F
100
AcDbEntity
  8
0
  6
SLD-Сплошная
 62
     7
370
    35
100
AcDbLine
 10
-96.9496164904
 20
162.9427344101
 30
0.0
 11
-96.2104325626
 21
163.3
 31
0.0
  0
LINE
  5
18F
330
1F
100
AcDbEntity
  8
0
  6
SLD-Сплошная
 62
     7
370
    35
100
AcDbLine
 10
-96.2104325626
 20
163.3
 30
0.0
 11
-99.213992173
 21
163.3
 31
0.0
  0
SPLINE
  5
190
330
1F
100
AcDbEntity
  8
0
  6
SLD-Сплошная
 62
     7
370
    35
100
AcDbSpline
210
0.0
220
0.0
230
1.0
 70
     8
 71
     3
 72
    12
 73
     8
 74
     0
 42
0.000000001
 43
0.00000001
 40
0.0
 40
0.0
 40
0.0
 40
0.0
 40
0.2361538550992599
 40
0.4713383997487384
 40
0.7323673701170952
 40
0.9913325952627673
 40
1.0
 40
1.0
 40
1.0
 40
1.0
 10
-104.5287513651971
 20
159.440273628881
 30
0.0
 10
-104.5323123018114
 20
159.4070795320024
 30
0.0
 10
-104.5394195589202
 20
159.3408275857983
 30
0.0
 10
-104.5917248133517
 20
159.2502278276808
 30
0.0
 10
-104.6671111931125
 20
159.1762383316689
 30
0.0
 10
-104.732203638186
 20
159.1410177898692
 30
0.0
 10
-104.7666854316386
 20
159.1281024756386
 30
0.0
 10
-104.7678021402406
 20
159.127684207299
 30
0.0
  0
SPLINE
  5
191
330
1F
100
AcDbEntity
  8
0
  6
SLD-Сплошная
 62
     7
370
    35
100
AcDbSpline
210
0.0
220
0.0
230
1.0
 70
     8
 71
     3
 72
     9
 73
     5
 74
     0
 42
0.000000001
 43
0.00000001
 40
0.0
 40
0.0
 40
0.0
 40
0.0
 40
0.1972242043131179
 40
0.9999999999999999
 40
0.9999999999999999
 40
0.9999999999999999
 40
0.9999999999999999
 10
-104.5287513651971
 20
162.9427344100916
 30
0.0
 10
-104.4308375446978
 20
162.9843725670052
 30
0.0
 10
-103.9343780921663
 20
163.1954934943707
 30
0.0
 10
-103.4180529429064
 20
163.2534632684708
 30
0.0
 10
-103.0035596103762
 20
163.2999999999998
 30
0.0
  0
LINE
  5
192
330
1F
100
AcDbEntity
  8
0
  6
SLD-Сплошная
 62
     7
370
    35
100
AcDbLine
 10
-104.5287513652
 20
159.4402736289
 30
0.0
 11
-104.5287513652
 21
162.9427344101
 31
0.0
  0
SPLINE
  5
193
330
1F
100
AcDbEntity
  8
0
  6
SLD-Сплошная
 62
     7
370
    35
100
AcDbSpline
210
0.0
220
0.0
230
1.0
 70
     8
 71
     3
 72
    10
 73
     6
 74
     0
 42
0.000000001
 43
0.00000001
 40
0.0
 40
0.0
 40
0.0
 40
0.0
 40
0.2602598142123593
 40
0.6293692668817342
 40
1.0
 40
1.0
 40
1.0
 40
1.0
 10
-95.35783079711291
 20
159.2079167389968
 30
0.0
 10
-95.37500877787974
 20
159.2232510742314
 30
0.0
 10
-95.41654916395326
 20
159.2603330930359
 30
0.0
 10
-95.46015807708142
 20
159.341306329013
 30
0.0
 10
-95.46754671730146
 20
159.4072393317104
 30
0.0
 10
-95.47124863480461
 20
159.4402736288811
 30
0.0
  0
LINE
  5
194
330
1F
100
AcDbEntity
  8
0
  6
SLD-Сплошная
 62
     7
370
    35
100
AcDbLine
 10
-101.8772247565
 20
146.345
 30
0.0
 11
-97.5
 21
146.345
 31
0.0
  0
LINE
  5
195
330
1F
100
AcDbEntity
  8
0
  6
SLD-Сплошная
 62
     7
370
    35
100
AcDbLine
 10
-102.5
 20
146.345
 30
0.0
 11
-101.8772247565
 21
146.345
 31
0.0
  0
LINE
  5
196
330
1F
100
AcDbEntity
  8
0
  6
SLD-Сплошная
 62
     7
370
    35
100
AcDbLine
 10
-101.5430787498
 20
145.9
 30
0.0
 11
-97.945
 21
145.9
 31
0.0
  0
LINE
  5
197
330
1F
100
AcDbEntity
  8
0
  6
SLD-Сплошная
 62
     7
370
    35
100
AcDbLine
 10
-102.055
 20
145.9
 30
0.0
 11
-101.5430787498
 21
145.9
 31
0.0
  0
SPLINE
  5
198
330
1F
100
AcDbEntity
  8
0
  6
SLD-Сплошная
 62
     7
370
    35
100
AcDbSpline
210
0.0
220
0.0
230
1.0
 70
     8
 71
     3
 72
     9
 73
     5
 74
     0
 42
0.000000001
 43
0.00000001
 40
0.0
 40
0.0
 40
0.0
 40
0.0
 40
0.1199201001172633
 40
1.0
 40
1.0
 40
1.0
 40
1.0
 10
-96.21043256258122
 20
163.2999999999997
 30
0.0
 10
-96.19290754828624
 20
163.2998494777303
 30
0.0
 10
-96.0467684583598
 20
163.29859428974
 30
0.0
 10
-95.90355819512797
 20
163.1936135017246
 30
0.0
 10
-95.77752172100068
 20
163.1012220203185
 30
0.0
  0
LINE
  5
199
330
1F
100
AcDbEntity
  8
0
  6
SLD-Сплошная
 62
     7
370
    35
100
AcDbLine
 10
-95.4712486348
 20
159.4402736289
 30
0.0
 11
-95.4712486348
 21
162.9427344101
 31
0.0
  0
LINE
  5
19A
330
1F
100
AcDbEntity
  8
0
  6
SLD-Сплошная
 62
     7
370
    35
100
AcDbLine
 10
-104.222478279
 20
163.1012220203
 30
0.0
 11
-104.5287513652
 21
162.9427344101
 31
0.0
  0
LINE
  5
19B
330
1F
100
AcDbEntity
  8
0
  6
SLD-Сплошная
 62
     7
370
    35
100
AcDbLine
 10
-103.0035596104
 20
163.3
 30
0.0
 11
-104.0
 21
163.3
 31
0.0
  0
LINE
  5
19C
330
1F
100
AcDbEntity
  8
0
  6
SLD-Сплошная
 62
     7
370
    35
100
AcDbLine
 10
-96.0
 20
163.3
 30
0.0
 11
-96.2104325626
 21
163.3
 31
0.0
  0
SPLINE
  5
19D
330
1F
100
AcDbEntity
  8
0
  6
SLD-Сплошная
 62
     7
370
    35
100
AcDbSpline
210
0.0
220
0.0
230
1.0
 70
     8
 71
     3
 72
    12
 73
     8
 74
     0
 42
0.000000001
 43
0.00000001
 40
0.0
 40
0.0
 40
0.0
 40
0.0
 40
0.2361538550993598
 40
0.4713383997491213
 40
0.7323673701168747
 40
0.9913325952639814
 40
0.9999999999999999
 40
0.9999999999999999
 40
0.9999999999999999
 40
0.9999999999999999
 10
-496.9496164903583
 20
159.440273628881
 30
0.0
 10
-496.9472179876693
 20
159.4070795320023
 30
0.0
 10
-496.9424308271178
 20
159.3408275857982
 30
0.0
 10
-496.9072001260436
 20
159.2502278276812
 30
0.0
 10
-496.8564229137104
 20
159.1762383316676
 30
0.0
 10
-496.8125792788902
 20
159.1410177898717
 30
0.0
 10
-496.7893537392979
 20
159.1281024756386
 30
0.0
 10
-496.7886015696094
 20
159.127684207299
 30
0.0
  0
SPLINE
  5
19E
330
1F
100
AcDbEntity
  8
0
  6
SLD-Сплошная
 62
     7
370
    35
100
AcDbSpline
210
0.0
220
0.0
230
1.0
 70
     8
 71
     3
 72
    12
 73
     8
 74
     0
 42
0.000000001
 43
0.00000001
 40
0.0
 40
0.0
 40
0.0
 40
0.0
 40
0.2361538550996667
 40
0.4713383997490231
 40
0.7323673701176414
 40
0.9913325952639368
 40
1.0
 40
1.0
 40
1.0
 40
1.0
 10
-501.4783678555547
 20
159.440273628881
 30
0.0
 10
-501.4795302894801
 20
159.4070795320023
 30
0.0
 10
-501.4818503860374
 20
159.3408275857983
 30
0.0
 10
-501.4989249393947
 20
159.250227827681
 30
0.0
 10
-501.5235341068229
 20
159.176238331668
 30
0.0
 10
-501.5447829170744
 20
159.1410177898713
 30
0.0
 10
-501.5560391709356
 20
159.1281024756387
 30
0.0
 10
-501.5564037098488
 20
159.1276842072991
 30
0.0
  0
LINE
  5
19F
330
1F
100
AcDbEntity
  8
0
  6
SLD-Сплошная
 62
     7
370
    35
100
AcDbLine
 10
-501.4783678556
 20
162.9427344101
 30
0.0
 11
-499.213992173
 21
163.3
 31
0.0
  0
SPLINE
  5
1A0
330
1F
100
AcDbEntity
  8
0
  6
SLD-Сплошная
 62
     7
370
    35
100
AcDbSpline
210
0.0
220
0.0
230
1.0
 70
     8
 71
     3
 72
     9
 73
     5
 74
     0
 42
0.000000001
 43
0.00000001
 40
0.0
 40
0.0
 40
0.0
 40
0.0
 40
0.0701852045454054
 40
1.0
 40
1.0
 40
1.0
 40
1.0
 10
-499.2139921729566
 20
163.2999999999997
 30
0.0
 10
-499.1603248380761
 20
163.2996432638502
 30
0.0
 10
-498.3956717288036
 20
163.2945604810638
 30
0.0
 10
-497.6463484041761
 20
163.1122496853331
 30
0.0
 10
-496.9496164903583
 20
162.9427344100916
 30
0.0
  0
LINE
  5
1A1
330
1F
100
AcDbEntity
  8
0
  6
SLD-Сплошная
 62
     7
370
    35
100
AcDbLine
 10
-496.9496164904
 20
159.4402736289
 30
0.0
 11
-496.9496164904
 21
162.9427344101
 31
0.0
  0
LINE
  5
1A2
330
1F
100
AcDbEntity
  8
0
  6
SLD-Сплошная
 62
     7
370
    35
100
AcDbLine
 10
-501.4783678556
 20
159.4402736289
 30
0.0
 11
-501.4783678556
 21
162.9427344101
 31
0.0
  0
SPLINE
  5
1A3
330
1F
100
AcDbEntity
  8
0
  6
SLD-Сплошная
 62
     7
370
    35
100
AcDbSpline
210
0.0
220
0.0
230
1.0
 70
     8
 71
     3
 72
     9
 73
     5
 74
     0
 42
0.000000001
 43
0.00000001
 40
0.0
 40
0.0
 40
0.0
 40
0.0
 40
0.2210460768286305
 40
1.0
 40
1.0
 40
1.0
 40
1.0
 10
-503.0035596103761
 20
163.2999999999997
 30
0.0
 10
-502.8894943535027
 20
163.29641774969
 30
0.0
 10
-502.3734695567275
 20
163.2802118510779
 30
0.0
 10
-501.8703077325151
 20
163.0905062962624
 30
0.0
 10
-501.4783678555547
 20
162.9427344100916
 30
0.0
  0
LINE
  5
1A4
330
1F
100
AcDbEntity
  8
0
  6
SLD-Сплошная
 62
     7
370
    35
100
AcDbLine
 10
-503.0035596104
 20
163.3
 30
0.0
 11
-499.213992173
 21
163.3
 31
0.0
  0
LINE
  5
1A5
330
1F
100
AcDbEntity
  8
0
  6
SLD-Сплошная
 62
     7
370
    35
100
AcDbLine
 10
-496.9496164904
 20
162.9427344101
 30
0.0
 11
-496.2104325626
 21
163.3
 31
0.0
  0
LINE
  5
1A6
330
1F
100
AcDbEntity
  8
0
  6
SLD-Сплошная
 62
     7
370
    35
100
AcDbLine
 10
-496.2104325626
 20
163.3
 30
0.0
 11
-499.213992173
 21
163.3
 31
0.0
  0
SPLINE
  5
1A7
330
1F
100
AcDbEntity
  8
0
  6
SLD-Сплошная
 62
     7
370
    35
100
AcDbSpline
210
0.0
220
0.0
230
1.0
 70
     8
 71
     3
 72
    12
 73
     8
 74
     0
 42
0.000000001
 43
0.00000001
 40
0.0
 40
0.0
 40
0.0
 40
0.0
 40
0.2361538550992731
 40
0.4713383997487647
 40
0.7323673701171126
 40
0.9913325952628278
 40
1.0
 40
1.0
 40
1.0
 40
1.0
 10
-504.528751365197
 20
159.440273628881
 30
0.0
 10
-504.5323123018113
 20
159.4070795320022
 30
0.0
 10
-504.53941955892
 20
159.3408275857981
 30
0.0
 10
-504.5917248133517
 20
159.250227827681
 30
0.0
 10
-504.6671111931129
 20
159.1762383316688
 30
0.0
 10
-504.7322036381848
 20
159.1410177898693
 30
0.0
 10
-504.7666854316386
 20
159.1281024756387
 30
0.0
 10
-504.7678021402404
 20
159.127684207299
 30
0.0
  0
SPLINE
  5
1A8
330
1F
100
AcDbEntity
  8
0
  6
SLD-Сплошная
 62
     7
370
    35
100
AcDbSpline
210
0.0
220
0.0
230
1.0
 70
     8
 71
     3
 72
     9
 73
     5
 74
     0
 42
0.000000001
 43
0.00000001
 40
0.0
 40
0.0
 40
0.0
 40
0.0
 40
0.1972242043131239
 40
1.0
 40
1.0
 40
1.0
 40
1.0
 10
-504.528751365197
 20
162.9427344100916
 30
0.0
 10
-504.4308375446977
 20
162.984372567005
 30
0.0
 10
-503.9343780921661
 20
163.1954934943709
 30
0.0
 10
-503.4180529429063
 20
163.2534632684709
 30
0.0
 10
-503.0035596103761
 20
163.2999999999998
 30
0.0
  0
LINE
  5
1A9
330
1F
100
AcDbEntity
  8
0
  6
SLD-Сплошная
 62
     7
370
    35
100
AcDbLine
 10
-504.5287513652
 20
159.4402736289
 30
0.0
 11
-504.5287513652
 21
162.9427344101
 31
0.0
  0
SPLINE
  5
1AA
330
1F
100
AcDbEntity
  8
0
  6
SLD-Сплошная
 62
     7
370
    35
100
AcDbSpline
210
0.0
220
0.0
230
1.0
 70
     8
 71
     3
 72
    10
 73
     6
 74
     0
 42
0.000000001
 43
0.00000001
 40
0.0
 40
0.0
 40
0.0
 40
0.0
 40
0.2602598142124198
 40
0.6293692668817522
 40
1.0
 40
1.0
 40
1.0
 40
1.0
 10
-495.3578307971128
 20
159.2079167389968
 30
0.0
 10
-495.3750087778798
 20
159.2232510742314
 30
0.0
 10
-495.4165491639532
 20
159.2603330930358
 30
0.0
 10
-495.4601580770812
 20
159.3413063290131
 30
0.0
 10
-495.4675467173014
 20
159.4072393317104
 30
0.0
 10
-495.4712486348046
 20
159.440273628881
 30
0.0
  0
LINE
  5
1AB
330
1F
100
AcDbEntity
  8
0
  6
SLD-Сплошная
 62
     7
370
    35
100
AcDbLine
 10
-501.5430787498
 20
145.9
 30
0.0
 11
-497.945
 21
145.9
 31
0.0
  0
LINE
  5
1AC
330
1F
100
AcDbEntity
  8
0
  6
SLD-Сплошная
 62
     7
370
    35
100
AcDbLine
 10
-502.055
 20
145.9
 30
0.0
 11
-501.5430787498
 21
145.9
 31
0.0
  0
LINE
  5
1AD
330
1F
100
AcDbEntity
  8
0
  6
SLD-Сплошная
 62
     7
370
    35
100
AcDbLine
 10
-501.8772247565
 20
146.345
 30
0.0
 11
-497.5
 21
146.345
 31
0.0
  0
LINE
  5
1AE
330
1F
100
AcDbEntity
  8
0
  6
SLD-Сплошная
 62
     7
370
    35
100
AcDbLine
 10
-502.5
 20
146.345
 30
0.0
 11
-501.8772247565
 21
146.345
 31
0.0
  0
SPLINE
  5
1AF
330
1F
100
AcDbEntity
  8
0
  6
SLD-Сплошная
 62
     7
370
    35
100
AcDbSpline
210
0.0
220
0.0
230
1.0
 70
     8
 71
     3
 72
     9
 73
     5
 74
     0
 42
0.000000001
 43
0.00000001
 40
0.0
 40
0.0
 40
0.0
 40
0.0
 40
0.11992010011726
 40
1.0
 40
1.0
 40
1.0
 40
1.0
 10
-496.2104325625811
 20
163.2999999999997
 30
0.0
 10
-496.1929075482861
 20
163.2998494777302
 30
0.0
 10
-496.0467684583598
 20
163.2985942897403
 30
0.0
 10
-495.9035581951279
 20
163.1936135017248
 30
0.0
 10
-495.7775217210006
 20
163.1012220203185
 30
0.0
  0
LINE
  5
1B0
330
1F
100
AcDbEntity
  8
0
  6
SLD-Сплошная
 62
     7
370
    35
100
AcDbLine
 10
-495.4712486348
 20
159.4402736289
 30
0.0
 11
-495.4712486348
 21
162.9427344101
 31
0.0
  0
LINE
  5
1B1
330
1F
100
AcDbEntity
  8
0
  6
SLD-Сплошная
 62
     7
370
    35
100
AcDbLine
 10
-504.222478279
 20
163.1012220203
 30
0.0
 11
-504.5287513652
 21
162.9427344101
 31
0.0
  0
LINE
  5
1B2
330
1F
100
AcDbEntity
  8
0
  6
SLD-Сплошная
 62
     7
370
    35
100
AcDbLine
 10
-503.0035596104
 20
163.3
 30
0.0
 11
-504.0
 21
163.3
 31
0.0
  0
LINE
  5
1B3
330
1F
100
AcDbEntity
  8
0
  6
SLD-Сплошная
 62
     7
370
    35
100
AcDbLine
 10
-496.0
 20
163.3
 30
0.0
 11
-496.2104325626
 21
163.3
 31
0.0
  0
SPLINE
  5
1B4
330
1F
100
AcDbEntity
  8
0
  6
SLD-Сплошная
 62
     7
370
    35
100
AcDbSpline
210
0.0
220
0.0
230
1.0
 70
     8
 71
     3
 72
    12
 73
     8
 74
     0
 42
0.000000001
 43
0.00000001
 40
0.0
 40
0.0
 40
0.0
 40
0.0
 40
0.2361538550993657
 40
0.4713383997491369
 40
0.7323673701168854
 40
0.9913325952640222
 40
1.0
 40
1.0
 40
1.0
 40
1.0
 10
103.0503835096417
 20
159.4402736288811
 30
0.0
 10
103.0527820123307
 20
159.4070795320024
 30
0.0
 10
103.0575691728821
 20
159.3408275857982
 30
0.0
 10
103.0927998739565
 20
159.2502278276812
 30
0.0
 10
103.143577086289
 20
159.1762383316678
 30
0.0
 10
103.1874207211106
 20
159.1410177898711
 30
0.0
 10
103.210646260702
 20
159.1281024756387
 30
0.0
 10
103.2113984303905
 20
159.127684207299
 30
0.0
  0
SPLINE
  5
1B5
330
1F
100
AcDbEntity
  8
0
  6
SLD-Сплошная
 62
     7
370
    35
100
AcDbSpline
210
0.0
220
0.0
230
1.0
 70
     8
 71
     3
 72
    12
 73
     8
 74
     0
 42
0.000000001
 43
0.00000001
 40
0.0
 40
0.0
 40
0.0
 40
0.0
 40
0.2361538550996711
 40
0.47133839974903
 40
0.7323673701176664
 40
0.9913325952639366
 40
0.9999999999999999
 40
0.9999999999999999
 40
0.9999999999999999
 40
0.9999999999999999
 10
98.52163214444532
 20
159.4402736288811
 30
0.0
 10
98.5204697105198
 20
159.4070795320024
 30
0.0
 10
98.51814961396249
 20
159.3408275857984
 30
0.0
 10
98.50107506060529
 20
159.2502278276809
 30
0.0
 10
98.47646589317688
 20
159.1762383316682
 30
0.0
 10
98.45521708292581
 20
159.1410177898709
 30
0.0
 10
98.44396082906431
 20
159.1281024756387
 30
0.0
 10
98.4435962901512
 20
159.1276842072991
 30
0.0
  0
LINE
  5
1B6
330
1F
100
AcDbEntity
  8
0
  6
SLD-Сплошная
 62
     7
370
    35
100
AcDbLine
 10
98.5216321444
 20
162.9427344101
 30
0.0
 11
100.786007827
 21
163.3
 31
0.0
  0
SPLINE
  5
1B7
330
1F
100
AcDbEntity
  8
0
  6
SLD-Сплошная
 62
     7
370
    35
100
AcDbSpline
210
0.0
220
0.0
230
1.0
 70
     8
 71
     3
 72
     9
 73
     5
 74
     0
 42
0.000000001
 43
0.00000001
 40
0.0
 40
0.0
 40
0.0
 40
0.0
 40
0.0701852045454046
 40
1.0
 40
1.0
 40
1.0
 40
1.0
 10
100.7860078270433
 20
163.2999999999997
 30
0.0
 10
100.8396751619239
 20
163.2996432638502
 30
0.0
 10
101.6043282711965
 20
163.2945604810636
 30
0.0
 10
102.3536515958239
 20
163.1122496853329
 30
0.0
 10
103.0503835096417
 20
162.9427344100916
 30
0.0
  0
LINE
  5
1B8
330
1F
100
AcDbEntity
  8
0
  6
SLD-Сплошная
 62
     7
370
    35
100
AcDbLine
 10
103.0503835096
 20
159.4402736289
 30
0.0
 11
103.0503835096
 21
162.9427344101
 31
0.0
  0
LINE
  5
1B9
330
1F
100
AcDbEntity
  8
0
  6
SLD-Сплошная
 62
     7
370
    35
100
AcDbLine
 10
98.5216321444
 20
159.4402736289
 30
0.0
 11
98.5216321444
 21
162.9427344101
 31
0.0
  0
SPLINE
  5
1BA
330
1F
100
AcDbEntity
  8
0
  6
SLD-Сплошная
 62
     7
370
    35
100
AcDbSpline
210
0.0
220
0.0
230
1.0
 70
     8
 71
     3
 72
     9
 73
     5
 74
     0
 42
0.000000001
 43
0.00000001
 40
0.0
 40
0.0
 40
0.0
 40
0.0
 40
0.2210460768286388
 40
1.0
 40
1.0
 40
1.0
 40
1.0
 10
96.99644038962374
 20
163.2999999999997
 30
0.0
 10
97.11050564649726
 20
163.29641774969
 30
0.0
 10
97.62653044327251
 20
163.2802118510778
 30
0.0
 10
98.12969226748497
 20
163.0905062962624
 30
0.0
 10
98.52163214444526
 20
162.9427344100916
 30
0.0
  0
LINE
  5
1BB
330
1F
100
AcDbEntity
  8
0
  6
SLD-Сплошная
 62
     7
370
    35
100
AcDbLine
 10
96.9964403896
 20
163.3
 30
0.0
 11
100.786007827
 21
163.3
 31
0.0
  0
LINE
  5
1BC
330
1F
100
AcDbEntity
  8
0
  6
SLD-Сплошная
 62
     7
370
    35
100
AcDbLine
 10
103.0503835096
 20
162.9427344101
 30
0.0
 11
103.7895674374
 21
163.3
 31
0.0
  0
LINE
  5
1BD
330
1F
100
AcDbEntity
  8
0
  6
SLD-Сплошная
 62
     7
370
    35
100
AcDbLine
 10
103.7895674374
 20
163.3
 30
0.0
 11
100.786007827
 21
163.3
 31
0.0
  0
SPLINE
  5
1BE
330
1F
100
AcDbEntity
  8
0
  6
SLD-Сплошная
 62
     7
370
    35
100
AcDbSpline
210
0.0
220
0.0
230
1.0
 70
     8
 71
     3
 72
    12
 73
     8
 74
     0
 42
0.000000001
 43
0.00000001
 40
0.0
 40
0.0
 40
0.0
 40
0.0
 40
0.2361538550992599
 40
0.4713383997487384
 40
0.7323673701170952
 40
0.9913325952627673
 40
1.0
 40
1.0
 40
1.0
 40
1.0
 10
95.47124863480289
 20
159.440273628881
 30
0.0
 10
95.46768769818864
 20
159.4070795320024
 30
0.0
 10
95.46058044107986
 20
159.3408275857983
 30
0.0
 10
95.4082751866483
 20
159.2502278276808
 30
0.0
 10
95.33288880688778
 20
159.1762383316689
 30
0.0
 10
95.26779636181331
 20
159.1410177898692
 30
0.0
 10
95.23331456836137
 20
159.1281024756386
 30
0.0
 10
95.23219785975945
 20
159.127684207299
 30
0.0
  0
SPLINE
  5
1BF
330
1F
100
AcDbEntity
  8
0
  6
SLD-Сплошная
 62
     7
370
    35
100
AcDbSpline
210
0.0
220
0.0
230
1.0
 70
     8
 71
     3
 72
     9
 73
     5
 74
     0
 42
0.000000001
 43
0.00000001
 40
0.0
 40
0.0
 40
0.0
 40
0.0
 40
0.1972242043131179
 40
0.9999999999999999
 40
0.9999999999999999
 40
0.9999999999999999
 40
0.9999999999999999
 10
95.47124863480289
 20
162.9427344100916
 30
0.0
 10
95.56916245530218
 20
162.9843725670052
 30
0.0
 10
96.06562190783363
 20
163.1954934943707
 30
0.0
 10
96.58194705709361
 20
163.2534632684708
 30
0.0
 10
96.9964403896238
 20
163.2999999999998
 30
0.0
  0
LINE
  5
1C0
330
1F
100
AcDbEntity
  8
0
  6
SLD-Сплошная
 62
     7
370
    35
100
AcDbLine
 10
95.4712486348
 20
159.4402736289
 30
0.0
 11
95.4712486348
 21
162.9427344101
 31
0.0
  0
SPLINE
  5
1C1
330
1F
100
AcDbEntity
  8
0
  6
SLD-Сплошная
 62
     7
370
    35
100
AcDbSpline
210
0.0
220
0.0
230
1.0
 70
     8
 71
     3
 72
    10
 73
     6
 74
     0
 42
0.000000001
 43
0.00000001
 40
0.0
 40
0.0
 40
0.0
 40
0.0
 40
0.2602598142123687
 40
0.6293692668817571
 40
1.0
 40
1.0
 40
1.0
 40
1.0
 10
104.642169202887
 20
159.2079167389968
 30
0.0
 10
104.6249912221202
 20
159.2232510742314
 30
0.0
 10
104.5834508360468
 20
159.2603330930359
 30
0.0
 10
104.5398419229185
 20
159.3413063290131
 30
0.0
 10
104.5324532826986
 20
159.4072393317104
 30
0.0
 10
104.5287513651953
 20
159.440273628881
 30
0.0
  0
LINE
  5
1C2
330
1F
100
AcDbEntity
  8
0
  6
SLD-Сплошная
 62
     7
370
    35
100
AcDbLine
 10
98.4569212502
 20
145.9
 30
0.0
 11
102.055
 21
145.9
 31
0.0
  0
LINE
  5
1C3
330
1F
100
AcDbEntity
  8
0
  6
SLD-Сплошная
 62
     7
370
    35
100
AcDbLine
 10
97.945
 20
145.9
 30
0.0
 11
98.4569212502
 21
145.9
 31
0.0
  0
LINE
  5
1C4
330
1F
100
AcDbEntity
  8
0
  6
SLD-Сплошная
 62
     7
370
    35
100
AcDbLine
 10
98.1227752435
 20
146.345
 30
0.0
 11
102.5
 21
146.345
 31
0.0
  0
LINE
  5
1C5
330
1F
100
AcDbEntity
  8
0
  6
SLD-Сплошная
 62
     7
370
    35
100
AcDbLine
 10
97.5
 20
146.345
 30
0.0
 11
98.1227752435
 21
146.345
 31
0.0
  0
SPLINE
  5
1C6
330
1F
100
AcDbEntity
  8
0
  6
SLD-Сплошная
 62
     7
370
    35
100
AcDbSpline
210
0.0
220
0.0
230
1.0
 70
     8
 71
     3
 72
     9
 73
     5
 74
     0
 42
0.000000001
 43
0.00000001
 40
0.0
 40
0.0
 40
0.0
 40
0.0
 40
0.1199201001172388
 40
1.0
 40
1.0
 40
1.0
 40
1.0
 10
103.7895674374189
 20
163.2999999999997
 30
0.0
 10
103.8070924517138
 20
163.2998494777303
 30
0.0
 10
103.9532315416398
 20
163.2985942897399
 30
0.0
 10
104.0964418048719
 20
163.1936135017246
 30
0.0
 10
104.2224782789993
 20
163.1012220203185
 30
0.0
  0
LINE
  5
1C7
330
1F
100
AcDbEntity
  8
0
  6
SLD-Сплошная
 62
     7
370
    35
100
AcDbLine
 10
104.5287513652
 20
159.4402736289
 30
0.0
 11
104.5287513652
 21
162.9427344101
 31
0.0
  0
LINE
  5
1C8
330
1F
100
AcDbEntity
  8
0
  6
SLD-Сплошная
 62
     7
370
    35
100
AcDbLine
 10
95.777521721
 20
163.1012220203
 30
0.0
 11
95.4712486348
 21
162.9427344101
 31
0.0
  0
LINE
  5
1C9
330
1F
100
AcDbEntity
  8
0
  6
SLD-Сплошная
 62
     7
370
    35
100
AcDbLine
 10
96.9964403896
 20
163.3
 30
0.0
 11
96.0
 21
163.3
 31
0.0
  0
LINE
  5
1CA
330
1F
100
AcDbEntity
  8
0
  6
SLD-Сплошная
 62
     7
370
    35
100
AcDbLine
 10
104.0
 20
163.3
 30
0.0
 11
103.7895674374
 21
163.3
 31
0.0
  0
SPLINE
  5
1CB
330
1F
100
AcDbEntity
  8
0
  6
SLD-Сплошная
 62
     7
370
    35
100
AcDbSpline
210
0.0
220
0.0
230
1.0
 70
     8
 71
     3
 72
    12
 73
     8
 74
     0
 42
0.000000001
 43
0.00000001
 40
0.0
 40
0.0
 40
0.0
 40
0.0
 40
0.2361538550993534
 40
0.4713383997490545
 40
0.732367370116835
 40
0.9913325952639411
 40
1.0
 40
1.0
 40
1.0
 40
1.0
 10
303.0503835096416
 20
159.440273628881
 30
0.0
 10
303.0527820123306
 20
159.4070795320023
 30
0.0
 10
303.0575691728822
 20
159.3408275857981
 30
0.0
 10
303.0927998739564
 20
159.2502278276812
 30
0.0
 10
303.1435770862887
 20
159.1762383316677
 30
0.0
 10
303.1874207211108
 20
159.1410177898713
 30
0.0
 10
303.210646260702
 20
159.1281024756387
 30
0.0
 10
303.2113984303906
 20
159.127684207299
 30
0.0
  0
SPLINE
  5
1CC
330
1F
100
AcDbEntity
  8
0
  6
SLD-Сплошная
 62
     7
370
    35
100
AcDbSpline
210
0.0
220
0.0
230
1.0
 70
     8
 71
     3
 72
    12
 73
     8
 74
     0
 42
0.000000001
 43
0.00000001
 40
0.0
 40
0.0
 40
0.0
 40
0.0
 40
0.2361538550996711
 40
0.47133839974903
 40
0.7323673701176664
 40
0.9913325952639366
 40
0.9999999999999999
 40
0.9999999999999999
 40
0.9999999999999999
 40
0.9999999999999999
 10
298.5216321444454
 20
159.4402736288811
 30
0.0
 10
298.5204697105199
 20
159.4070795320024
 30
0.0
 10
298.5181496139626
 20
159.3408275857984
 30
0.0
 10
298.5010750606051
 20
159.2502278276809
 30
0.0
 10
298.4764658931778
 20
159.1762383316682
 30
0.0
 10
298.455217082924
 20
159.1410177898709
 30
0.0
 10
298.4439608290645
 20
159.1281024756387
 30
0.0
 10
298.4435962901513
 20
159.1276842072991
 30
0.0
  0
LINE
  5
1CD
330
1F
100
AcDbEntity
  8
0
  6
SLD-Сплошная
 62
     7
370
    35
100
AcDbLine
 10
298.5216321444
 20
162.9427344101
 30
0.0
 11
300.786007827
 21
163.3
 31
0.0
  0
SPLINE
  5
1CE
330
1F
100
AcDbEntity
  8
0
  6
SLD-Сплошная
 62
     7
370
    35
100
AcDbSpline
210
0.0
220
0.0
230
1.0
 70
     8
 71
     3
 72
     9
 73
     5
 74
     0
 42
0.000000001
 43
0.00000001
 40
0.0
 40
0.0
 40
0.0
 40
0.0
 40
0.0701852045454295
 40
1.0
 40
1.0
 40
1.0
 40
1.0
 10
300.7860078270434
 20
163.2999999999997
 30
0.0
 10
300.8396751619239
 20
163.2996432638502
 30
0.0
 10
301.6043282711958
 20
163.2945604810636
 30
0.0
 10
302.3536515958235
 20
163.112249685333
 30
0.0
 10
303.0503835096416
 20
162.9427344100916
 30
0.0
  0
LINE
  5
1CF
330
1F
100
AcDbEntity
  8
0
  6
SLD-Сплошная
 62
     7
370
    35
100
AcDbLine
 10
303.0503835096
 20
159.4402736289
 30
0.0
 11
303.0503835096
 21
162.9427344101
 31
0.0
  0
LINE
  5
1D0
330
1F
100
AcDbEntity
  8
0
  6
SLD-Сплошная
 62
     7
370
    35
100
AcDbLine
 10
298.5216321444
 20
159.4402736289
 30
0.0
 11
298.5216321444
 21
162.9427344101
 31
0.0
  0
SPLINE
  5
1D1
330
1F
100
AcDbEntity
  8
0
  6
SLD-Сплошная
 62
     7
370
    35
100
AcDbSpline
210
0.0
220
0.0
230
1.0
 70
     8
 71
     3
 72
     9
 73
     5
 74
     0
 42
0.000000001
 43
0.00000001
 40
0.0
 40
0.0
 40
0.0
 40
0.0
 40
0.2210460768286266
 40
1.0
 40
1.0
 40
1.0
 40
1.0
 10
296.9964403896238
 20
163.2999999999997
 30
0.0
 10
297.1105056464972
 20
163.2964177496901
 30
0.0
 10
297.6265304432727
 20
163.2802118510779
 30
0.0
 10
298.129692267485
 20
163.0905062962624
 30
0.0
 10
298.5216321444453
 20
162.9427344100916
 30
0.0
  0
LINE
  5
1D2
330
1F
100
AcDbEntity
  8
0
  6
SLD-Сплошная
 62
     7
370
    35
100
AcDbLine
 10
296.9964403896
 20
163.3
 30
0.0
 11
300.786007827
 21
163.3
 31
0.0
  0
LINE
  5
1D3
330
1F
100
AcDbEntity
  8
0
  6
SLD-Сплошная
 62
     7
370
    35
100
AcDbLine
 10
303.0503835096
 20
162.9427344101
 30
0.0
 11
303.7895674374
 21
163.3
 31
0.0
  0
LINE
  5
1D4
330
1F
100
AcDbEntity
  8
0
  6
SLD-Сплошная
 62
     7
370
    35
100
AcDbLine
 10
303.7895674374
 20
163.3
 30
0.0
 11
300.786007827
 21
163.3
 31
0.0
  0
SPLINE
  5
1D5
330
1F
100
AcDbEntity
  8
0
  6
SLD-Сплошная
 62
     7
370
    35
100
AcDbSpline
210
0.0
220
0.0
230
1.0
 70
     8
 71
     3
 72
    12
 73
     8
 74
     0
 42
0.000000001
 43
0.00000001
 40
0.0
 40
0.0
 40
0.0
 40
0.0
 40
0.2361538550992886
 40
0.4713383997487957
 40
0.7323673701171841
 40
0.9913325952628878
 40
1.0
 40
1.0
 40
1.0
 40
1.0
 10
295.471248634803
 20
159.4402736288811
 30
0.0
 10
295.4676876981886
 20
159.4070795320023
 30
0.0
 10
295.4605804410798
 20
159.3408275857983
 30
0.0
 10
295.4082751866484
 20
159.2502278276807
 30
0.0
 10
295.3328888068866
 20
159.176238331669
 30
0.0
 10
295.2677963618164
 20
159.1410177898694
 30
0.0
 10
295.2333145683613
 20
159.1281024756386
 30
0.0
 10
295.2321978597595
 20
159.127684207299
 30
0.0
  0
SPLINE
  5
1D6
330
1F
100
AcDbEntity
  8
0
  6
SLD-Сплошная
 62
     7
370
    35
100
AcDbSpline
210
0.0
220
0.0
230
1.0
 70
     8
 71
     3
 72
     9
 73
     5
 74
     0
 42
0.000000001
 43
0.00000001
 40
0.0
 40
0.0
 40
0.0
 40
0.0
 40
0.19722420431313
 40
1.0
 40
1.0
 40
1.0
 40
1.0
 10
295.4712486348029
 20
162.9427344100916
 30
0.0
 10
295.5691624553023
 20
162.9843725670052
 30
0.0
 10
296.065621907834
 20
163.195493494371
 30
0.0
 10
296.5819470570936
 20
163.2534632684709
 30
0.0
 10
296.9964403896238
 20
163.2999999999997
 30
0.0
  0
LINE
  5
1D7
330
1F
100
AcDbEntity
  8
0
  6
SLD-Сплошная
 62
     7
370
    35
100
AcDbLine
 10
295.4712486348
 20
159.4402736289
 30
0.0
 11
295.4712486348
 21
162.9427344101
 31
0.0
  0
SPLINE
  5
1D8
330
1F
100
AcDbEntity
  8
0
  6
SLD-Сплошная
 62
     7
370
    35
100
AcDbSpline
210
0.0
220
0.0
230
1.0
 70
     8
 71
     3
 72
    10
 73
     6
 74
     0
 42
0.000000001
 43
0.00000001
 40
0.0
 40
0.0
 40
0.0
 40
0.0
 40
0.2602598142126783
 40
0.629369266881876
 40
1.0
 40
1.0
 40
1.0
 40
1.0
 10
304.6421692028872
 20
159.2079167389967
 30
0.0
 10
304.6249912221202
 20
159.2232510742313
 30
0.0
 10
304.5834508360467
 20
159.2603330930359
 30
0.0
 10
304.5398419229187
 20
159.341306329013
 30
0.0
 10
304.5324532826984
 20
159.4072393317104
 30
0.0
 10
304.5287513651954
 20
159.4402736288811
 30
0.0
  0
LINE
  5
1D9
330
1F
100
AcDbEntity
  8
0
  6
SLD-Сплошная
 62
     7
370
    35
100
AcDbLine
 10
298.4569212502
 20
145.9
 30
0.0
 11
302.055
 21
145.9
 31
0.0
  0
LINE
  5
1DA
330
1F
100
AcDbEntity
  8
0
  6
SLD-Сплошная
 62
     7
370
    35
100
AcDbLine
 10
297.945
 20
145.9
 30
0.0
 11
298.4569212502
 21
145.9
 31
0.0
  0
LINE
  5
1DB
330
1F
100
AcDbEntity
  8
0
  6
SLD-Сплошная
 62
     7
370
    35
100
AcDbLine
 10
298.1227752435
 20
146.345
 30
0.0
 11
302.5
 21
146.345
 31
0.0
  0
LINE
  5
1DC
330
1F
100
AcDbEntity
  8
0
  6
SLD-Сплошная
 62
     7
370
    35
100
AcDbLine
 10
297.5
 20
146.345
 30
0.0
 11
298.1227752435
 21
146.345
 31
0.0
  0
SPLINE
  5
1DD
330
1F
100
AcDbEntity
  8
0
  6
SLD-Сплошная
 62
     7
370
    35
100
AcDbSpline
210
0.0
220
0.0
230
1.0
 70
     8
 71
     3
 72
     9
 73
     5
 74
     0
 42
0.000000001
 43
0.00000001
 40
0.0
 40
0.0
 40
0.0
 40
0.0
 40
0.1199201001172648
 40
1.0
 40
1.0
 40
1.0
 40
1.0
 10
303.7895674374189
 20
163.2999999999998
 30
0.0
 10
303.8070924517139
 20
163.2998494777303
 30
0.0
 10
303.9532315416399
 20
163.2985942897398
 30
0.0
 10
304.0964418048719
 20
163.1936135017246
 30
0.0
 10
304.2224782789993
 20
163.1012220203185
 30
0.0
  0
LINE
  5
1DE
330
1F
100
AcDbEntity
  8
0
  6
SLD-Сплошная
 62
     7
370
    35
100
AcDbLine
 10
304.5287513652
 20
159.4402736289
 30
0.0
 11
304.5287513652
 21
162.9427344101
 31
0.0
  0
LINE
  5
1DF
330
1F
100
AcDbEntity
  8
0
  6
SLD-Сплошная
 62
     7
370
    35
100
AcDbLine
 10
295.777521721
 20
163.1012220203
 30
0.0
 11
295.4712486348
 21
162.9427344101
 31
0.0
  0
LINE
  5
1E0
330
1F
100
AcDbEntity
  8
0
  6
SLD-Сплошная
 62
     7
370
    35
100
AcDbLine
 10
296.9964403896
 20
163.3
 30
0.0
 11
296.0
 21
163.3
 31
0.0
  0
LINE
  5
1E1
330
1F
100
AcDbEntity
  8
0
  6
SLD-Сплошная
 62
     7
370
    35
100
AcDbLine
 10
304.0
 20
163.3
 30
0.0
 11
303.7895674374
 21
163.3
 31
0.0
  0
SPLINE
  5
1E2
330
1F
100
AcDbEntity
  8
0
  6
SLD-Сплошная
 62
     7
370
    35
100
AcDbSpline
210
0.0
220
0.0
230
1.0
 70
     8
 71
     3
 72
    12
 73
     8
 74
     0
 42
0.000000001
 43
0.00000001
 40
0.0
 40
0.0
 40
0.0
 40
0.0
 40
0.2361538550993598
 40
0.4713383997491213
 40
0.7323673701168747
 40
0.9913325952639814
 40
0.9999999999999999
 40
0.9999999999999999
 40
0.9999999999999999
 40
0.9999999999999999
 10
-296.9496164903583
 20
159.440273628881
 30
0.0
 10
-296.9472179876694
 20
159.4070795320023
 30
0.0
 10
-296.9424308271179
 20
159.3408275857982
 30
0.0
 10
-296.9072001260436
 20
159.2502278276812
 30
0.0
 10
-296.8564229137108
 20
159.1762383316676
 30
0.0
 10
-296.8125792788897
 20
159.1410177898717
 30
0.0
 10
-296.789353739298
 20
159.1281024756386
 30
0.0
 10
-296.7886015696095
 20
159.127684207299
 30
0.0
  0
SPLINE
  5
1E3
330
1F
100
AcDbEntity
  8
0
  6
SLD-Сплошная
 62
     7
370
    35
100
AcDbSpline
210
0.0
220
0.0
230
1.0
 70
     8
 71
     3
 72
    12
 73
     8
 74
     0
 42
0.000000001
 43
0.00000001
 40
0.0
 40
0.0
 40
0.0
 40
0.0
 40
0.2361538550996667
 40
0.4713383997490231
 40
0.7323673701176414
 40
0.9913325952639368
 40
1.0
 40
1.0
 40
1.0
 40
1.0
 10
-301.4783678555547
 20
159.440273628881
 30
0.0
 10
-301.4795302894802
 20
159.4070795320023
 30
0.0
 10
-301.4818503860375
 20
159.3408275857983
 30
0.0
 10
-301.4989249393948
 20
159.250227827681
 30
0.0
 10
-301.523534106823
 20
159.176238331668
 30
0.0
 10
-301.5447829170744
 20
159.1410177898713
 30
0.0
 10
-301.5560391709357
 20
159.1281024756387
 30
0.0
 10
-301.5564037098488
 20
159.1276842072991
 30
0.0
  0
LINE
  5
1E4
330
1F
100
AcDbEntity
  8
0
  6
SLD-Сплошная
 62
     7
370
    35
100
AcDbLine
 10
-301.4783678556
 20
162.9427344101
 30
0.0
 11
-299.213992173
 21
163.3
 31
0.0
  0
SPLINE
  5
1E5
330
1F
100
AcDbEntity
  8
0
  6
SLD-Сплошная
 62
     7
370
    35
100
AcDbSpline
210
0.0
220
0.0
230
1.0
 70
     8
 71
     3
 72
     9
 73
     5
 74
     0
 42
0.000000001
 43
0.00000001
 40
0.0
 40
0.0
 40
0.0
 40
0.0
 40
0.0701852045454054
 40
1.0
 40
1.0
 40
1.0
 40
1.0
 10
-299.2139921729566
 20
163.2999999999997
 30
0.0
 10
-299.1603248380761
 20
163.2996432638502
 30
0.0
 10
-298.3956717288034
 20
163.2945604810638
 30
0.0
 10
-297.6463484041761
 20
163.1122496853331
 30
0.0
 10
-296.9496164903583
 20
162.9427344100916
 30
0.0
  0
LINE
  5
1E6
330
1F
100
AcDbEntity
  8
0
  6
SLD-Сплошная
 62
     7
370
    35
100
AcDbLine
 10
-296.9496164904
 20
159.4402736289
 30
0.0
 11
-296.9496164904
 21
162.9427344101
 31
0.0
  0
LINE
  5
1E7
330
1F
100
AcDbEntity
  8
0
  6
SLD-Сплошная
 62
     7
370
    35
100
AcDbLine
 10
-301.4783678556
 20
159.4402736289
 30
0.0
 11
-301.4783678556
 21
162.9427344101
 31
0.0
  0
SPLINE
  5
1E8
330
1F
100
AcDbEntity
  8
0
  6
SLD-Сплошная
 62
     7
370
    35
100
AcDbSpline
210
0.0
220
0.0
230
1.0
 70
     8
 71
     3
 72
     9
 73
     5
 74
     0
 42
0.000000001
 43
0.00000001
 40
0.0
 40
0.0
 40
0.0
 40
0.0
 40
0.2210460768286305
 40
1.0
 40
1.0
 40
1.0
 40
1.0
 10
-303.0035596103762
 20
163.2999999999997
 30
0.0
 10
-302.8894943535028
 20
163.29641774969
 30
0.0
 10
-302.3734695567275
 20
163.2802118510779
 30
0.0
 10
-301.8703077325151
 20
163.0905062962624
 30
0.0
 10
-301.4783678555547
 20
162.9427344100916
 30
0.0
  0
LINE
  5
1E9
330
1F
100
AcDbEntity
  8
0
  6
SLD-Сплошная
 62
     7
370
    35
100
AcDbLine
 10
-303.0035596104
 20
163.3
 30
0.0
 11
-299.213992173
 21
163.3
 31
0.0
  0
LINE
  5
1EA
330
1F
100
AcDbEntity
  8
0
  6
SLD-Сплошная
 62
     7
370
    35
100
AcDbLine
 10
-296.9496164904
 20
162.9427344101
 30
0.0
 11
-296.2104325626
 21
163.3
 31
0.0
  0
LINE
  5
1EB
330
1F
100
AcDbEntity
  8
0
  6
SLD-Сплошная
 62
     7
370
    35
100
AcDbLine
 10
-296.2104325626
 20
163.3
 30
0.0
 11
-299.213992173
 21
163.3
 31
0.0
  0
SPLINE
  5
1EC
330
1F
100
AcDbEntity
  8
0
  6
SLD-Сплошная
 62
     7
370
    35
100
AcDbSpline
210
0.0
220
0.0
230
1.0
 70
     8
 71
     3
 72
    12
 73
     8
 74
     0
 42
0.000000001
 43
0.00000001
 40
0.0
 40
0.0
 40
0.0
 40
0.0
 40
0.2361538550992731
 40
0.4713383997487647
 40
0.7323673701171126
 40
0.9913325952628278
 40
1.0
 40
1.0
 40
1.0
 40
1.0
 10
-304.5287513651971
 20
159.440273628881
 30
0.0
 10
-304.5323123018114
 20
159.4070795320022
 30
0.0
 10
-304.5394195589201
 20
159.3408275857981
 30
0.0
 10
-304.5917248133515
 20
159.250227827681
 30
0.0
 10
-304.6671111931131
 20
159.1762383316688
 30
0.0
 10
-304.7322036381846
 20
159.1410177898693
 30
0.0
 10
-304.7666854316387
 20
159.1281024756387
 30
0.0
 10
-304.7678021402405
 20
159.127684207299
 30
0.0
  0
SPLINE
  5
1ED
330
1F
100
AcDbEntity
  8
0
  6
SLD-Сплошная
 62
     7
370
    35
100
AcDbSpline
210
0.0
220
0.0
230
1.0
 70
     8
 71
     3
 72
     9
 73
     5
 74
     0
 42
0.000000001
 43
0.00000001
 40
0.0
 40
0.0
 40
0.0
 40
0.0
 40
0.1972242043131239
 40
1.0
 40
1.0
 40
1.0
 40
1.0
 10
-304.5287513651971
 20
162.9427344100916
 30
0.0
 10
-304.4308375446978
 20
162.984372567005
 30
0.0
 10
-303.9343780921662
 20
163.1954934943709
 30
0.0
 10
-303.4180529429063
 20
163.2534632684709
 30
0.0
 10
-303.0035596103762
 20
163.2999999999998
 30
0.0
  0
LINE
  5
1EE
330
1F
100
AcDbEntity
  8
0
  6
SLD-Сплошная
 62
     7
370
    35
100
AcDbLine
 10
-304.5287513652
 20
159.4402736289
 30
0.0
 11
-304.5287513652
 21
162.9427344101
 31
0.0
  0
SPLINE
  5
1EF
330
1F
100
AcDbEntity
  8
0
  6
SLD-Сплошная
 62
     7
370
    35
100
AcDbSpline
210
0.0
220
0.0
230
1.0
 70
     8
 71
     3
 72
    10
 73
     6
 74
     0
 42
0.000000001
 43
0.00000001
 40
0.0
 40
0.0
 40
0.0
 40
0.0
 40
0.2602598142124198
 40
0.6293692668817522
 40
1.0
 40
1.0
 40
1.0
 40
1.0
 10
-295.3578307971129
 20
159.2079167389968
 30
0.0
 10
-295.3750087778798
 20
159.2232510742314
 30
0.0
 10
-295.4165491639533
 20
159.2603330930358
 30
0.0
 10
-295.4601580770812
 20
159.3413063290131
 30
0.0
 10
-295.4675467173014
 20
159.4072393317104
 30
0.0
 10
-295.4712486348046
 20
159.440273628881
 30
0.0
  0
LINE
  5
1F0
330
1F
100
AcDbEntity
  8
0
  6
SLD-Сплошная
 62
     7
370
    35
100
AcDbLine
 10
-301.5430787498
 20
145.9
 30
0.0
 11
-297.945
 21
145.9
 31
0.0
  0
LINE
  5
1F1
330
1F
100
AcDbEntity
  8
0
  6
SLD-Сплошная
 62
     7
370
    35
100
AcDbLine
 10
-302.055
 20
145.9
 30
0.0
 11
-301.5430787498
 21
145.9
 31
0.0
  0
LINE
  5
1F2
330
1F
100
AcDbEntity
  8
0
  6
SLD-Сплошная
 62
     7
370
    35
100
AcDbLine
 10
-301.8772247565
 20
146.345
 30
0.0
 11
-297.5
 21
146.345
 31
0.0
  0
LINE
  5
1F3
330
1F
100
AcDbEntity
  8
0
  6
SLD-Сплошная
 62
     7
370
    35
100
AcDbLine
 10
-302.5
 20
146.345
 30
0.0
 11
-301.8772247565
 21
146.345
 31
0.0
  0
SPLINE
  5
1F4
330
1F
100
AcDbEntity
  8
0
  6
SLD-Сплошная
 62
     7
370
    35
100
AcDbSpline
210
0.0
220
0.0
230
1.0
 70
     8
 71
     3
 72
     9
 73
     5
 74
     0
 42
0.000000001
 43
0.00000001
 40
0.0
 40
0.0
 40
0.0
 40
0.0
 40
0.11992010011726
 40
1.0
 40
1.0
 40
1.0
 40
1.0
 10
-296.2104325625812
 20
163.2999999999997
 30
0.0
 10
-296.1929075482862
 20
163.2998494777302
 30
0.0
 10
-296.0467684583597
 20
163.2985942897403
 30
0.0
 10
-295.9035581951279
 20
163.1936135017248
 30
0.0
 10
-295.7775217210007
 20
163.1012220203185
 30
0.0
  0
LINE
  5
1F5
330
1F
100
AcDbEntity
  8
0
  6
SLD-Сплошная
 62
     7
370
    35
100
AcDbLine
 10
-295.4712486348
 20
159.4402736289
 30
0.0
 11
-295.4712486348
 21
162.9427344101
 31
0.0
  0
LINE
  5
1F6
330
1F
100
AcDbEntity
  8
0
  6
SLD-Сплошная
 62
     7
370
    35
100
AcDbLine
 10
-304.222478279
 20
163.1012220203
 30
0.0
 11
-304.5287513652
 21
162.9427344101
 31
0.0
  0
LINE
  5
1F7
330
1F
100
AcDbEntity
  8
0
  6
SLD-Сплошная
 62
     7
370
    35
100
AcDbLine
 10
-303.0035596104
 20
163.3
 30
0.0
 11
-304.0
 21
163.3
 31
0.0
  0
LINE
  5
1F8
330
1F
100
AcDbEntity
  8
0
  6
SLD-Сплошная
 62
     7
370
    35
100
AcDbLine
 10
-296.0
 20
163.3
 30
0.0
 11
-296.2104325626
 21
163.3
 31
0.0
  0
LINE
  5
1F9
330
1F
100
AcDbEntity
  8
0
  6
SLD-Сплошная
 62
     7
370
    35
100
AcDbLine
 10
737.4090914783
 20
156.7
 30
0.0
 11
737.4090914783
 21
155.5
 31
0.0
  0
LINE
  5
1FA
330
1F
100
AcDbEntity
  8
0
  6
SLD-Сплошная
 62
     7
370
    35
100
AcDbLine
 10
737.4090914783
 20
155.5
 30
0.0
 11
732.4090914783
 21
155.5
 31
0.0
  0
LINE
  5
1FB
330
1F
100
AcDbEntity
  8
0
  6
SLD-Сплошная
 62
     7
370
    35
100
AcDbLine
 10
-732.4090914783
 20
155.5
 30
0.0
 11
-737.4090914783
 21
155.5
 31
0.0
  0
LINE
  5
1FC
330
1F
100
AcDbEntity
  8
0
  6
SLD-Сплошная
 62
     7
370
    35
100
AcDbLine
 10
-737.4090914783
 20
155.5
 30
0.0
 11
-737.4090914783
 21
156.7
 31
0.0
  0
LINE
  5
1FD
330
1F
100
AcDbEntity
  8
0
  6
SLD-Сплошная
 62
     7
370
    35
100
AcDbLine
 10
732.4090914783
 20
155.5
 30
0.0
 11
-732.4090914783
 21
155.5
 31
0.0
  0
LINE
  5
1FE
330
1F
100
AcDbEntity
  8
0
  6
SLD-Сплошная
 62
     7
370
    35
100
AcDbLine
 10
732.4090914783
 20
156.7
 30
0.0
 11
-732.4090914783
 21
156.7
 31
0.0
  0
CIRCLE
  5
1FF
330
1F
100
AcDbEntity
  8
0
  6
SLD-Сплошная
 62
     7
370
    35
100
AcDbCircle
 10
0.0
 20
-644.1
 30
0.0
 40
2.049999999999841
  0
LINE
  5
200
330
1F
100
AcDbEntity
  8
0
  6
SLD-Сплошная
 62
     7
370
    35
100
AcDbLine
 10
737.4090914783
 20
154.5
 30
0.0
 11
737.4090914783
 21
155.5
 31
0.0
  0
LINE
  5
201
330
1F
100
AcDbEntity
  8
0
  6
SLD-Сплошная
 62
     7
370
    35
100
AcDbLine
 10
-737.4090914783
 20
155.5
 30
0.0
 11
-737.4090914783
 21
154.5
 31
0.0
  0
ARC
  5
202
330
1F
100
AcDbEntity
  8
0
  6
SLD-Сплошная
 62
     7
370
    35
100
AcDbCircle
 10
-850.0
 20
-442.1
 30
0.0
 40
599.0355266391966
100
AcDbArc
 50
0.3778202113
 51
78.7742330987
  0
ARC
  5
203
330
1F
100
AcDbEntity
  8
0
  6
SLD-Сплошная
 62
     7
370
    35
100
AcDbCircle
 10
-732.4090914783
 20
150.3789411239
 30
0.0
 40
5.0
100
AcDbArc
 50
180.0
 51
258.7742330987
  0
LINE
  5
204
330
1F
100
AcDbEntity
  8
0
  6
SLD-Сплошная
 62
     7
370
    35
100
AcDbLine
 10
-737.4090914783
 20
154.5
 30
0.0
 11
-737.4090914783
 21
150.3789411239
 31
0.0
  0
LINE
  5
205
330
1F
100
AcDbEntity
  8
0
  6
SLD-Сплошная
 62
     7
370
    35
100
AcDbLine
 10
737.4090914783
 20
150.3789411239
 30
0.0
 11
737.4090914783
 21
154.5
 31
0.0
  0
ARC
  5
206
330
1F
100
AcDbEntity
  8
0
  6
SLD-Сплошная
 62
     7
370
    35
100
AcDbCircle
 10
732.4090914783
 20
150.3789411239
 30
0.0
 40
4.999999999999992
100
AcDbArc
 50
281.2257669013
 51
0.0
  0
ARC
  5
207
330
1F
100
AcDbEntity
  8
0
  6
SLD-Сплошная
 62
     7
370
    35
100
AcDbCircle
 10
850.0
 20
-442.1
 30
0.0
 40
599.0355266391967
100
AcDbArc
 50
101.2257669013
 51
179.6221797887
  0
ARC
  5
208
330
1F
100
AcDbEntity
  8
0
  6
SLD-Сплошная
 62
     7
370
    35
100
AcDbCircle
 10
245.9776061212
 20
-438.1168937697
 30
0.0
 40
5.000000000000036
100
AcDbArc
 50
312.6287966705
 51
359.6221797887
  0
ARC
  5
209
330
1F
100
AcDbEntity
  8
0
  6
SLD-Сплошная
 62
     7
370
    35
100
AcDbCircle
 10
250.5
 20
-444.3
 30
0.0
 40
2.750000000000054
100
AcDbArc
 50
114.4029164586
 51
236.9442688491
  0
LINE
  5
20A
330
1F
100
AcDbEntity
  8
0
  6
SLD-Сплошная
 62
     7
370
    35
100
AcDbLine
 10
249.0
 20
-446.6048861143
 30
0.0
 11
249.0
 21
-447.1
 31
0.0
  0
LINE
  5
20B
330
1F
100
AcDbEntity
  8
0
  6
SLD-Сплошная
 62
     7
370
    35
100
AcDbLine
 10
249.0
 20
-654.1
 30
0.0
 11
249.0
 21
-629.1
 31
0.0
  0
ARC
  5
20C
330
1F
100
AcDbEntity
  8
0
  6
SLD-Сплошная
 62
     7
370
    35
100
AcDbCircle
 10
244.0
 20
-654.1
 30
0.0
 40
5.0
100
AcDbArc
 50
270.0
 51
0.0
  0
LINE
  5
20D
330
1F
100
AcDbEntity
  8
0
  6
SLD-Сплошная
 62
     7
370
    35
100
AcDbLine
 10
-244.0
 20
-659.1
 30
0.0
 11
244.0
 21
-659.1
 31
0.0
  0
ARC
  5
20E
330
1F
100
AcDbEntity
  8
0
  6
SLD-Сплошная
 62
     7
370
    35
100
AcDbCircle
 10
-244.0
 20
-654.1
 30
0.0
 40
5.0
100
AcDbArc
 50
180.0
 51
270.0
  0
LINE
  5
20F
330
1F
100
AcDbEntity
  8
0
  6
SLD-Сплошная
 62
     7
370
    35
100
AcDbLine
 10
-249.0
 20
-654.1
 30
0.0
 11
-249.0
 21
-629.1
 31
0.0
  0
LINE
  5
210
330
1F
100
AcDbEntity
  8
0
  6
SLD-Сплошная
 62
     7
370
    35
100
AcDbLine
 10
-249.0
 20
-446.6048861143
 30
0.0
 11
-249.0
 21
-447.1
 31
0.0
  0
ARC
  5
211
330
1F
100
AcDbEntity
  8
0
  6
SLD-Сплошная
 62
     7
370
    35
100
AcDbCircle
 10
-250.5
 20
-444.3
 30
0.0
 40
2.74999999999999
100
AcDbArc
 50
303.0557311509
 51
65.597083542
  0
ARC
  5
212
330
1F
100
AcDbEntity
  8
0
  6
SLD-Сплошная
 62
     7
370
    35
100
AcDbCircle
 10
-245.9776061212
 20
-438.1168937698
 30
0.0
 40
5.000000000000035
100
AcDbArc
 50
180.3778202113
 51
227.3712033291
  0
LINE
  5
213
330
1F
100
AcDbEntity
  8
0
  6
SLD-Сплошная
 62
     7
370
    35
100
AcDbLine
 10
-249.0
 20
-629.1
 30
0.0
 11
-251.2
 21
-629.1
 31
0.0
  0
LINE
  5
214
330
1F
100
AcDbEntity
  8
0
  6
SLD-Сплошная
 62
     7
370
    35
100
AcDbLine
 10
-251.2
 20
-629.1
 30
0.0
 11
-251.2
 21
-447.1
 31
0.0
  0
LINE
  5
215
330
1F
100
AcDbEntity
  8
0
  6
SLD-Сплошная
 62
     7
370
    35
100
AcDbLine
 10
-251.2
 20
-447.1
 30
0.0
 11
-249.0
 21
-447.1
 31
0.0
  0
LINE
  5
216
330
1F
100
AcDbEntity
  8
0
  6
SLD-Сплошная
 62
     7
370
    35
100
AcDbLine
 10
251.2
 20
-629.1
 30
0.0
 11
251.2
 21
-447.1
 31
0.0
  0
LINE
  5
217
330
1F
100
AcDbEntity
  8
0
  6
SLD-Сплошная
 62
     7
370
    35
100
AcDbLine
 10
249.0
 20
-447.1
 30
0.0
 11
251.2
 21
-447.1
 31
0.0
  0
LINE
  5
218
330
1F
100
AcDbEntity
  8
0
  6
SLD-Сплошная
 62
     7
370
    35
100
AcDbLine
 10
251.2
 20
-629.1
 30
0.0
 11
249.0
 21
-629.1
 31
0.0
  0
ARC
  5
219
330
1F
100
AcDbEntity
  8
0
  6
SLD-Сплошная
 62
     7
370
    35
100
AcDbCircle
 10
1199.9577386319
 20
399.1544155877
 30
0.0
 40
0.2999999999999545
100
AcDbArc
 50
0.0
 51
45.0
  0
ARC
  5
21A
330
1F
100
AcDbEntity
  8
0
  6
SLD-Сплошная
 62
     7
370
    35
100
AcDbCircle
 10
1199.9577386319
 20
416.6455844123
 30
0.0
 40
0.2999999999999545
100
AcDbArc
 50
315.0
 51
0.0
  0
LINE
  5
21B
330
1F
100
AcDbEntity
  8
0
  6
SLD-Сплошная
 62
     7
370
    35
100
AcDbLine
 10
1200.1698706662
 20
399.3665476221
 30
0.0
 11
1199.6970784601
 21
399.8393398282
 31
0.0
  0
LINE
  5
21C
330
1F
100
AcDbEntity
  8
0
  6
SLD-Сплошная
 62
     7
370
    35
100
AcDbLine
 10
1199.6970784601
 20
415.9606601718
 30
0.0
 11
1200.1698706662
 21
416.4334523779
 31
0.0
  0
ARC
  5
21D
330
1F
100
AcDbEntity
  8
0
  6
SLD-Сплошная
 62
     7
370
    35
100
AcDbCircle
 10
1200.7577386319
 20
414.9
 30
0.0
 40
1.500000000000093
100
AcDbArc
 50
135.0
 51
180.0
  0
ARC
  5
21E
330
1F
100
AcDbEntity
  8
0
  6
SLD-Сплошная
 62
     7
370
    35
100
AcDbCircle
 10
1200.7577386319
 20
400.9
 30
0.0
 40
1.500000000000052
100
AcDbArc
 50
180.0
 51
225.0
  0
LINE
  5
21F
330
1F
100
AcDbEntity
  8
0
  6
SLD-Сплошная
 62
     7
370
    35
100
AcDbLine
 10
1201.4577386319
 20
411.15
 30
0.0
 11
1202.057738632
 21
411.15
 31
0.0
  0
LINE
  5
220
330
1F
100
AcDbEntity
  8
0
  6
SLD-Сплошная
 62
     7
370
    35
100
AcDbLine
 10
1202.057738632
 20
404.65
 30
0.0
 11
1201.4577386319
 21
404.65
 31
0.0
  0
ARC
  5
221
330
1F
100
AcDbEntity
  8
0
  6
SLD-Сплошная
 62
     7
370
    35
100
AcDbCircle
 10
1187.0732842339
 20
154.9844543979
 30
0.0
 40
0.5155456020629134
100
AcDbArc
 50
90.0
 51
250.0
  0
ARC
  5
222
330
1F
100
AcDbEntity
  8
0
  6
SLD-Сплошная
 62
     7
370
    35
100
AcDbCircle
 10
1197.8421930298
 20
154.9844543979
 30
0.0
 40
0.5155456020629003
100
AcDbArc
 50
290.0
 51
90.0
  0
LINE
  5
223
330
1F
100
AcDbEntity
  8
0
  6
SLD-Сплошная
 62
     7
370
    35
100
AcDbLine
 10
1198.0185200105
 20
154.5
 30
0.0
 11
1197.3203449039
 21
154.2458850429
 31
0.0
  0
LINE
  5
224
330
1F
100
AcDbEntity
  8
0
  6
SLD-Сплошная
 62
     7
370
    35
100
AcDbLine
 10
1187.5951323599
 20
154.2458850429
 30
0.0
 11
1186.8969572532
 21
154.5
 31
0.0
  0
LINE
  5
225
330
1F
100
AcDbEntity
  8
0
  6
SLD-Сплошная
 62
     7
370
    35
100
AcDbLine
 10
1197.0765407854
 20
150.75
 30
0.0
 11
1196.4577386319
 21
150.5
 31
0.0
  0
LINE
  5
226
330
1F
100
AcDbEntity
  8
0
  6
SLD-Сплошная
 62
     7
370
    35
100
AcDbLine
 10
1188.4577386319
 20
150.5
 30
0.0
 11
1187.8389364784
 21
150.75
 31
0.0
  0
ARC
  5
227
330
1F
100
AcDbEntity
  8
0
  6
SLD-Сплошная
 62
     7
370
    35
100
AcDbCircle
 10
1197.8577386319
 20
158.4
 30
0.0
 40
0.5000000000000315
100
AcDbArc
 50
270.0000000001
 51
70.0
  0
ARC
  5
228
330
1F
100
AcDbEntity
  8
0
  6
SLD-Сплошная
 62
     7
370
    35
100
AcDbCircle
 10
1187.0577386319
 20
158.4
 30
0.0
 40
0.5000000000000284
100
AcDbArc
 50
110.0
 51
270.0
  0
LINE
  5
229
330
1F
100
AcDbEntity
  8
0
  6
SLD-Сплошная
 62
     7
370
    35
100
AcDbLine
 10
1186.8867285602
 20
158.8698463104
 30
0.0
 11
1188.0366487813
 21
159.2883830426
 31
0.0
  0
LINE
  5
22A
330
1F
100
AcDbEntity
  8
0
  6
SLD-Сплошная
 62
     7
370
    35
100
AcDbLine
 10
1196.7465510227
 20
159.3365281007
 30
0.0
 11
1198.0287487035
 21
158.8698463104
 31
0.0
  0
LINE
  5
22B
330
1F
100
AcDbEntity
  8
0
  6
SLD-Сплошная
 62
     7
370
    35
100
AcDbLine
 10
1194.9577386319
 20
150.5
 30
0.0
 11
1194.9577386319
 21
146.345
 31
0.0
  0
LINE
  5
22C
330
1F
100
AcDbEntity
  8
0
  6
SLD-Сплошная
 62
     7
370
    35
100
AcDbLine
 10
1189.9577386319
 20
146.345
 30
0.0
 11
1189.9577386319
 21
150.5
 31
0.0
  0
LINE
  5
22D
330
1F
100
AcDbEntity
  8
0
  6
SLD-Сплошная
 62
     7
370
    35
100
AcDbLine
 10
1194.9577386319
 20
146.345
 30
0.0
 11
1194.5127386319
 21
145.9
 31
0.0
  0
LINE
  5
22E
330
1F
100
AcDbEntity
  8
0
  6
SLD-Сплошная
 62
     7
370
    35
100
AcDbLine
 10
1190.4027386319
 20
145.9
 30
0.0
 11
1189.9577386319
 21
146.345
 31
0.0
  0
ARC
  5
22F
330
1F
100
AcDbEntity
  8
0
  6
SLD-Сплошная
 62
     7
370
    35
100
AcDbCircle
 10
1199.9577386319
 20
-652.8455844123
 30
0.0
 40
0.3000000000000346
100
AcDbArc
 50
0.0
 51
45.0
  0
ARC
  5
230
330
1F
100
AcDbEntity
  8
0
  6
SLD-Сплошная
 62
     7
370
    35
100
AcDbCircle
 10
1199.9577386319
 20
-635.3544155877
 30
0.0
 40
0.3000000000000346
100
AcDbArc
 50
315.0
 51
0.0
  0
LINE
  5
231
330
1F
100
AcDbEntity
  8
0
  6
SLD-Сплошная
 62
     7
370
    35
100
AcDbLine
 10
1200.1698706662
 20
-652.6334523779
 30
0.0
 11
1199.6970784601
 21
-652.1606601718
 31
0.0
  0
LINE
  5
232
330
1F
100
AcDbEntity
  8
0
  6
SLD-Сплошная
 62
     7
370
    35
100
AcDbLine
 10
1199.6970784601
 20
-636.0393398282
 30
0.0
 11
1200.1698706662
 21
-635.5665476221
 31
0.0
  0
ARC
  5
233
330
1F
100
AcDbEntity
  8
0
  6
SLD-Сплошная
 62
     7
370
    35
100
AcDbCircle
 10
1200.7577386319
 20
-637.1
 30
0.0
 40
1.499999999999932
100
AcDbArc
 50
135.0
 51
180.0
  0
ARC
  5
234
330
1F
100
AcDbEntity
  8
0
  6
SLD-Сплошная
 62
     7
370
    35
100
AcDbCircle
 10
1200.7577386319
 20
-651.1
 30
0.0
 40
1.500000000000012
100
AcDbArc
 50
180.0
 51
225.0
  0
LINE
  5
235
330
1F
100
AcDbEntity
  8
0
  6
SLD-Сплошная
 62
     7
370
    35
100
AcDbLine
 10
1201.4577386319
 20
-640.85
 30
0.0
 11
1202.057738632
 21
-640.85
 31
0.0
  0
LINE
  5
236
330
1F
100
AcDbEntity
  8
0
  6
SLD-Сплошная
 62
     7
370
    35
100
AcDbLine
 10
1202.057738632
 20
-647.35
 30
0.0
 11
1201.4577386319
 21
-647.35
 31
0.0
  0
LINE
  5
237
330
1F
100
AcDbEntity
  8
0
  6
SLD-Сплошная
 62
     7
370
    35
100
AcDbLine
 10
1201.4577386319
 20
656.9
 30
0.0
 11
1200.2577386319
 21
656.9
 31
0.0
  0
LINE
  5
238
330
1F
100
AcDbEntity
  8
0
  6
SLD-Сплошная
 62
     7
370
    35
100
AcDbLine
 10
1200.2577386319
 20
656.9
 30
0.0
 11
1200.2577386319
 21
651.9
 31
0.0
  0
LINE
  5
239
330
1F
100
AcDbEntity
  8
0
  6
SLD-Сплошная
 62
     7
370
    35
100
AcDbLine
 10
1201.4577386319
 20
651.9
 30
0.0
 11
1201.4577386319
 21
656.9
 31
0.0
  0
LINE
  5
23A
330
1F
100
AcDbEntity
  8
0
  6
SLD-Сплошная
 62
     7
370
    35
100
AcDbLine
 10
1200.2577386319
 20
651.9
 30
0.0
 11
1200.2577386319
 21
163.9
 31
0.0
  0
LINE
  5
23B
330
1F
100
AcDbEntity
  8
0
  6
SLD-Сплошная
 62
     7
370
    35
100
AcDbLine
 10
1201.4577386319
 20
651.9
 30
0.0
 11
1201.4577386319
 21
163.9
 31
0.0
  0
LINE
  5
23C
330
1F
100
AcDbEntity
  8
0
  6
SLD-Сплошная
 62
     7
370
    35
100
AcDbLine
 10
1200.2577386319
 20
163.9
 30
0.0
 11
1200.2577386319
 21
158.9
 31
0.0
  0
LINE
  5
23D
330
1F
100
AcDbEntity
  8
0
  6
SLD-Сплошная
 62
     7
370
    35
100
AcDbLine
 10
1200.2577386319
 20
158.9
 30
0.0
 11
1201.4577386319
 21
158.9
 31
0.0
  0
LINE
  5
23E
330
1F
100
AcDbEntity
  8
0
  6
SLD-Сплошная
 62
     7
370
    35
100
AcDbLine
 10
1201.4577386319
 20
158.9
 30
0.0
 11
1201.4577386319
 21
163.9
 31
0.0
  0
LINE
  5
23F
330
1F
100
AcDbEntity
  8
0
  6
SLD-Сплошная
 62
     7
370
    35
100
AcDbLine
 10
1199.2577386319
 20
414.8999991568
 30
0.0
 11
1199.2577386319
 21
400.9
 31
0.0
  0
LINE
  5
240
330
1F
100
AcDbEntity
  8
0
  6
SLD-Сплошная
 62
     7
370
    35
100
AcDbLine
 10
1202.057738632
 20
404.65
 30
0.0
 11
1202.057738632
 21
411.15
 31
0.0
  0
LINE
  5
241
330
1F
100
AcDbEntity
  8
0
  6
SLD-Сплошная
 62
     7
370
    35
100
AcDbLine
 10
1211.6097730426
 20
655.7013547076
 30
0.0
 11
1211.6722143355
 21
654.5029803566
 31
0.0
  0
LINE
  5
242
330
1F
100
AcDbEntity
  8
0
  6
SLD-Сплошная
 62
     7
370
    35
100
AcDbLine
 10
1212.2648454131
 20
655.9928932188
 30
0.0
 11
1213.1133735505
 21
655.1443650814
 31
0.0
  0
SPLINE
  5
243
330
1F
100
AcDbEntity
  8
0
  6
SLD-Сплошная
 62
     7
370
    35
100
AcDbSpline
210
0.0
220
0.0
230
1.0
 70
     8
 71
     3
 72
     9
 73
     5
 74
     0
 42
0.000000001
 43
0.00000001
 40
0.0
 40
0.0
 40
0.0
 40
0.0
 40
0.4999999999999893
 40
1.0
 40
1.0
 40
1.0
 40
1.0
 10
1211.609773042619
 20
655.7013547075665
 30
0.0
 10
1211.732465829418
 20
655.7195790499917
 30
0.0
 10
1211.977851403017
 20
655.7560277348418
 30
0.0
 10
1212.169180743054
 20
655.9139380574894
 30
0.0
 10
1212.264845413072
 20
655.9928932188132
 30
0.0
  0
SPLINE
  5
244
330
1F
100
AcDbEntity
  8
0
  6
SLD-Сплошная
 62
     7
370
    35
100
AcDbSpline
210
0.0
220
0.0
230
1.0
 70
     8
 71
     3
 72
     9
 73
     5
 74
     0
 42
0.000000001
 43
0.00000001
 40
0.0
 40
0.0
 40
0.0
 40
0.0
 40
0.4999999999999936
 40
1.0
 40
1.0
 40
1.0
 40
1.0
 10
1211.672214335499
 20
654.5029803566462
 30
0.0
 10
1211.942138466457
 20
654.5430739099817
 30
0.0
 10
1212.481986728374
 20
654.6232610166528
 30
0.0
 10
1212.902911276455
 20
654.970663726477
 30
0.0
 10
1213.113373550496
 20
655.1443650813894
 30
0.0
  0
ARC
  5
245
330
1F
100
AcDbEntity
  8
0
  6
SLD-Сплошная
 62
     7
370
    35
100
AcDbCircle
 10
1211.5577386319
 20
159.1
 30
0.0
 40
2.200000000000026
100
AcDbArc
 50
87.0173008588
 51
135.0
  0
ARC
  5
246
330
1F
100
AcDbEntity
  8
0
  6
SLD-Сплошная
 62
     7
370
    35
100
AcDbCircle
 10
1211.5577386319
 20
159.1
 30
0.0
 40
1.000000000000025
100
AcDbArc
 50
87.0173008588
 51
135.0
  0
LINE
  5
247
330
1F
100
AcDbEntity
  8
0
  6
SLD-Сплошная
 62
     7
370
    35
100
AcDbLine
 10
1211.6097730426
 20
160.0986452924
 30
0.0
 11
1211.6722143355
 21
161.2970196434
 31
0.0
  0
SPLINE
  5
248
330
1F
100
AcDbEntity
  8
0
  6
SLD-Сплошная
 62
     7
370
    35
100
AcDbSpline
210
0.0
220
0.0
230
1.0
 70
     8
 71
     3
 72
     9
 73
     5
 74
     0
 42
0.000000001
 43
0.00000001
 40
0.0
 40
0.0
 40
0.0
 40
0.0
 40
0.4999999999999889
 40
1.0
 40
1.0
 40
1.0
 40
1.0
 10
1213.113373550496
 20
160.6556349186102
 30
0.0
 10
1212.902911276456
 20
160.8293362735223
 30
0.0
 10
1212.481986728374
 20
161.1767389833466
 30
0.0
 10
1211.942138466458
 20
161.2569260900177
 30
0.0
 10
1211.672214335499
 20
161.2970196433533
 30
0.0
  0
SPLINE
  5
249
330
1F
100
AcDbEntity
  8
0
  6
SLD-Сплошная
 62
     7
370
    35
100
AcDbSpline
210
0.0
220
0.0
230
1.0
 70
     8
 71
     3
 72
     9
 73
     5
 74
     0
 42
0.000000001
 43
0.00000001
 40
0.0
 40
0.0
 40
0.0
 40
0.0
 40
0.4999999999999725
 40
0.9999999999999999
 40
0.9999999999999999
 40
0.9999999999999999
 40
0.9999999999999999
 10
1212.264845413072
 20
159.8071067811863
 30
0.0
 10
1212.169180743054
 20
159.8860619425099
 30
0.0
 10
1211.977851403017
 20
160.0439722651572
 30
0.0
 10
1211.732465829419
 20
160.0804209500079
 30
0.0
 10
1211.60977304262
 20
160.0986452924331
 30
0.0
  0
LINE
  5
24A
330
1F
100
AcDbEntity
  8
0
  6
SLD-Сплошная
 62
     7
370
    35
100
AcDbLine
 10
1213.1133735505
 20
160.6556349186
 30
0.0
 11
1212.2648454131
 21
159.8071067812
 31
0.0
  0
ARC
  5
24B
330
1F
100
AcDbEntity
  8
0
  6
SLD-Сплошная
 62
     7
370
    35
100
AcDbCircle
 10
1211.5577386319
 20
656.7
 30
0.0
 40
1.000000000000088
100
AcDbArc
 50
225.0
 51
272.9826991412
  0
ARC
  5
24C
330
1F
100
AcDbEntity
  8
0
  6
SLD-Сплошная
 62
     7
370
    35
100
AcDbCircle
 10
1211.5577386319
 20
656.7
 30
0.0
 40
2.200000000000066
100
AcDbArc
 50
225.0
 51
272.9826991412
  0
LINE
  5
24D
330
1F
100
AcDbEntity
  8
0
  6
SLD-Сплошная
 62
     7
370
    35
100
AcDbLine
 10
1210.0021037133
 20
160.6556349186
 30
0.0
 11
1207.5393620135
 21
158.1928932188
 31
0.0
  0
LINE
  5
24E
330
1F
100
AcDbEntity
  8
0
  6
SLD-Сплошная
 62
     7
370
    35
100
AcDbLine
 10
1210.8506318507
 20
159.8071067812
 30
0.0
 11
1208.3878901509
 21
157.3443650814
 31
0.0
  0
ARC
  5
24F
330
1F
100
AcDbEntity
  8
0
  6
SLD-Сплошная
 62
     7
370
    35
100
AcDbCircle
 10
1206.8322552323
 20
158.9
 30
0.0
 40
2.199999999999989
100
AcDbArc
 50
270.0
 51
315.0
  0
ARC
  5
250
330
1F
100
AcDbEntity
  8
0
  6
SLD-Сплошная
 62
     7
370
    35
100
AcDbCircle
 10
1206.8322552323
 20
158.9
 30
0.0
 40
1.0
100
AcDbArc
 50
270.0
 51
315.0
  0
LINE
  5
251
330
1F
100
AcDbEntity
  8
0
  6
SLD-Сплошная
 62
     7
370
    35
100
AcDbLine
 10
1210.0021037133
 20
655.1443650814
 30
0.0
 11
1207.5393620135
 21
657.6071067812
 31
0.0
  0
LINE
  5
252
330
1F
100
AcDbEntity
  8
0
  6
SLD-Сплошная
 62
     7
370
    35
100
AcDbLine
 10
1208.3878901509
 20
658.4556349186
 30
0.0
 11
1210.8506318507
 21
655.9928932188
 31
0.0
  0
ARC
  5
253
330
1F
100
AcDbEntity
  8
0
  6
SLD-Сплошная
 62
     7
370
    35
100
AcDbCircle
 10
1206.8322552323
 20
656.9
 30
0.0
 40
0.9999999999998863
100
AcDbArc
 50
45.0
 51
90.0
  0
ARC
  5
254
330
1F
100
AcDbEntity
  8
0
  6
SLD-Сплошная
 62
     7
370
    35
100
AcDbCircle
 10
1206.8322552323
 20
656.9
 30
0.0
 40
2.199999999999932
100
AcDbArc
 50
45.0
 51
90.0
  0
LINE
  5
255
330
1F
100
AcDbEntity
  8
0
  6
SLD-Сплошная
 62
     7
370
    35
100
AcDbLine
 10
1202.4577386319
 20
659.1
 30
0.0
 11
1206.8322552323
 21
659.1
 31
0.0
  0
LINE
  5
256
330
1F
100
AcDbEntity
  8
0
  6
SLD-Сплошная
 62
     7
370
    35
100
AcDbLine
 10
1206.8322552323
 20
657.9
 30
0.0
 11
1202.4577386319
 21
657.9
 31
0.0
  0
ARC
  5
257
330
1F
100
AcDbEntity
  8
0
  6
SLD-Сплошная
 62
     7
370
    35
100
AcDbCircle
 10
1202.4577386319
 20
158.9
 30
0.0
 40
2.200000000000045
100
AcDbArc
 50
180.0
 51
270.0
  0
ARC
  5
258
330
1F
100
AcDbEntity
  8
0
  6
SLD-Сплошная
 62
     7
370
    35
100
AcDbCircle
 10
1202.4577386319
 20
158.9
 30
0.0
 40
1.000000000000227
100
AcDbArc
 50
180.0
 51
270.0
  0
LINE
  5
259
330
1F
100
AcDbEntity
  8
0
  6
SLD-Сплошная
 62
     7
370
    35
100
AcDbLine
 10
1206.8322552323
 20
157.9
 30
0.0
 11
1202.4577386319
 21
157.9
 31
0.0
  0
LINE
  5
25A
330
1F
100
AcDbEntity
  8
0
  6
SLD-Сплошная
 62
     7
370
    35
100
AcDbLine
 10
1206.8322552323
 20
156.7
 30
0.0
 11
1202.4577386319
 21
156.7
 31
0.0
  0
ARC
  5
25B
330
1F
100
AcDbEntity
  8
0
  6
SLD-Сплошная
 62
     7
370
    35
100
AcDbCircle
 10
1202.4577386319
 20
656.9
 30
0.0
 40
2.200000000000159
100
AcDbArc
 50
90.0
 51
180.0
  0
ARC
  5
25C
330
1F
100
AcDbEntity
  8
0
  6
SLD-Сплошная
 62
     7
370
    35
100
AcDbCircle
 10
1202.4577386319
 20
656.9
 30
0.0
 40
1.0
100
AcDbArc
 50
90.0
 51
180.0
  0
LINE
  5
25D
330
1F
100
AcDbEntity
  8
0
  6
SLD-Сплошная
 62
     7
370
    35
100
AcDbLine
 10
1213.1133735505
 20
655.1443650814
 30
0.0
 11
1215.8690084691
 21
657.9
 31
0.0
  0
LINE
  5
25E
330
1F
100
AcDbEntity
  8
0
  6
SLD-Сплошная
 62
     7
370
    35
100
AcDbLine
 10
1215.8690084691
 20
657.9
 30
0.0
 11
1215.0204803317
 21
658.7485281374
 31
0.0
  0
LINE
  5
25F
330
1F
100
AcDbEntity
  8
0
  6
SLD-Сплошная
 62
     7
370
    35
100
AcDbLine
 10
1215.0204803317
 20
658.7485281374
 30
0.0
 11
1212.2648454131
 21
655.9928932188
 31
0.0
  0
LINE
  5
260
330
1F
100
AcDbEntity
  8
0
  6
SLD-Сплошная
 62
     7
370
    35
100
AcDbLine
 10
1212.2648454131
 20
159.8071067812
 30
0.0
 11
1215.0204803317
 21
157.0514718626
 31
0.0
  0
LINE
  5
261
330
1F
100
AcDbEntity
  8
0
  6
SLD-Сплошная
 62
     7
370
    35
100
AcDbLine
 10
1215.0204803317
 20
157.0514718626
 30
0.0
 11
1215.8690084691
 21
157.9
 31
0.0
  0
LINE
  5
262
330
1F
100
AcDbEntity
  8
0
  6
SLD-Сплошная
 62
     7
370
    35
100
AcDbLine
 10
1215.8690084691
 20
157.9
 30
0.0
 11
1213.1133735505
 21
160.6556349186
 31
0.0
  0
LINE
  5
263
330
1F
100
AcDbEntity
  8
0
  6
SLD-Сплошная
 62
     7
370
    35
100
AcDbLine
 10
1191.4577386319
 20
659.1
 30
0.0
 11
1199.2577386319
 21
659.1
 31
0.0
  0
LINE
  5
264
330
1F
100
AcDbEntity
  8
0
  6
SLD-Сплошная
 62
     7
370
    35
100
AcDbLine
 10
1191.4577386319
 20
657.9
 30
0.0
 11
1199.2577386319
 21
657.9
 31
0.0
  0
LINE
  5
265
330
1F
100
AcDbEntity
  8
0
  6
SLD-Сплошная
 62
     7
370
    35
100
AcDbLine
 10
1191.4577386319
 20
156.7
 30
0.0
 11
1199.2577386319
 21
156.7
 31
0.0
  0
LINE
  5
266
330
1F
100
AcDbEntity
  8
0
  6
SLD-Сплошная
 62
     7
370
    35
100
AcDbLine
 10
1191.4577386319
 20
157.9
 30
0.0
 11
1199.2577386319
 21
157.9
 31
0.0
  0
LINE
  5
267
330
1F
100
AcDbEntity
  8
0
  6
SLD-Сплошная
 62
     7
370
    35
100
AcDbLine
 10
1186.4577386319
 20
157.9
 30
0.0
 11
1186.4577386319
 21
156.7
 31
0.0
  0
LINE
  5
268
330
1F
100
AcDbEntity
  8
0
  6
SLD-Сплошная
 62
     7
370
    35
100
AcDbLine
 10
1186.4577386319
 20
156.7
 30
0.0
 11
1191.4577386319
 21
156.7
 31
0.0
  0
LINE
  5
269
330
1F
100
AcDbEntity
  8
0
  6
SLD-Сплошная
 62
     7
370
    35
100
AcDbLine
 10
1191.4577386319
 20
157.9
 30
0.0
 11
1186.4577386319
 21
157.9
 31
0.0
  0
LINE
  5
26A
330
1F
100
AcDbEntity
  8
0
  6
SLD-Сплошная
 62
     7
370
    35
100
AcDbLine
 10
1186.4577386319
 20
659.1
 30
0.0
 11
1186.4577386319
 21
657.9
 31
0.0
  0
LINE
  5
26B
330
1F
100
AcDbEntity
  8
0
  6
SLD-Сплошная
 62
     7
370
    35
100
AcDbLine
 10
1191.4577386319
 20
659.1
 30
0.0
 11
1186.4577386319
 21
659.1
 31
0.0
  0
LINE
  5
26C
330
1F
100
AcDbEntity
  8
0
  6
SLD-Сплошная
 62
     7
370
    35
100
AcDbLine
 10
1186.4577386319
 20
657.9
 30
0.0
 11
1191.4577386319
 21
657.9
 31
0.0
  0
ARC
  5
26D
330
1F
100
AcDbEntity
  8
0
  6
SLD-Сплошная
 62
     7
370
    35
100
AcDbCircle
 10
1199.2577386319
 20
656.9
 30
0.0
 40
1.0
100
AcDbArc
 50
0.0
 51
90.0
  0
ARC
  5
26E
330
1F
100
AcDbEntity
  8
0
  6
SLD-Сплошная
 62
     7
370
    35
100
AcDbCircle
 10
1199.2577386319
 20
656.9
 30
0.0
 40
2.199999999999935
100
AcDbArc
 50
43.3417581875
 51
90.0
  0
ARC
  5
26F
330
1F
100
AcDbEntity
  8
0
  6
SLD-Сплошная
 62
     7
370
    35
100
AcDbCircle
 10
1199.2577386319
 20
158.9
 30
0.0
 40
1.000000000000227
100
AcDbArc
 50
270.0
 51
0.0
  0
ARC
  5
270
330
1F
100
AcDbEntity
  8
0
  6
SLD-Сплошная
 62
     7
370
    35
100
AcDbCircle
 10
1199.2577386319
 20
158.9
 30
0.0
 40
2.200000000000193
100
AcDbArc
 50
270.0
 51
316.6582417732
  0
SPLINE
  5
271
330
1F
100
AcDbEntity
  8
0
  6
SLD-Сплошная
 62
     7
370
    35
100
AcDbSpline
210
0.0
220
0.0
230
1.0
 70
     8
 71
     3
 72
     9
 73
     5
 74
     0
 42
0.000000001
 43
0.00000001
 40
0.0
 40
0.0
 40
0.0
 40
0.0
 40
0.0926884092003439
 40
1.0
 40
1.0
 40
1.0
 40
1.0
 10
1207.134466329861
 20
157.9588624541266
 30
0.0
 10
1207.119931861334
 20
157.9503532193641
 30
0.0
 10
1206.963121871261
 20
157.8585484852462
 30
0.0
 10
1206.940885542655
 20
157.8823365982196
 30
0.0
 10
1206.920710263974
 20
157.9039198288438
 30
0.0
  0
SPLINE
  5
272
330
1F
100
AcDbEntity
  8
0
  6
SLD-Сплошная
 62
     7
370
    35
100
AcDbSpline
210
0.0
220
0.0
230
1.0
 70
     8
 71
     3
 72
    12
 73
     8
 74
     0
 42
0.000000001
 43
0.00000001
 40
0.0
 40
0.0
 40
0.0
 40
0.0
 40
0.0086674047363283
 40
0.267632629882784
 40
0.5286616002507958
 40
0.7638461449005343
 40
0.9999999999999999
 40
0.9999999999999999
 40
0.9999999999999999
 40
0.9999999999999999
 10
1190.02643549587
 20
154.2458850428872
 30
0.0
 10
1190.027004952623
 20
154.2454667745475
 30
0.0
 10
1190.044588671513
 20
154.2325514603148
 30
0.0
 10
1190.077782051015
 20
154.1973309185182
 30
0.0
 10
1190.116224741407
 20
154.1233414225051
 30
0.0
 10
1190.142897393793
 20
154.0327416643879
 30
0.0
 10
1190.146521683558
 20
153.9664897181839
 30
0.0
 10
1190.148337555128
 20
153.9332956213051
 30
0.0
  0
SPLINE
  5
273
330
1F
100
AcDbEntity
  8
0
  6
SLD-Сплошная
 62
     7
370
    35
100
AcDbSpline
210
0.0
220
0.0
230
1.0
 70
     8
 71
     3
 72
    12
 73
     8
 74
     0
 42
0.000000001
 43
0.00000001
 40
0.0
 40
0.0
 40
0.0
 40
0.0
 40
0.0086674047363051
 40
0.267632629882791
 40
0.5286616002507979
 40
0.7638461449005334
 40
0.9999999999999999
 40
0.9999999999999999
 40
0.9999999999999999
 40
0.9999999999999999
 10
1194.889041767903
 20
154.2458850428872
 30
0.0
 10
1194.88847231115
 20
154.2454667745475
 30
0.0
 10
1194.870888592259
 20
154.2325514603152
 30
0.0
 10
1194.837695212756
 20
154.1973309185183
 30
0.0
 10
1194.799252522365
 20
154.123341422505
 30
0.0
 10
1194.772579869979
 20
154.0327416643881
 30
0.0
 10
1194.768955580215
 20
153.9664897181838
 30
0.0
 10
1194.767139708645
 20
153.9332956213051
 30
0.0
  0
SPLINE
  5
274
330
1F
100
AcDbEntity
  8
0
  6
SLD-Сплошная
 62
     7
370
    35
100
AcDbSpline
210
0.0
220
0.0
230
1.0
 70
     8
 71
     3
 72
    12
 73
     8
 74
     0
 42
0.000000001
 43
0.00000001
 40
0.0
 40
0.0
 40
0.0
 40
0.0
 40
0.2361538550994128
 40
0.471338399749127
 40
0.7323673701170687
 40
0.9913325952635405
 40
1.0
 40
1.0
 40
1.0
 40
1.0
 10
1197.076540785403
 20
153.9332956213052
 30
0.0
 10
1197.080172528543
 20
153.9664897181839
 30
0.0
 10
1197.087421108072
 20
154.0327416643879
 30
0.0
 10
1197.140766412844
 20
154.123341422505
 30
0.0
 10
1197.217651793627
 20
154.1973309185187
 30
0.0
 10
1197.284038552633
 20
154.2325514603142
 30
0.0
 10
1197.319205990413
 20
154.2454667745475
 30
0.0
 10
1197.320344903919
 20
154.2458850428872
 30
0.0
  0
SPLINE
  5
275
330
1F
100
AcDbEntity
  8
0
  6
SLD-Сплошная
 62
     7
370
    35
100
AcDbSpline
210
0.0
220
0.0
230
1.0
 70
     8
 71
     3
 72
    12
 73
     8
 74
     0
 42
0.000000001
 43
0.00000001
 40
0.0
 40
0.0
 40
0.0
 40
0.0
 40
0.0086674047364441
 40
0.2676326298829182
 40
0.528661600250874
 40
0.7638461449005823
 40
1.0
 40
1.0
 40
1.0
 40
1.0
 10
1187.595132359853
 20
154.2458850428872
 30
0.0
 10
1187.596271273359
 20
154.2454667745475
 30
0.0
 10
1187.631438711139
 20
154.2325514603152
 30
0.0
 10
1187.697825470145
 20
154.1973309185182
 30
0.0
 10
1187.774710850928
 20
154.1233414225051
 30
0.0
 10
1187.8280561557
 20
154.0327416643881
 30
0.0
 10
1187.835304735229
 20
153.9664897181839
 30
0.0
 10
1187.838936478369
 20
153.9332956213052
 30
0.0
  0
SPLINE
  5
276
330
1F
100
AcDbEntity
  8
0
  6
SLD-Сплошная
 62
     7
370
    35
100
AcDbSpline
210
0.0
220
0.0
230
1.0
 70
     8
 71
     3
 72
     9
 73
     5
 74
     0
 42
0.000000001
 43
0.00000001
 40
0.0
 40
0.0
 40
0.0
 40
0.0
 40
0.6837814517460596
 40
1.0
 40
1.0
 40
1.0
 40
1.0
 10
1195.921840247024
 20
150.4999999999997
 30
0.0
 10
1195.656518481633
 20
150.523226170757
 30
0.0
 10
1195.26849718519
 20
150.5571934137964
 30
0.0
 10
1194.887589715674
 20
150.7036786509625
 30
0.0
 10
1194.767139708645
 20
150.7499999999998
 30
0.0
  0
SPLINE
  5
277
330
1F
100
AcDbEntity
  8
0
  6
SLD-Сплошная
 62
     7
370
    35
100
AcDbSpline
210
0.0
220
0.0
230
1.0
 70
     8
 71
     3
 72
     9
 73
     5
 74
     0
 42
0.000000001
 43
0.00000001
 40
0.0
 40
0.0
 40
0.0
 40
0.0
 40
0.2537658352361424
 40
1.0
 40
1.0
 40
1.0
 40
1.0
 10
1194.767139708645
 20
150.7499999999998
 30
0.0
 10
1194.573961908952
 20
150.7124477893651
 30
0.0
 10
1193.812717592855
 20
150.5644680165965
 30
0.0
 10
1193.036774143626
 20
150.5275497052396
 30
0.0
 10
1192.457738631886
 20
150.4999999999997
 30
0.0
  0
LINE
  5
278
330
1F
100
AcDbEntity
  8
0
  6
SLD-Сплошная
 62
     7
370
    35
100
AcDbLine
 10
1195.921840247
 20
150.5
 30
0.0
 11
1192.4577386319
 21
150.5
 31
0.0
  0
LINE
  5
279
330
1F
100
AcDbEntity
  8
0
  6
SLD-Сплошная
 62
     7
370
    35
100
AcDbLine
 10
1197.0765407854
 20
150.75
 30
0.0
 11
1195.921840247
 21
150.5
 31
0.0
  0
LINE
  5
27A
330
1F
100
AcDbEntity
  8
0
  6
SLD-Сплошная
 62
     7
370
    35
100
AcDbLine
 10
1197.0765407854
 20
153.9332956213
 30
0.0
 11
1197.0765407854
 21
150.75
 31
0.0
  0
LINE
  5
27B
330
1F
100
AcDbEntity
  8
0
  6
SLD-Сплошная
 62
     7
370
    35
100
AcDbLine
 10
1194.7671397086
 20
153.9332956213
 30
0.0
 11
1194.7671397086
 21
150.75
 31
0.0
  0
SPLINE
  5
27C
330
1F
100
AcDbEntity
  8
0
  6
SLD-Сплошная
 62
     7
370
    35
100
AcDbSpline
210
0.0
220
0.0
230
1.0
 70
     8
 71
     3
 72
     9
 73
     5
 74
     0
 42
0.000000001
 43
0.00000001
 40
0.0
 40
0.0
 40
0.0
 40
0.0
 40
0.8037424145840146
 40
1.0
 40
1.0
 40
1.0
 40
1.0
 10
1192.457738631886
 20
150.4999999999998
 30
0.0
 10
1191.834177679991
 20
150.5318203256767
 30
0.0
 10
1191.058355799024
 20
150.5714105290798
 30
0.0
 10
1190.297634818032
 20
150.7207006761996
 30
0.0
 10
1190.148337555128
 20
150.7499999999998
 30
0.0
  0
LINE
  5
27D
330
1F
100
AcDbEntity
  8
0
  6
SLD-Сплошная
 62
     7
370
    35
100
AcDbLine
 10
1190.1483375551
 20
153.9332956213
 30
0.0
 11
1190.1483375551
 21
150.75
 31
0.0
  0
LINE
  5
27E
330
1F
100
AcDbEntity
  8
0
  6
SLD-Сплошная
 62
     7
370
    35
100
AcDbLine
 10
1190.1483375551
 20
150.75
 30
0.0
 11
1188.9936370167
 21
150.5
 31
0.0
  0
LINE
  5
27F
330
1F
100
AcDbEntity
  8
0
  6
SLD-Сплошная
 62
     7
370
    35
100
AcDbLine
 10
1192.4577386319
 20
150.5
 30
0.0
 11
1188.9936370167
 21
150.5
 31
0.0
  0
SPLINE
  5
280
330
1F
100
AcDbEntity
  8
0
  6
SLD-Сплошная
 62
     7
370
    35
100
AcDbSpline
210
0.0
220
0.0
230
1.0
 70
     8
 71
     3
 72
     9
 73
     5
 74
     0
 42
0.000000001
 43
0.00000001
 40
0.0
 40
0.0
 40
0.0
 40
0.0
 40
0.6837814517460596
 40
1.0
 40
1.0
 40
1.0
 40
1.0
 10
1188.993637016748
 20
150.4999999999997
 30
0.0
 10
1188.728315251358
 20
150.523226170757
 30
0.0
 10
1188.340293954915
 20
150.5571934137964
 30
0.0
 10
1187.959386485398
 20
150.7036786509625
 30
0.0
 10
1187.838936478369
 20
150.7499999999998
 30
0.0
  0
LINE
  5
281
330
1F
100
AcDbEntity
  8
0
  6
SLD-Сплошная
 62
     7
370
    35
100
AcDbLine
 10
1187.8389364784
 20
153.9332956213
 30
0.0
 11
1187.8389364784
 21
150.75
 31
0.0
  0
LINE
  5
282
330
1F
100
AcDbEntity
  8
0
  6
SLD-Сплошная
 62
     7
370
    35
100
AcDbLine
 10
1196.4577386319
 20
150.5
 30
0.0
 11
1195.921840247
 21
150.5
 31
0.0
  0
LINE
  5
283
330
1F
100
AcDbEntity
  8
0
  6
SLD-Сплошная
 62
     7
370
    35
100
AcDbLine
 10
1188.9936370167
 20
150.5
 30
0.0
 11
1188.4577386319
 21
150.5
 31
0.0
  0
SPLINE
  5
284
330
1F
100
AcDbEntity
  8
0
  6
SLD-Сплошная
 62
     7
370
    35
100
AcDbSpline
210
0.0
220
0.0
230
1.0
 70
     8
 71
     3
 72
    10
 73
     6
 74
     0
 42
0.000000001
 43
0.00000001
 40
0.0
 40
0.0
 40
0.0
 40
0.0
 40
0.1826148160852543
 40
0.9162150326426487
 40
1.0
 40
1.0
 40
1.0
 40
1.0
 10
1196.109020581845
 20
159.127684207299
 30
0.0
 10
1196.146010679726
 20
159.1614828926286
 30
0.0
 10
1196.331597394235
 20
159.3310576524775
 30
0.0
 10
1196.541832050981
 20
159.4499747866182
 30
0.0
 10
1196.722767309407
 20
159.3340243839556
 30
0.0
 10
1196.741313834374
 20
159.3221390441021
 30
0.0
  0
SPLINE
  5
285
330
1F
100
AcDbEntity
  8
0
  6
SLD-Сплошная
 62
     7
370
    35
100
AcDbSpline
210
0.0
220
0.0
230
1.0
 70
     8
 71
     3
 72
    12
 73
     8
 74
     0
 42
0.000000001
 43
0.00000001
 40
0.0
 40
0.0
 40
0.0
 40
0.0
 40
0.0086674047363094
 40
0.2676326298827054
 40
0.5286616002507798
 40
0.7638461449008526
 40
1.0
 40
1.0
 40
1.0
 40
1.0
 10
1196.109020581845
 20
159.127684207299
 30
0.0
 10
1196.108165383193
 20
159.1281024756386
 30
0.0
 10
1196.081758509267
 20
159.1410177898709
 30
0.0
 10
1196.031909362258
 20
159.176238331668
 30
0.0
 10
1195.974176906174
 20
159.2502278276812
 30
0.0
 10
1195.934120455469
 20
159.340827585798
 30
0.0
 10
1195.928677570292
 20
159.4070795320023
 30
0.0
 10
1195.92595053104
 20
159.440273628881
 30
0.0
  0
SPLINE
  5
286
330
1F
100
AcDbEntity
  8
0
  6
SLD-Сплошная
 62
     7
370
    35
100
AcDbSpline
210
0.0
220
0.0
230
1.0
 70
     8
 71
     3
 72
    12
 73
     8
 74
     0
 42
0.000000001
 43
0.00000001
 40
0.0
 40
0.0
 40
0.0
 40
0.0
 40
0.2361538550992503
 40
0.4713383997487094
 40
0.7323673701172612
 40
0.991332595262641
 40
1.0
 40
1.0
 40
1.0
 40
1.0
 10
1191.550134970827
 20
159.440273628881
 30
0.0
 10
1191.549421326194
 20
159.4070795320024
 30
0.0
 10
1191.547996966134
 20
159.3408275857983
 30
0.0
 10
1191.53751450936
 20
159.2502278276806
 30
0.0
 10
1191.522406381593
 20
159.1762383316695
 30
0.0
 10
1191.509361253542
 20
159.1410177898685
 30
0.0
 10
1191.502450783205
 20
159.1281024756387
 30
0.0
 10
1191.502226984473
 20
159.1276842072991
 30
0.0
  0
LINE
  5
287
330
1F
100
AcDbEntity
  8
0
  6
SLD-Сплошная
 62
     7
370
    35
100
AcDbLine
 10
1195.925950531
 20
162.9427344101
 30
0.0
 11
1193.7380427509
 21
163.3
 31
0.0
  0
SPLINE
  5
288
330
1F
100
AcDbEntity
  8
0
  6
SLD-Сплошная
 62
     7
370
    35
100
AcDbSpline
210
0.0
220
0.0
230
1.0
 70
     8
 71
     3
 72
     9
 73
     5
 74
     0
 42
0.000000001
 43
0.00000001
 40
0.0
 40
0.0
 40
0.0
 40
0.0
 40
0.0701852045455193
 40
1.0
 40
1.0
 40
1.0
 40
1.0
 10
1193.738042750934
 20
163.2999999999997
 30
0.0
 10
1193.686187760428
 20
163.2996432638502
 30
0.0
 10
1192.947356964938
 20
163.2945604810643
 30
0.0
 10
1192.223338267703
 20
163.1122496853332
 30
0.0
 10
1191.550134970827
 20
162.9427344100916
 30
0.0
  0
LINE
  5
289
330
1F
100
AcDbEntity
  8
0
  6
SLD-Сплошная
 62
     7
370
    35
100
AcDbLine
 10
1191.5501349708
 20
159.4402736289
 30
0.0
 11
1191.5501349708
 21
162.9427344101
 31
0.0
  0
LINE
  5
28A
330
1F
100
AcDbEntity
  8
0
  6
SLD-Сплошная
 62
     7
370
    35
100
AcDbLine
 10
1195.925950531
 20
159.4402736289
 30
0.0
 11
1195.925950531
 21
162.9427344101
 31
0.0
  0
SPLINE
  5
28B
330
1F
100
AcDbEntity
  8
0
  6
SLD-Сплошная
 62
     7
370
    35
100
AcDbSpline
210
0.0
220
0.0
230
1.0
 70
     8
 71
     3
 72
     9
 73
     5
 74
     0
 42
0.000000001
 43
0.00000001
 40
0.0
 40
0.0
 40
0.0
 40
0.0
 40
0.1972242043131015
 40
1.0
 40
1.0
 40
1.0
 40
1.0
 10
1191.550134970827
 20
162.9427344100916
 30
0.0
 10
1191.438809337092
 20
162.9843725670051
 30
0.0
 10
1190.874347007921
 20
163.1954934943709
 30
0.0
 10
1190.287297864482
 20
163.2534632684709
 30
0.0
 10
1189.81602902125
 20
163.2999999999997
 30
0.0
  0
LINE
  5
28C
330
1F
100
AcDbEntity
  8
0
  6
SLD-Сплошная
 62
     7
370
    35
100
AcDbLine
 10
1189.8160290213
 20
163.3
 30
0.0
 11
1193.7380427509
 21
163.3
 31
0.0
  0
SPLINE
  5
28D
330
1F
100
AcDbEntity
  8
0
  6
SLD-Сплошная
 62
     7
370
    35
100
AcDbSpline
210
0.0
220
0.0
230
1.0
 70
     8
 71
     3
 72
    12
 73
     8
 74
     0
 42
0.000000001
 43
0.00000001
 40
0.0
 40
0.0
 40
0.0
 40
0.0
 40
0.2361538550998082
 40
0.4713383997489866
 40
0.7323673701181274
 40
0.9913325952641936
 40
1.0
 40
1.0
 40
1.0
 40
1.0
 10
1188.081923071673
 20
159.440273628881
 30
0.0
 10
1188.078482387787
 20
159.4070795320023
 30
0.0
 10
1188.071615142549
 20
159.3408275857984
 30
0.0
 10
1188.021076235074
 20
159.2502278276807
 30
0.0
 10
1187.948235651217
 20
159.1762383316684
 30
0.0
 10
1187.885341376166
 20
159.1410177898707
 30
0.0
 10
1187.852024031898
 20
159.1281024756387
 30
0.0
 10
1187.850945034514
 20
159.127684207299
 30
0.0
  0
SPLINE
  5
28E
330
1F
100
AcDbEntity
  8
0
  6
SLD-Сплошная
 62
     7
370
    35
100
AcDbSpline
210
0.0
220
0.0
230
1.0
 70
     8
 71
     3
 72
     9
 73
     5
 74
     0
 42
0.000000001
 43
0.00000001
 40
0.0
 40
0.0
 40
0.0
 40
0.0
 40
0.0701852045455389
 40
1.0
 40
1.0
 40
1.0
 40
1.0
 10
1196.379752361569
 20
163.2999999999997
 30
0.0
 10
1196.368996931277
 20
163.2996432638502
 30
0.0
 10
1196.215753375726
 20
163.2945604810637
 30
0.0
 10
1196.065582050805
 20
163.1122496853331
 30
0.0
 10
1195.92595053104
 20
162.9427344100916
 30
0.0
  0
LINE
  5
28F
330
1F
100
AcDbEntity
  8
0
  6
SLD-Сплошная
 62
     7
370
    35
100
AcDbLine
 10
1193.7380427509
 20
163.3
 30
0.0
 11
1196.3797523616
 21
163.3
 31
0.0
  0
SPLINE
  5
290
330
1F
100
AcDbEntity
  8
0
  6
SLD-Сплошная
 62
     7
370
    35
100
AcDbSpline
210
0.0
220
0.0
230
1.0
 70
     8
 71
     3
 72
     9
 73
     5
 74
     0
 42
0.000000001
 43
0.00000001
 40
0.0
 40
0.0
 40
0.0
 40
0.0
 40
0.2210460768286575
 40
1.0
 40
1.0
 40
1.0
 40
1.0
 10
1189.81602902125
 20
163.2999999999998
 30
0.0
 10
1189.68633959698
 20
163.2964177496901
 30
0.0
 10
1189.099631947016
 20
163.280211851078
 30
0.0
 10
1188.527549184171
 20
163.0905062962625
 30
0.0
 10
1188.081923071673
 20
162.9427344100916
 30
0.0
  0
LINE
  5
291
330
1F
100
AcDbEntity
  8
0
  6
SLD-Сплошная
 62
     7
370
    35
100
AcDbLine
 10
1188.0819230717
 20
159.4402736289
 30
0.0
 11
1188.0819230717
 21
162.9427344101
 31
0.0
  0
LINE
  5
292
330
1F
100
AcDbEntity
  8
0
  6
SLD-Сплошная
 62
     7
370
    35
100
AcDbLine
 10
1190.8066701252
 20
146.345
 30
0.0
 11
1189.9577386319
 21
146.345
 31
0.0
  0
LINE
  5
293
330
1F
100
AcDbEntity
  8
0
  6
SLD-Сплошная
 62
     7
370
    35
100
AcDbLine
 10
1194.9577386319
 20
146.345
 30
0.0
 11
1190.8066701252
 21
146.345
 31
0.0
  0
LINE
  5
294
330
1F
100
AcDbEntity
  8
0
  6
SLD-Сплошная
 62
     7
370
    35
100
AcDbLine
 10
1191.1005603194
 20
145.9
 30
0.0
 11
1190.4027386319
 21
145.9
 31
0.0
  0
LINE
  5
295
330
1F
100
AcDbEntity
  8
0
  6
SLD-Сплошная
 62
     7
370
    35
100
AcDbLine
 10
1194.5127386319
 20
145.9
 30
0.0
 11
1191.1005603194
 21
145.9
 31
0.0
  0
SPLINE
  5
296
330
1F
100
AcDbEntity
  8
0
  6
SLD-Сплошная
 62
     7
370
    35
100
AcDbSpline
210
0.0
220
0.0
230
1.0
 70
     8
 71
     3
 72
     9
 73
     5
 74
     0
 42
0.000000001
 43
0.00000001
 40
0.0
 40
0.0
 40
0.0
 40
0.0
 40
0.3849850956772934
 40
0.9999999999999999
 40
0.9999999999999999
 40
0.9999999999999999
 40
0.9999999999999999
 10
1196.878828482511
 20
159.2883830426314
 30
0.0
 10
1196.868168664373
 20
159.3060484391615
 30
0.0
 10
1196.840479753146
 20
159.3519343623531
 30
0.0
 10
1196.836191519626
 20
159.406633093796
 30
0.0
 10
1196.833554192099
 20
159.440273628881
 30
0.0
  0
LINE
  5
297
330
1F
100
AcDbEntity
  8
0
  6
SLD-Сплошная
 62
     7
370
    35
100
AcDbLine
 10
1196.8335541921
 20
162.9427344101
 30
0.0
 11
1196.3797523616
 21
163.3
 31
0.0
  0
LINE
  5
298
330
1F
100
AcDbEntity
  8
0
  6
SLD-Сплошная
 62
     7
370
    35
100
AcDbLine
 10
1196.8335541921
 20
159.4402736289
 30
0.0
 11
1196.8335541921
 21
162.9427344101
 31
0.0
  0
LINE
  5
299
330
1F
100
AcDbEntity
  8
0
  6
SLD-Сплошная
 62
     7
370
    35
100
AcDbLine
 10
1188.0819230717
 20
162.9427344101
 30
0.0
 11
1188.5357249022
 21
163.3
 31
0.0
  0
LINE
  5
29A
330
1F
100
AcDbEntity
  8
0
  6
SLD-Сплошная
 62
     7
370
    35
100
AcDbLine
 10
1189.8160290213
 20
163.3
 30
0.0
 11
1188.4659304841
 21
163.3
 31
0.0
  0
LINE
  5
29B
330
1F
100
AcDbEntity
  8
0
  6
SLD-Сплошная
 62
     7
370
    35
100
AcDbLine
 10
1200.2577386319
 20
154.5
 30
0.0
 11
1200.2577386319
 21
150.3789411239
 31
0.0
  0
LINE
  5
29C
330
1F
100
AcDbEntity
  8
0
  6
SLD-Сплошная
 62
     7
370
    35
100
AcDbLine
 10
1201.4577386319
 20
154.5
 30
0.0
 11
1201.4577386319
 21
150.3789411239
 31
0.0
  0
ARC
  5
29D
330
1F
100
AcDbEntity
  8
0
  6
SLD-Сплошная
 62
     7
370
    35
100
AcDbCircle
 10
1199.2577386319
 20
154.5
 30
0.0
 40
1.000000000000227
100
AcDbArc
 50
0.0
 51
90.0
  0
ARC
  5
29E
330
1F
100
AcDbEntity
  8
0
  6
SLD-Сплошная
 62
     7
370
    35
100
AcDbCircle
 10
1199.2577386319
 20
154.5
 30
0.0
 40
2.200000000000045
100
AcDbArc
 50
0.0
 51
90.0
  0
LINE
  5
29F
330
1F
100
AcDbEntity
  8
0
  6
SLD-Сплошная
 62
     7
370
    35
100
AcDbLine
 10
1191.4577386319
 20
155.5
 30
0.0
 11
1199.2577386319
 21
155.5
 31
0.0
  0
LINE
  5
2A0
330
1F
100
AcDbEntity
  8
0
  6
SLD-Сплошная
 62
     7
370
    35
100
AcDbLine
 10
1186.4577386319
 20
156.7
 30
0.0
 11
1186.4577386319
 21
155.5
 31
0.0
  0
LINE
  5
2A1
330
1F
100
AcDbEntity
  8
0
  6
SLD-Сплошная
 62
     7
370
    35
100
AcDbLine
 10
1186.4577386319
 20
155.5
 30
0.0
 11
1191.4577386319
 21
155.5
 31
0.0
  0
LINE
  5
2A2
330
1F
100
AcDbEntity
  8
0
  6
SLD-Сплошная
 62
     7
370
    35
100
AcDbLine
 10
1200.2577386319
 20
150.3789411239
 30
0.0
 11
1200.2577386319
 21
145.4746025959
 31
0.0
  0
LINE
  5
2A3
330
1F
100
AcDbEntity
  8
0
  6
SLD-Сплошная
 62
     7
370
    35
100
AcDbLine
 10
1201.4577386319
 20
145.4746025959
 30
0.0
 11
1201.4577386319
 21
150.3789411239
 31
0.0
  0
LINE
  5
2A4
330
1F
100
AcDbEntity
  8
0
  6
SLD-Сплошная
 62
     7
370
    35
100
AcDbLine
 10
1200.2577386319
 20
145.4746025959
 30
0.0
 11
1200.2577386319
 21
-438.1498645641
 31
0.0
  0
LINE
  5
2A5
330
1F
100
AcDbEntity
  8
0
  6
SLD-Сплошная
 62
     7
370
    35
100
AcDbLine
 10
1201.4577386319
 20
145.4746025959
 30
0.0
 11
1201.4577386319
 21
-438.1498645641
 31
0.0
  0
LINE
  5
2A6
330
1F
100
AcDbEntity
  8
0
  6
SLD-Сплошная
 62
     7
370
    35
100
AcDbLine
 10
1206.8322552323
 20
-629.1
 30
0.0
 11
1208.3878901509
 21
-629.1
 31
0.0
  0
SPLINE
  5
2A7
330
1F
100
AcDbEntity
  8
0
  6
SLD-Сплошная
 62
     7
370
    35
100
AcDbSpline
210
0.0
220
0.0
230
1.0
 70
     8
 71
     3
 72
    11
 73
     7
 74
     0
 42
0.000000001
 43
0.00000001
 40
0.0
 40
0.0
 40
0.0
 40
0.0
 40
0.2648652271873762
 40
0.5126647275749303
 40
0.7539003475978638
 40
1.0
 40
1.0
 40
1.0
 40
1.0
 10
1208.387890150902
 20
-611.3222896388654
 30
0.0
 10
1208.226854546293
 20
-611.2047933727068
 30
0.0
 10
1207.915159140886
 20
-610.9773713289721
 30
0.0
 10
1207.439061097955
 20
-610.5076466960109
 30
0.0
 10
1207.056109340716
 20
-609.9617982283443
 30
0.0
 10
1206.907368124257
 20
-609.5461555883193
 30
0.0
 10
1206.832255232292
 20
-609.3362600297141
 30
0.0
  0
ARC
  5
2A8
330
1F
100
AcDbEntity
  8
0
  6
SLD-Сплошная
 62
     7
370
    35
100
AcDbCircle
 10
1209.5720875626
 20
-609.1
 30
0.0
 40
2.750000000000146
100
AcDbArc
 50
175.0714870831
 51
184.9285129169
  0
LINE
  5
2A9
330
1F
100
AcDbEntity
  8
0
  6
SLD-Сплошная
 62
     7
370
    35
100
AcDbLine
 10
1206.8322552323
 20
-447.1
 30
0.0
 11
1202.4577386319
 21
-447.1
 31
0.0
  0
LINE
  5
2AA
330
1F
100
AcDbEntity
  8
0
  6
SLD-Сплошная
 62
     7
370
    35
100
AcDbLine
 10
1202.4577386319
 20
-629.1
 30
0.0
 11
1206.8322552323
 21
-629.1
 31
0.0
  0
LINE
  5
2AB
330
1F
100
AcDbEntity
  8
0
  6
SLD-Сплошная
 62
     7
370
    35
100
AcDbLine
 10
1208.3878901509
 20
-447.1
 30
0.0
 11
1206.8322552323
 21
-447.1
 31
0.0
  0
SPLINE
  5
2AC
330
1F
100
AcDbEntity
  8
0
  6
SLD-Сплошная
 62
     7
370
    35
100
AcDbSpline
210
0.0
220
0.0
230
1.0
 70
     8
 71
     3
 72
    11
 73
     7
 74
     0
 42
0.000000001
 43
0.00000001
 40
0.0
 40
0.0
 40
0.0
 40
0.0
 40
0.1999256775961943
 40
0.4255600785814936
 40
0.6896360664550081
 40
1.0
 40
1.0
 40
1.0
 40
1.0
 10
1206.832255232292
 20
-608.8637399702865
 30
0.0
 10
1206.881718537231
 20
-608.6893446213808
 30
0.0
 10
1206.98700570289
 20
-608.3181281809672
 30
0.0
 10
1207.362046037482
 20
-607.8126036953373
 30
0.0
 10
1207.869500556033
 20
-607.3170295034405
 30
0.0
 10
1208.206053879654
 20
-607.0318109748729
 30
0.0
 10
1208.387890150902
 20
-606.8777103611351
 30
0.0
  0
LINE
  5
2AD
330
1F
100
AcDbEntity
  8
0
  6
SLD-Сплошная
 62
     7
370
    35
100
AcDbLine
 10
1200.2577386319
 20
-629.1
 30
0.0
 11
1202.4577386319
 21
-629.1
 31
0.0
  0
LINE
  5
2AE
330
1F
100
AcDbEntity
  8
0
  6
SLD-Сплошная
 62
     7
370
    35
100
AcDbLine
 10
1202.4577386319
 20
-447.1
 30
0.0
 11
1200.2577386319
 21
-447.1
 31
0.0
  0
LINE
  5
2AF
330
1F
100
AcDbEntity
  8
0
  6
SLD-Сплошная
 62
     7
370
    35
100
AcDbLine
 10
1200.2577386319
 20
-629.1
 30
0.0
 11
1200.2577386319
 21
-447.1
 31
0.0
  0
LINE
  5
2B0
330
1F
100
AcDbEntity
  8
0
  6
SLD-Сплошная
 62
     7
370
    35
100
AcDbLine
 10
1200.2577386319
 20
-441.7956777624
 30
0.0
 11
1201.4577386319
 21
-441.7956777624
 31
0.0
  0
LINE
  5
2B1
330
1F
100
AcDbEntity
  8
0
  6
SLD-Сплошная
 62
     7
370
    35
100
AcDbLine
 10
1200.2577386319
 20
-438.1498645641
 30
0.0
 11
1200.2577386319
 21
-441.7956777624
 31
0.0
  0
LINE
  5
2B2
330
1F
100
AcDbEntity
  8
0
  6
SLD-Сплошная
 62
     7
370
    35
100
AcDbLine
 10
1201.4577386319
 20
-441.7956777624
 30
0.0
 11
1201.4577386319
 21
-438.1498645641
 31
0.0
  0
ARC
  5
2B3
330
1F
100
AcDbEntity
  8
0
  6
SLD-Сплошная
 62
     7
370
    35
100
AcDbCircle
 10
1210.1128843722
 20
-451.6560692778
 30
0.0
 40
4.927633568713048
100
AcDbArc
 50
354.831212758
 51
64.1056628133
  0
ARC
  5
2B4
330
1F
100
AcDbEntity
  8
0
  6
SLD-Сплошная
 62
     7
370
    35
100
AcDbCircle
 10
1210.1128843722
 20
-624.5439307222
 30
0.0
 40
4.927633568713065
100
AcDbArc
 50
295.8943371867
 51
5.168787242
  0
LINE
  5
2B5
330
1F
100
AcDbEntity
  8
0
  6
SLD-Сплошная
 62
     7
370
    35
100
AcDbLine
 10
1215.0204803317
 20
-624.1
 30
0.0
 11
1215.0204803317
 21
-452.1
 31
0.0
  0
ARC
  5
2B6
330
1F
100
AcDbEntity
  8
0
  6
SLD-Сплошная
 62
     7
370
    35
100
AcDbCircle
 10
1210.9614125096
 20
-451.6560692778
 30
0.0
 40
4.927633568713048
100
AcDbArc
 50
354.831212758
 51
64.1056628133
  0
LINE
  5
2B7
330
1F
100
AcDbEntity
  8
0
  6
SLD-Сплошная
 62
     7
370
    35
100
AcDbLine
 10
1213.1133735505
 20
-447.2231654591
 30
0.0
 11
1212.2648454131
 21
-447.2231654591
 31
0.0
  0
ARC
  5
2B8
330
1F
100
AcDbEntity
  8
0
  6
SLD-Сплошная
 62
     7
370
    35
100
AcDbCircle
 10
1210.9614125096
 20
-624.5439307222
 30
0.0
 40
4.927633568713468
100
AcDbArc
 50
295.8943371867
 51
5.168787242
  0
LINE
  5
2B9
330
1F
100
AcDbEntity
  8
0
  6
SLD-Сплошная
 62
     7
370
    35
100
AcDbLine
 10
1212.2648454131
 20
-628.9768345409
 30
0.0
 11
1213.1133735505
 21
-628.9768345409
 31
0.0
  0
LINE
  5
2BA
330
1F
100
AcDbEntity
  8
0
  6
SLD-Сплошная
 62
     7
370
    35
100
AcDbLine
 10
1215.8690084691
 20
-624.1
 30
0.0
 11
1215.8690084691
 21
-452.1
 31
0.0
  0
ARC
  5
2BB
330
1F
100
AcDbEntity
  8
0
  6
SLD-Сплошная
 62
     7
370
    35
100
AcDbCircle
 10
1209.5433995784
 20
-610.2859622437
 30
0.0
 40
1.552152217751525
100
AcDbArc
 50
221.8875833935
 51
327.3738309362
  0
LINE
  5
2BC
330
1F
100
AcDbEntity
  8
0
  6
SLD-Сплошная
 62
     7
370
    35
100
AcDbLine
 10
1208.3878901509
 20
-629.1
 30
0.0
 11
1210.8506318507
 21
-629.1
 31
0.0
  0
ARC
  5
2BD
330
1F
100
AcDbEntity
  8
0
  6
SLD-Сплошная
 62
     7
370
    35
100
AcDbCircle
 10
1209.5433995784
 20
-607.9140377563
 30
0.0
 40
1.552152217751272
100
AcDbArc
 50
32.6261690638
 51
138.1124166065
  0
ARC
  5
2BE
330
1F
100
AcDbEntity
  8
0
  6
SLD-Сплошная
 62
     7
370
    35
100
AcDbCircle
 10
1208.5327956476
 20
-608.1287135762
 30
0.0
 40
1.806813692906934
100
AcDbArc
 50
35.589840476
 51
71.4019907505
  0
LINE
  5
2BF
330
1F
100
AcDbEntity
  8
0
  6
SLD-Сплошная
 62
     7
370
    35
100
AcDbLine
 10
1210.0021037133
 20
-607.0771863398
 30
0.0
 11
1210.8506318507
 21
-607.0771863398
 31
0.0
  0
LINE
  5
2C0
330
1F
100
AcDbEntity
  8
0
  6
SLD-Сплошная
 62
     7
370
    35
100
AcDbLine
 10
1210.8506318507
 20
-447.1
 30
0.0
 11
1208.3878901509
 21
-447.1
 31
0.0
  0
ARC
  5
2C1
330
1F
100
AcDbEntity
  8
0
  6
SLD-Сплошная
 62
     7
370
    35
100
AcDbCircle
 10
1208.5327956437
 20
-610.0712864195
 30
0.0
 40
1.806813698575791
100
AcDbArc
 50
288.5980099832
 51
324.4101594866
  0
LINE
  5
2C2
330
1F
100
AcDbEntity
  8
0
  6
SLD-Сплошная
 62
     7
370
    35
100
AcDbLine
 10
1210.8506318507
 20
-611.1228136602
 30
0.0
 11
1210.0021037133
 21
-611.1228136602
 31
0.0
  0
LINE
  5
2C3
330
1F
100
AcDbEntity
  8
0
  6
SLD-Сплошная
 62
     7
370
    35
100
AcDbLine
 10
1201.4577386319
 20
-446.6048861143
 30
0.0
 11
1200.2577386319
 21
-446.6048861143
 31
0.0
  0
LINE
  5
2C4
330
1F
100
AcDbEntity
  8
0
  6
SLD-Сплошная
 62
     7
370
    35
100
AcDbLine
 10
1200.2577386319
 20
-446.6048861143
 30
0.0
 11
1200.2577386319
 21
-441.7956777624
 31
0.0
  0
LINE
  5
2C5
330
1F
100
AcDbEntity
  8
0
  6
SLD-Сплошная
 62
     7
370
    35
100
AcDbLine
 10
1201.4577386319
 20
-441.7956777624
 30
0.0
 11
1201.4577386319
 21
-446.6048861143
 31
0.0
  0
LINE
  5
2C6
330
1F
100
AcDbEntity
  8
0
  6
SLD-Сплошная
 62
     7
370
    35
100
AcDbLine
 10
1200.2577386319
 20
-446.6048861143
 30
0.0
 11
1200.2577386319
 21
-447.1
 31
0.0
  0
LINE
  5
2C7
330
1F
100
AcDbEntity
  8
0
  6
SLD-Сплошная
 62
     7
370
    35
100
AcDbLine
 10
1201.4577386319
 20
-446.6048861143
 30
0.0
 11
1201.4577386319
 21
-447.1
 31
0.0
  0
LINE
  5
2C8
330
1F
100
AcDbEntity
  8
0
  6
SLD-Сплошная
 62
     7
370
    35
100
AcDbLine
 10
1200.2577386319
 20
-654.1
 30
0.0
 11
1200.2577386319
 21
-629.1
 31
0.0
  0
LINE
  5
2C9
330
1F
100
AcDbEntity
  8
0
  6
SLD-Сплошная
 62
     7
370
    35
100
AcDbLine
 10
1201.4577386319
 20
-654.1
 30
0.0
 11
1201.4577386319
 21
-629.1
 31
0.0
  0
LINE
  5
2CA
330
1F
100
AcDbEntity
  8
0
  6
SLD-Сплошная
 62
     7
370
    35
100
AcDbLine
 10
1200.2577386319
 20
-659.1
 30
0.0
 11
1201.4577386319
 21
-659.1
 31
0.0
  0
LINE
  5
2CB
330
1F
100
AcDbEntity
  8
0
  6
SLD-Сплошная
 62
     7
370
    35
100
AcDbLine
 10
1200.2577386319
 20
-654.1
 30
0.0
 11
1200.2577386319
 21
-659.1
 31
0.0
  0
LINE
  5
2CC
330
1F
100
AcDbEntity
  8
0
  6
SLD-Сплошная
 62
     7
370
    35
100
AcDbLine
 10
1201.4577386319
 20
-659.1
 30
0.0
 11
1201.4577386319
 21
-654.1
 31
0.0
  0
SPLINE
  5
2CD
330
1F
100
AcDbEntity
  8
0
  6
SLD-Сплошная
 62
     7
370
    35
100
AcDbSpline
210
0.0
220
0.0
230
1.0
 70
     8
 71
     3
 72
    15
 73
    11
 74
     0
 42
0.000000001
 43
0.00000001
 40
0.0
 40
0.0
 40
0.0
 40
0.0
 40
0.1475044205081508
 40
0.2753044498706089
 40
0.3901463070105812
 40
0.5012838998772032
 40
0.603572410076571
 40
0.7157382211234209
 40
0.8461103176461963
 40
1.0
 40
1.0
 40
1.0
 40
1.0
 10
1210.002103713276
 20
-607.0771863397762
 30
0.0
 10
1210.159678173512
 20
-607.2205001350363
 30
0.0
 10
1210.453777495683
 20
-607.4879831394577
 30
0.0
 10
1210.872535304594
 20
-607.9860889622854
 30
0.0
 10
1211.137820732322
 20
-608.5263054790194
 30
0.0
 10
1211.228994021132
 20
-609.0834531488717
 30
0.0
 10
1211.139429561224
 20
-609.6362042163066
 30
0.0
 10
1210.870342868517
 20
-610.1576495436404
 30
0.0
 10
1210.453017461442
 20
-610.6675853892332
 30
0.0
 10
1210.160475827977
 20
-610.9629261778808
 30
0.0
 10
1210.002103713276
 20
-611.1228136602244
 30
0.0
  0
SPLINE
  5
2CE
330
1F
100
AcDbEntity
  8
0
  6
SLD-Сплошная
 62
     7
370
    35
100
AcDbSpline
210
0.0
220
0.0
230
1.0
 70
     8
 71
     3
 72
    11
 73
     7
 74
     0
 42
0.000000001
 43
0.00000001
 40
0.0
 40
0.0
 40
0.0
 40
0.0
 40
0.2452493600099351
 40
0.5001890705419868
 40
0.7413618287573693
 40
1.0
 40
1.0
 40
1.0
 40
1.0
 10
1210.8506318507
 20
-607.0771863397762
 30
0.0
 10
1210.997031252405
 20
-607.3833471634936
 30
0.0
 10
1211.295614623485
 20
-608.0077659095624
 30
0.0
 10
1211.447642203122
 20
-609.0800530211612
 30
0.0
 10
1211.282203262389
 20
-610.1632522980794
 30
0.0
 10
1210.997801701091
 20
-610.7955943442928
 30
0.0
 10
1210.8506318507
 20
-611.1228136602244
 30
0.0
  0
SPLINE
  5
2CF
330
1F
100
AcDbEntity
  8
0
  6
SLD-Сплошная
 62
     7
370
    35
100
AcDbSpline
210
0.0
220
0.0
230
1.0
 70
     8
 71
     3
 72
    11
 73
     7
 74
     0
 42
0.000000001
 43
0.00000001
 40
0.0
 40
0.0
 40
0.0
 40
0.0
 40
0.2500000000000016
 40
0.5000000000000021
 40
0.7500000000000011
 40
0.9999999999999999
 40
0.9999999999999999
 40
0.9999999999999999
 40
0.9999999999999999
 10
1213.113373550497
 20
-447.2231654591178
 30
0.0
 10
1213.007493186119
 20
-447.2129016708581
 30
0.0
 10
1212.795732457364
 20
-447.1923740943384
 30
0.0
 10
1212.416398957376
 20
-447.1615827295591
 30
0.0
 10
1212.009272247951
 20
-447.1307913647797
 30
0.0
 10
1211.725769253631
 20
-447.1102637882602
 30
0.0
 10
1211.584017756472
 20
-447.1000000000005
 30
0.0
  0
SPLINE
  5
2D0
330
1F
100
AcDbEntity
  8
0
  6
SLD-Сплошная
 62
     7
370
    35
100
AcDbSpline
210
0.0
220
0.0
230
1.0
 70
     8
 71
     3
 72
    11
 73
     7
 74
     0
 42
0.000000001
 43
0.00000001
 40
0.0
 40
0.0
 40
0.0
 40
0.0
 40
0.2500000000000173
 40
0.5000000000000113
 40
0.750000000000011
 40
1.0
 40
1.0
 40
1.0
 40
1.0
 10
1212.264845413073
 20
-447.2231654591178
 30
0.0
 10
1212.216717974719
 20
-447.212901670858
 30
0.0
 10
1212.120463098013
 20
-447.1923740943384
 30
0.0
 10
1211.948038779836
 20
-447.1615827295591
 30
0.0
 10
1211.762981184643
 20
-447.1307913647797
 30
0.0
 10
1211.634116187225
 20
-447.1102637882602
 30
0.0
 10
1211.569683688516
 20
-447.1000000000005
 30
0.0
  0
LINE
  5
2D1
330
1F
100
AcDbEntity
  8
0
  6
SLD-Сплошная
 62
     7
370
    35
100
AcDbLine
 10
1210.8506318507
 20
-629.1
 30
0.0
 11
1211.5696836885
 21
-629.1
 31
0.0
  0
SPLINE
  5
2D2
330
1F
100
AcDbEntity
  8
0
  6
SLD-Сплошная
 62
     7
370
    35
100
AcDbSpline
210
0.0
220
0.0
230
1.0
 70
     8
 71
     3
 72
    11
 73
     7
 74
     0
 42
0.000000001
 43
0.00000001
 40
0.0
 40
0.0
 40
0.0
 40
0.0
 40
0.2500000000000077
 40
0.5000000000000098
 40
0.7500000000000013
 40
0.9999999999999999
 40
0.9999999999999999
 40
0.9999999999999999
 40
0.9999999999999999
 10
1211.569683688516
 20
-629.1000000000004
 30
0.0
 10
1211.634116187225
 20
-629.0897362117406
 30
0.0
 10
1211.762981184643
 20
-629.069208635221
 30
0.0
 10
1211.948038779836
 20
-629.0384172704415
 30
0.0
 10
1212.120463098013
 20
-629.0076259056624
 30
0.0
 10
1212.216717974719
 20
-628.9870983291428
 30
0.0
 10
1212.264845413073
 20
-628.976834540883
 30
0.0
  0
LINE
  5
2D3
330
1F
100
AcDbEntity
  8
0
  6
SLD-Сплошная
 62
     7
370
    35
100
AcDbLine
 10
1211.5696836885
 20
-447.1
 30
0.0
 11
1210.8506318507
 21
-447.1
 31
0.0
  0
SPLINE
  5
2D4
330
1F
100
AcDbEntity
  8
0
  6
SLD-Сплошная
 62
     7
370
    35
100
AcDbSpline
210
0.0
220
0.0
230
1.0
 70
     8
 71
     3
 72
    11
 73
     7
 74
     0
 42
0.000000001
 43
0.00000001
 40
0.0
 40
0.0
 40
0.0
 40
0.0
 40
0.2500000000000024
 40
0.5000000000000019
 40
0.749999999999998
 40
1.0
 40
1.0
 40
1.0
 40
1.0
 10
1211.584017756471
 20
-629.1000000000004
 30
0.0
 10
1211.725769253631
 20
-629.0897362117405
 30
0.0
 10
1212.009272247951
 20
-629.0692086352211
 30
0.0
 10
1212.416398957376
 20
-629.0384172704416
 30
0.0
 10
1212.795732457364
 20
-629.0076259056622
 30
0.0
 10
1213.007493186119
 20
-628.9870983291428
 30
0.0
 10
1213.113373550497
 20
-628.976834540883
 30
0.0
  0
LINE
  5
2D5
330
1F
100
AcDbEntity
  8
0
  6
SLD-Сплошная
 62
     7
370
    35
100
AcDbLine
 10
1199.2577386319
 20
-637.1000008432
 30
0.0
 11
1199.2577386319
 21
-651.1
 31
0.0
  0
LINE
  5
2D6
330
1F
100
AcDbEntity
  8
0
  6
SLD-Сплошная
 62
     7
370
    35
100
AcDbLine
 10
1202.057738632
 20
-647.35
 30
0.0
 11
1202.057738632
 21
-640.85
 31
0.0
  0
ARC
  5
2D7
330
1F
100
AcDbEntity
  8
0
  6
SLD-Сплошная
 62
     7
370
    35
100
AcDbCircle
 10
1043.2544155877
 20
-1199.9577386319
 30
0.0
 40
0.2999999999999545
100
AcDbArc
 50
270.0
 51
315.0
  0
ARC
  5
2D8
330
1F
100
AcDbEntity
  8
0
  6
SLD-Сплошная
 62
     7
370
    35
100
AcDbCircle
 10
1060.7455844123
 20
-1199.9577386319
 30
0.0
 40
0.2999999999999545
100
AcDbArc
 50
225.0
 51
270.0
  0
ARC
  5
2D9
330
1F
100
AcDbEntity
  8
0
  6
SLD-Сплошная
 62
     7
370
    35
100
AcDbCircle
 10
-1060.7455844123
 20
-1199.9577386319
 30
0.0
 40
0.2999999999999545
100
AcDbArc
 50
270.0
 51
315.0
  0
ARC
  5
2DA
330
1F
100
AcDbEntity
  8
0
  6
SLD-Сплошная
 62
     7
370
    35
100
AcDbCircle
 10
-1043.2544155877
 20
-1199.9577386319
 30
0.0
 40
0.2999999999999545
100
AcDbArc
 50
225.0
 51
270.0
  0
LINE
  5
2DB
330
1F
100
AcDbEntity
  8
0
  6
SLD-Сплошная
 62
     7
370
    35
100
AcDbLine
 10
1043.4665476221
 20
-1200.1698706662
 30
0.0
 11
1043.9393398282
 21
-1199.6970784601
 31
0.0
  0
LINE
  5
2DC
330
1F
100
AcDbEntity
  8
0
  6
SLD-Сплошная
 62
     7
370
    35
100
AcDbLine
 10
1060.0606601718
 20
-1199.6970784601
 30
0.0
 11
1060.5334523779
 21
-1200.1698706662
 31
0.0
  0
LINE
  5
2DD
330
1F
100
AcDbEntity
  8
0
  6
SLD-Сплошная
 62
     7
370
    35
100
AcDbLine
 10
-1060.5334523779
 20
-1200.1698706662
 30
0.0
 11
-1060.0606601718
 21
-1199.6970784601
 31
0.0
  0
LINE
  5
2DE
330
1F
100
AcDbEntity
  8
0
  6
SLD-Сплошная
 62
     7
370
    35
100
AcDbLine
 10
-1043.9393398282
 20
-1199.6970784601
 30
0.0
 11
-1043.4665476221
 21
-1200.1698706662
 31
0.0
  0
ARC
  5
2DF
330
1F
100
AcDbEntity
  8
0
  6
SLD-Сплошная
 62
     7
370
    35
100
AcDbCircle
 10
1059.0
 20
-1200.7577386319
 30
0.0
 40
1.500000000000227
100
AcDbArc
 50
45.0
 51
90.0
  0
ARC
  5
2E0
330
1F
100
AcDbEntity
  8
0
  6
SLD-Сплошная
 62
     7
370
    35
100
AcDbCircle
 10
1045.0
 20
-1200.7577386319
 30
0.0
 40
1.500000000000227
100
AcDbArc
 50
90.0
 51
135.0
  0
ARC
  5
2E1
330
1F
100
AcDbEntity
  8
0
  6
SLD-Сплошная
 62
     7
370
    35
100
AcDbCircle
 10
-1045.0
 20
-1200.7577386319
 30
0.0
 40
1.500000000000227
100
AcDbArc
 50
45.0
 51
90.0
  0
ARC
  5
2E2
330
1F
100
AcDbEntity
  8
0
  6
SLD-Сплошная
 62
     7
370
    35
100
AcDbCircle
 10
-1059.0
 20
-1200.7577386319
 30
0.0
 40
1.500000000000227
100
AcDbArc
 50
90.0
 51
135.0
  0
LINE
  5
2E3
330
1F
100
AcDbEntity
  8
0
  6
SLD-Сплошная
 62
     7
370
    35
100
AcDbLine
 10
1055.25
 20
-1201.4577386319
 30
0.0
 11
1055.25
 21
-1202.057738632
 31
0.0
  0
LINE
  5
2E4
330
1F
100
AcDbEntity
  8
0
  6
SLD-Сплошная
 62
     7
370
    35
100
AcDbLine
 10
1048.75
 20
-1202.057738632
 30
0.0
 11
1048.75
 21
-1201.4577386319
 31
0.0
  0
LINE
  5
2E5
330
1F
100
AcDbEntity
  8
0
  6
SLD-Сплошная
 62
     7
370
    35
100
AcDbLine
 10
-1048.75
 20
-1201.4577386319
 30
0.0
 11
-1048.75
 21
-1202.057738632
 31
0.0
  0
LINE
  5
2E6
330
1F
100
AcDbEntity
  8
0
  6
SLD-Сплошная
 62
     7
370
    35
100
AcDbLine
 10
-1055.25
 20
-1202.057738632
 30
0.0
 11
-1055.25
 21
-1201.4577386319
 31
0.0
  0
ARC
  5
2E7
330
1F
100
AcDbEntity
  8
0
  6
SLD-Сплошная
 62
     7
370
    35
100
AcDbCircle
 10
500.0
 20
-1192.4577386319
 30
0.0
 40
5.899999999999968
100
AcDbArc
 50
167.583438977
 51
192.416561023
  0
LWPOLYLINE
  5
2E8
330
1F
100
AcDbEntity
  8
0
  6
SLD-Сплошная
 62
     7
370
    35
100
AcDbPolyline
 90
        3
 70
   128
 43
0.0
 10
505.7619999999
 20
-1191.1891346745
 10
505.8973030142
 20
-1192.6361122821
 10
505.762
 20
-1193.7263425892
  0
ARC
  5
2E9
330
1F
100
AcDbEntity
  8
0
  6
SLD-Сплошная
 62
     7
370
    35
100
AcDbCircle
 10
-100.0
 20
-1192.4577386319
 30
0.0
 40
5.899999999999998
100
AcDbArc
 50
167.5834389735
 51
192.4165610263
  0
LWPOLYLINE
  5
2EA
330
1F
100
AcDbEntity
  8
0
  6
SLD-Сплошная
 62
     7
370
    35
100
AcDbPolyline
 90
        3
 70
   128
 43
0.0
 10
-94.2379999999
 20
-1191.1891346751
 10
-94.1026969858
 20
-1192.6361122821
 10
-94.2379999999
 20
-1193.7263425887
  0
ARC
  5
2EB
330
1F
100
AcDbEntity
  8
0
  6
SLD-Сплошная
 62
     7
370
    35
100
AcDbCircle
 10
-500.0
 20
-1192.4577386319
 30
0.0
 40
5.900000000000017
100
AcDbArc
 50
167.5834389771
 51
192.416561023
  0
LWPOLYLINE
  5
2EC
330
1F
100
AcDbEntity
  8
0
  6
SLD-Сплошная
 62
     7
370
    35
100
AcDbPolyline
 90
        3
 70
   128
 43
0.0
 10
-494.238
 20
-1191.1891346747
 10
-494.1026969858
 20
-1192.6361122821
 10
-494.238
 20
-1193.726342589
  0
ARC
  5
2ED
330
1F
100
AcDbEntity
  8
0
  6
SLD-Сплошная
 62
     7
370
    35
100
AcDbCircle
 10
100.0
 20
-1192.4577386319
 30
0.0
 40
5.900000000000034
100
AcDbArc
 50
167.5834389755
 51
192.4165610244
  0
LWPOLYLINE
  5
2EE
330
1F
100
AcDbEntity
  8
0
  6
SLD-Сплошная
 62
     7
370
    35
100
AcDbPolyline
 90
        3
 70
   128
 43
0.0
 10
105.762
 20
-1191.1891346746
 10
105.8973030142
 20
-1192.6361122821
 10
105.762
 20
-1193.7263425892
  0
ARC
  5
2EF
330
1F
100
AcDbEntity
  8
0
  6
SLD-Сплошная
 62
     7
370
    35
100
AcDbCircle
 10
300.0
 20
-1192.4577386319
 30
0.0
 40
5.900000000000046
100
AcDbArc
 50
167.5834389746
 51
192.4165610254
  0
LWPOLYLINE
  5
2F0
330
1F
100
AcDbEntity
  8
0
  6
SLD-Сплошная
 62
     7
370
    35
100
AcDbPolyline
 90
        3
 70
   128
 43
0.0
 10
305.7619999999
 20
-1191.1891346745
 10
305.8973030142
 20
-1192.6361122821
 10
305.7619999999
 20
-1193.7263425893
  0
ARC
  5
2F1
330
1F
100
AcDbEntity
  8
0
  6
SLD-Сплошная
 62
     7
370
    35
100
AcDbCircle
 10
-300.0
 20
-1192.4577386319
 30
0.0
 40
5.900000000000028
100
AcDbArc
 50
167.5834389754
 51
192.4165610246
  0
LWPOLYLINE
  5
2F2
330
1F
100
AcDbEntity
  8
0
  6
SLD-Сплошная
 62
     7
370
    35
100
AcDbPolyline
 90
        3
 70
   128
 43
0.0
 10
-294.238
 20
-1191.189134675
 10
-294.1026969858
 20
-1192.6361122821
 10
-294.238
 20
-1193.7263425888
  0
LINE
  5
2F3
330
1F
100
AcDbEntity
  8
0
  6
SLD-Сплошная
 62
     7
370
    35
100
AcDbLine
 10
3.25
 20
-1201.4577386319
 30
0.0
 11
3.25
 21
-1202.057738632
 31
0.0
  0
LINE
  5
2F4
330
1F
100
AcDbEntity
  8
0
  6
SLD-Сплошная
 62
     7
370
    35
100
AcDbLine
 10
-3.25
 20
-1202.057738632
 30
0.0
 11
-3.25
 21
-1201.4577386319
 31
0.0
  0
LINE
  5
2F5
330
1F
100
AcDbEntity
  8
0
  6
SLD-Сплошная
 62
     7
370
    35
100
AcDbLine
 10
1037.0
 20
-1208.3878901509
 30
0.0
 11
1037.0
 21
-1206.8322552323
 31
0.0
  0
SPLINE
  5
2F6
330
1F
100
AcDbEntity
  8
0
  6
SLD-Сплошная
 62
     7
370
    35
100
AcDbSpline
210
0.0
220
0.0
230
1.0
 70
     8
 71
     3
 72
    15
 73
    11
 74
     0
 42
0.000000001
 43
0.00000001
 40
0.0
 40
0.0
 40
0.0
 40
0.0
 40
0.1546081434542448
 40
0.2840352202988403
 40
0.3937333083315135
 40
0.492668487867827
 40
0.5928369951380678
 40
0.7058429720359518
 40
0.8399293945957973
 40
1.0
 40
1.0
 40
1.0
 40
1.0
 10
1014.872413676285
 20
-1208.387890150903
 30
0.0
 10
1015.034081911982
 20
-1208.210049642285
 30
0.0
 10
1015.331087437794
 20
-1207.883333552727
 30
0.0
 10
1015.850781424874
 20
-1207.406326792965
 30
0.0
 10
1016.386581400495
 20
-1207.099607785366
 30
0.0
 10
1016.947955964025
 20
-1206.992027021697
 30
0.0
 10
1017.514450375875
 20
-1207.101686778443
 30
0.0
 10
1018.068914114355
 20
-1207.407430499316
 30
0.0
 10
1018.622259238458
 20
-1207.883025998095
 30
0.0
 10
1018.949508182884
 20
-1208.209975148269
 30
0.0
 10
1019.127586323715
 20
-1208.387890150903
 30
0.0
  0
LINE
  5
2F7
330
1F
100
AcDbEntity
  8
0
  6
SLD-Сплошная
 62
     7
370
    35
100
AcDbLine
 10
855.0
 20
-1206.8322552323
 30
0.0
 11
855.0
 21
-1208.3878901509
 31
0.0
  0
LINE
  5
2F8
330
1F
100
AcDbEntity
  8
0
  6
SLD-Сплошная
 62
     7
370
    35
100
AcDbLine
 10
1037.0
 20
-1206.8322552323
 30
0.0
 11
1037.0
 21
-1202.4577386319
 31
0.0
  0
LINE
  5
2F9
330
1F
100
AcDbEntity
  8
0
  6
SLD-Сплошная
 62
     7
370
    35
100
AcDbLine
 10
855.0
 20
-1206.8322552323
 30
0.0
 11
855.0
 21
-1202.4577386319
 31
0.0
  0
LINE
  5
2FA
330
1F
100
AcDbEntity
  8
0
  6
SLD-Сплошная
 62
     7
370
    35
100
AcDbLine
 10
-1037.0
 20
-1200.2577386319
 30
0.0
 11
-855.0
 21
-1200.2577386319
 31
0.0
  0
LINE
  5
2FB
330
1F
100
AcDbEntity
  8
0
  6
SLD-Сплошная
 62
     7
370
    35
100
AcDbLine
 10
-1037.0
 20
-1200.2577386319
 30
0.0
 11
-1037.0
 21
-1202.4577386319
 31
0.0
  0
LINE
  5
2FC
330
1F
100
AcDbEntity
  8
0
  6
SLD-Сплошная
 62
     7
370
    35
100
AcDbLine
 10
-855.0
 20
-1202.4577386319
 30
0.0
 11
-855.0
 21
-1200.2577386319
 31
0.0
  0
LINE
  5
2FD
330
1F
100
AcDbEntity
  8
0
  6
SLD-Сплошная
 62
     7
370
    35
100
AcDbLine
 10
-855.0
 20
-1206.8322552323
 30
0.0
 11
-855.0
 21
-1202.4577386319
 31
0.0
  0
LINE
  5
2FE
330
1F
100
AcDbEntity
  8
0
  6
SLD-Сплошная
 62
     7
370
    35
100
AcDbLine
 10
-1037.0
 20
-1202.4577386319
 30
0.0
 11
-1037.0
 21
-1206.8322552323
 31
0.0
  0
LINE
  5
2FF
330
1F
100
AcDbEntity
  8
0
  6
SLD-Сплошная
 62
     7
370
    35
100
AcDbLine
 10
1037.0
 20
-1200.2577386319
 30
0.0
 11
855.0
 21
-1200.2577386319
 31
0.0
  0
LINE
  5
300
330
1F
100
AcDbEntity
  8
0
  6
SLD-Сплошная
 62
     7
370
    35
100
AcDbLine
 10
855.0
 20
-1200.2577386319
 30
0.0
 11
855.0
 21
-1202.4577386319
 31
0.0
  0
LINE
  5
301
330
1F
100
AcDbEntity
  8
0
  6
SLD-Сплошная
 62
     7
370
    35
100
AcDbLine
 10
1037.0
 20
-1202.4577386319
 30
0.0
 11
1037.0
 21
-1200.2577386319
 31
0.0
  0
SPLINE
  5
302
330
1F
100
AcDbEntity
  8
0
  6
SLD-Сплошная
 62
     7
370
    35
100
AcDbSpline
210
0.0
220
0.0
230
1.0
 70
     8
 71
     3
 72
    15
 73
    11
 74
     0
 42
0.000000001
 43
0.00000001
 40
0.0
 40
0.0
 40
0.0
 40
0.0
 40
0.154608143454296
 40
0.2840352202989334
 40
0.3937333083316714
 40
0.492668487867921
 40
0.5928369951381378
 40
0.7058429720359773
 40
0.8399293945958007
 40
1.0
 40
1.0
 40
1.0
 40
1.0
 10
-1019.127586323715
 20
-1208.387890150903
 30
0.0
 10
-1018.965918088018
 20
-1208.210049642285
 30
0.0
 10
-1018.668912562206
 20
-1207.883333552727
 30
0.0
 10
-1018.149218575125
 20
-1207.406326792965
 30
0.0
 10
-1017.613418599505
 20
-1207.099607785365
 30
0.0
 10
-1017.052044035975
 20
-1206.992027021696
 30
0.0
 10
-1016.485549624124
 20
-1207.101686778442
 30
0.0
 10
-1015.931085885644
 20
-1207.407430499316
 30
0.0
 10
-1015.377740761541
 20
-1207.883025998095
 30
0.0
 10
-1015.050491817116
 20
-1208.209975148269
 30
0.0
 10
-1014.872413676285
 20
-1208.387890150903
 30
0.0
  0
LINE
  5
303
330
1F
100
AcDbEntity
  8
0
  6
SLD-Сплошная
 62
     7
370
    35
100
AcDbLine
 10
-1037.0
 20
-1206.8322552323
 30
0.0
 11
-1037.0
 21
-1208.3878901509
 31
0.0
  0
LINE
  5
304
330
1F
100
AcDbEntity
  8
0
  6
SLD-Сплошная
 62
     7
370
    35
100
AcDbLine
 10
-855.0
 20
-1208.3878901509
 30
0.0
 11
-855.0
 21
-1206.8322552323
 31
0.0
  0
LINE
  5
305
330
1F
100
AcDbEntity
  8
0
  6
SLD-Сплошная
 62
     7
370
    35
100
AcDbLine
 10
-297.5
 20
-1188.9577386319
 30
0.0
 11
-302.5
 21
-1188.9577386319
 31
0.0
  0
ARC
  5
306
330
1F
100
AcDbEntity
  8
0
  6
SLD-Сплошная
 62
     7
370
    35
100
AcDbCircle
 10
-297.5
 20
-1192.4577386319
 30
0.0
 40
3.5
100
AcDbArc
 50
270.0
 51
90.0
  0
LINE
  5
307
330
1F
100
AcDbEntity
  8
0
  6
SLD-Сплошная
 62
     7
370
    35
100
AcDbLine
 10
-302.5
 20
-1195.9577386319
 30
0.0
 11
-297.5
 21
-1195.9577386319
 31
0.0
  0
ARC
  5
308
330
1F
100
AcDbEntity
  8
0
  6
SLD-Сплошная
 62
     7
370
    35
100
AcDbCircle
 10
-302.5
 20
-1192.4577386319
 30
0.0
 40
3.5
100
AcDbArc
 50
90.0
 51
270.0
  0
LINE
  5
309
330
1F
100
AcDbEntity
  8
0
  6
SLD-Сплошная
 62
     7
370
    35
100
AcDbLine
 10
-97.5
 20
-1188.9577386319
 30
0.0
 11
-102.5
 21
-1188.9577386319
 31
0.0
  0
ARC
  5
30A
330
1F
100
AcDbEntity
  8
0
  6
SLD-Сплошная
 62
     7
370
    35
100
AcDbCircle
 10
-97.5
 20
-1192.4577386319
 30
0.0
 40
3.5
100
AcDbArc
 50
270.0
 51
90.0
  0
LINE
  5
30B
330
1F
100
AcDbEntity
  8
0
  6
SLD-Сплошная
 62
     7
370
    35
100
AcDbLine
 10
-102.5
 20
-1195.9577386319
 30
0.0
 11
-97.5
 21
-1195.9577386319
 31
0.0
  0
ARC
  5
30C
330
1F
100
AcDbEntity
  8
0
  6
SLD-Сплошная
 62
     7
370
    35
100
AcDbCircle
 10
-102.5
 20
-1192.4577386319
 30
0.0
 40
3.5
100
AcDbArc
 50
90.0
 51
270.0
  0
ARC
  5
30D
330
1F
100
AcDbEntity
  8
0
  6
SLD-Сплошная
 62
     7
370
    35
100
AcDbCircle
 10
-845.0
 20
-1191.4577386319
 30
0.0
 40
4.999999999999886
100
AcDbArc
 50
90.0
 51
180.0
  0
LINE
  5
30E
330
1F
100
AcDbEntity
  8
0
  6
SLD-Сплошная
 62
     7
370
    35
100
AcDbLine
 10
-850.0
 20
-1191.4577386319
 30
0.0
 11
-850.0
 21
-1199.2577386319
 31
0.0
  0
LINE
  5
30F
330
1F
100
AcDbEntity
  8
0
  6
SLD-Сплошная
 62
     7
370
    35
100
AcDbLine
 10
850.0
 20
-1199.2577386319
 30
0.0
 11
850.0
 21
-1191.4577386319
 31
0.0
  0
ARC
  5
310
330
1F
100
AcDbEntity
  8
0
  6
SLD-Сплошная
 62
     7
370
    35
100
AcDbCircle
 10
845.0
 20
-1191.4577386319
 30
0.0
 40
4.999999999999886
100
AcDbArc
 50
0.0
 51
90.0
  0
LINE
  5
311
330
1F
100
AcDbEntity
  8
0
  6
SLD-Сплошная
 62
     7
370
    35
100
AcDbLine
 10
845.0
 20
-1186.4577386319
 30
0.0
 11
-845.0
 21
-1186.4577386319
 31
0.0
  0
LINE
  5
312
330
1F
100
AcDbEntity
  8
0
  6
SLD-Сплошная
 62
     7
370
    35
100
AcDbLine
 10
-497.5
 20
-1188.9577386319
 30
0.0
 11
-502.5
 21
-1188.9577386319
 31
0.0
  0
ARC
  5
313
330
1F
100
AcDbEntity
  8
0
  6
SLD-Сплошная
 62
     7
370
    35
100
AcDbCircle
 10
-497.5
 20
-1192.4577386319
 30
0.0
 40
3.5
100
AcDbArc
 50
270.0
 51
90.0
  0
LINE
  5
314
330
1F
100
AcDbEntity
  8
0
  6
SLD-Сплошная
 62
     7
370
    35
100
AcDbLine
 10
-502.5
 20
-1195.9577386319
 30
0.0
 11
-497.5
 21
-1195.9577386319
 31
0.0
  0
ARC
  5
315
330
1F
100
AcDbEntity
  8
0
  6
SLD-Сплошная
 62
     7
370
    35
100
AcDbCircle
 10
-502.5
 20
-1192.4577386319
 30
0.0
 40
3.5
100
AcDbArc
 50
90.0
 51
270.0
  0
ARC
  5
316
330
1F
100
AcDbEntity
  8
0
  6
SLD-Сплошная
 62
     7
370
    35
100
AcDbCircle
 10
497.5
 20
-1192.4577386319
 30
0.0
 40
3.5
100
AcDbArc
 50
90.0
 51
270.0
  0
LINE
  5
317
330
1F
100
AcDbEntity
  8
0
  6
SLD-Сплошная
 62
     7
370
    35
100
AcDbLine
 10
497.5
 20
-1188.9577386319
 30
0.0
 11
502.5
 21
-1188.9577386319
 31
0.0
  0
ARC
  5
318
330
1F
100
AcDbEntity
  8
0
  6
SLD-Сплошная
 62
     7
370
    35
100
AcDbCircle
 10
502.5
 20
-1192.4577386319
 30
0.0
 40
3.5
100
AcDbArc
 50
270.0
 51
90.0
  0
ARC
  5
319
330
1F
100
AcDbEntity
  8
0
  6
SLD-Сплошная
 62
     7
370
    35
100
AcDbCircle
 10
297.5
 20
-1192.4577386319
 30
0.0
 40
3.5
100
AcDbArc
 50
90.0
 51
270.0
  0
LINE
  5
31A
330
1F
100
AcDbEntity
  8
0
  6
SLD-Сплошная
 62
     7
370
    35
100
AcDbLine
 10
297.5
 20
-1188.9577386319
 30
0.0
 11
302.5
 21
-1188.9577386319
 31
0.0
  0
ARC
  5
31B
330
1F
100
AcDbEntity
  8
0
  6
SLD-Сплошная
 62
     7
370
    35
100
AcDbCircle
 10
302.5
 20
-1192.4577386319
 30
0.0
 40
3.5
100
AcDbArc
 50
270.0
 51
90.0
  0
LINE
  5
31C
330
1F
100
AcDbEntity
  8
0
  6
SLD-Сплошная
 62
     7
370
    35
100
AcDbLine
 10
302.5
 20
-1195.9577386319
 30
0.0
 11
297.5
 21
-1195.9577386319
 31
0.0
  0
ARC
  5
31D
330
1F
100
AcDbEntity
  8
0
  6
SLD-Сплошная
 62
     7
370
    35
100
AcDbCircle
 10
97.5
 20
-1192.4577386319
 30
0.0
 40
3.5
100
AcDbArc
 50
90.0
 51
270.0
  0
LINE
  5
31E
330
1F
100
AcDbEntity
  8
0
  6
SLD-Сплошная
 62
     7
370
    35
100
AcDbLine
 10
97.5
 20
-1188.9577386319
 30
0.0
 11
102.5
 21
-1188.9577386319
 31
0.0
  0
ARC
  5
31F
330
1F
100
AcDbEntity
  8
0
  6
SLD-Сплошная
 62
     7
370
    35
100
AcDbCircle
 10
102.5
 20
-1192.4577386319
 30
0.0
 40
3.5
100
AcDbArc
 50
270.0
 51
90.0
  0
LINE
  5
320
330
1F
100
AcDbEntity
  8
0
  6
SLD-Сплошная
 62
     7
370
    35
100
AcDbLine
 10
102.5
 20
-1195.9577386319
 30
0.0
 11
97.5
 21
-1195.9577386319
 31
0.0
  0
LINE
  5
321
330
1F
100
AcDbEntity
  8
0
  6
SLD-Сплошная
 62
     7
370
    35
100
AcDbLine
 10
502.5
 20
-1195.9577386319
 30
0.0
 11
497.5
 21
-1195.9577386319
 31
0.0
  0
LINE
  5
322
330
1F
100
AcDbEntity
  8
0
  6
SLD-Сплошная
 62
     7
370
    35
100
AcDbLine
 10
850.0
 20
-1201.4577386319
 30
0.0
 11
850.0
 21
-1199.2577386319
 31
0.0
  0
LINE
  5
323
330
1F
100
AcDbEntity
  8
0
  6
SLD-Сплошная
 62
     7
370
    35
100
AcDbLine
 10
-850.0
 20
-1201.4577386319
 30
0.0
 11
850.0
 21
-1201.4577386319
 31
0.0
  0
LINE
  5
324
330
1F
100
AcDbEntity
  8
0
  6
SLD-Сплошная
 62
     7
370
    35
100
AcDbLine
 10
-850.0
 20
-1199.2577386319
 30
0.0
 11
-850.0
 21
-1201.4577386319
 31
0.0
  0
ARC
  5
325
330
1F
100
AcDbEntity
  8
0
  6
SLD-Сплошная
 62
     7
370
    35
100
AcDbCircle
 10
1032.4439307222
 20
-1210.1128843722
 30
0.0
 40
4.927633568713486
100
AcDbArc
 50
264.831212758
 51
334.1056628133
  0
ARC
  5
326
330
1F
100
AcDbEntity
  8
0
  6
SLD-Сплошная
 62
     7
370
    35
100
AcDbCircle
 10
859.5560692778
 20
-1210.1128843722
 30
0.0
 40
4.927633568713929
100
AcDbArc
 50
205.8943371867
 51
275.168787242
  0
LINE
  5
327
330
1F
100
AcDbEntity
  8
0
  6
SLD-Сплошная
 62
     7
370
    35
100
AcDbLine
 10
1032.0
 20
-1215.0204803317
 30
0.0
 11
860.0
 21
-1215.0204803317
 31
0.0
  0
ARC
  5
328
330
1F
100
AcDbEntity
  8
0
  6
SLD-Сплошная
 62
     7
370
    35
100
AcDbCircle
 10
859.5560692778
 20
-1210.9614125096
 30
0.0
 40
4.927633568712569
100
AcDbArc
 50
205.8943371867
 51
275.168787242
  0
LINE
  5
329
330
1F
100
AcDbEntity
  8
0
  6
SLD-Сплошная
 62
     7
370
    35
100
AcDbLine
 10
855.1231654591
 20
-1212.2648454131
 30
0.0
 11
855.1231654591
 21
-1213.1133735505
 31
0.0
  0
ARC
  5
32A
330
1F
100
AcDbEntity
  8
0
  6
SLD-Сплошная
 62
     7
370
    35
100
AcDbCircle
 10
1032.4439307222
 20
-1210.9614125096
 30
0.0
 40
4.927633568713301
100
AcDbArc
 50
264.831212758
 51
334.1056628133
  0
LINE
  5
32B
330
1F
100
AcDbEntity
  8
0
  6
SLD-Сплошная
 62
     7
370
    35
100
AcDbLine
 10
1036.8768345409
 20
-1213.1133735505
 30
0.0
 11
1036.8768345409
 21
-1212.2648454131
 31
0.0
  0
ARC
  5
32C
330
1F
100
AcDbEntity
  8
0
  6
SLD-Сплошная
 62
     7
370
    35
100
AcDbCircle
 10
-1032.4439307222
 20
-1210.9614125096
 30
0.0
 40
4.927633568714392
100
AcDbArc
 50
205.8943371867
 51
275.168787242
  0
ARC
  5
32D
330
1F
100
AcDbEntity
  8
0
  6
SLD-Сплошная
 62
     7
370
    35
100
AcDbCircle
 10
-1032.4439307222
 20
-1210.1128843722
 30
0.0
 40
4.927633568714392
100
AcDbArc
 50
205.8943371867
 51
275.168787242
  0
LINE
  5
32E
330
1F
100
AcDbEntity
  8
0
  6
SLD-Сплошная
 62
     7
370
    35
100
AcDbLine
 10
-1036.8768345409
 20
-1212.2648454131
 30
0.0
 11
-1036.8768345409
 21
-1213.1133735505
 31
0.0
  0
ARC
  5
32F
330
1F
100
AcDbEntity
  8
0
  6
SLD-Сплошная
 62
     7
370
    35
100
AcDbCircle
 10
-859.5560692778
 20
-1210.1128843722
 30
0.0
 40
4.927633568713065
100
AcDbArc
 50
264.831212758
 51
334.1056628133
  0
ARC
  5
330
330
1F
100
AcDbEntity
  8
0
  6
SLD-Сплошная
 62
     7
370
    35
100
AcDbCircle
 10
-859.5560692778
 20
-1210.9614125096
 30
0.0
 40
4.927633568712869
100
AcDbArc
 50
264.831212758
 51
334.1056628133
  0
LINE
  5
331
330
1F
100
AcDbEntity
  8
0
  6
SLD-Сплошная
 62
     7
370
    35
100
AcDbLine
 10
-855.1231654591
 20
-1213.1133735505
 30
0.0
 11
-855.1231654591
 21
-1212.2648454131
 31
0.0
  0
LINE
  5
332
330
1F
100
AcDbEntity
  8
0
  6
SLD-Сплошная
 62
     7
370
    35
100
AcDbLine
 10
-1032.0
 20
-1215.0204803317
 30
0.0
 11
-860.0
 21
-1215.0204803317
 31
0.0
  0
LINE
  5
333
330
1F
100
AcDbEntity
  8
0
  6
SLD-Сплошная
 62
     7
370
    35
100
AcDbLine
 10
1032.0
 20
-1215.8690084691
 30
0.0
 11
860.0
 21
-1215.8690084691
 31
0.0
  0
LINE
  5
334
330
1F
100
AcDbEntity
  8
0
  6
SLD-Сплошная
 62
     7
370
    35
100
AcDbLine
 10
-1032.0
 20
-1215.8690084691
 30
0.0
 11
-860.0
 21
-1215.8690084691
 31
0.0
  0
ARC
  5
335
330
1F
100
AcDbEntity
  8
0
  6
SLD-Сплошная
 62
     7
370
    35
100
AcDbCircle
 10
1018.1929139273
 20
-1209.6198547917
 30
0.0
 40
1.546398837498896
100
AcDbArc
 50
307.2597629339
 51
52.8129754467
  0
ARC
  5
336
330
1F
100
AcDbEntity
  8
0
  6
SLD-Сплошная
 62
     7
370
    35
100
AcDbCircle
 10
1017.9937387821
 20
-1208.6273413254
 30
0.0
 40
1.783011301441496
100
AcDbArc
 50
309.5531652118
 51
341.4127854889
  0
LINE
  5
337
330
1F
100
AcDbEntity
  8
0
  6
SLD-Сплошная
 62
     7
370
    35
100
AcDbLine
 10
1019.1291495791
 20
-1210.0021037133
 30
0.0
 11
1019.1291495791
 21
-1210.8506318507
 31
0.0
  0
ARC
  5
338
330
1F
100
AcDbEntity
  8
0
  6
SLD-Сплошная
 62
     7
370
    35
100
AcDbCircle
 10
-1017.9937387456
 20
-1208.6273412932
 30
0.0
 40
1.78301134951086
100
AcDbArc
 50
198.5872208355
 51
230.4468345443
  0
ARC
  5
339
330
1F
100
AcDbEntity
  8
0
  6
SLD-Сплошная
 62
     7
370
    35
100
AcDbCircle
 10
-1018.1929139273
 20
-1209.6198547917
 30
0.0
 40
1.546398837498877
100
AcDbArc
 50
127.1870245533
 51
232.7402370661
  0
LINE
  5
33A
330
1F
100
AcDbEntity
  8
0
  6
SLD-Сплошная
 62
     7
370
    35
100
AcDbLine
 10
-1019.1291495791
 20
-1210.8506318507
 30
0.0
 11
-1019.1291495791
 21
-1210.0021037133
 31
0.0
  0
LINE
  5
33B
330
1F
100
AcDbEntity
  8
0
  6
SLD-Сплошная
 62
     7
370
    35
100
AcDbLine
 10
1037.0
 20
-1210.8506318507
 30
0.0
 11
1037.0
 21
-1208.3878901509
 31
0.0
  0
ARC
  5
33C
330
1F
100
AcDbEntity
  8
0
  6
SLD-Сплошная
 62
     7
370
    35
100
AcDbCircle
 10
1016.0062612182
 20
-1208.6273413251
 30
0.0
 40
1.783011301796659
100
AcDbArc
 50
198.5872145581
 51
230.4468347865
  0
ARC
  5
33D
330
1F
100
AcDbEntity
  8
0
  6
SLD-Сплошная
 62
     7
370
    35
100
AcDbCircle
 10
1015.8070860727
 20
-1209.6198547917
 30
0.0
 40
1.546398837498896
100
AcDbArc
 50
127.1870245533
 51
232.7402370661
  0
LINE
  5
33E
330
1F
100
AcDbEntity
  8
0
  6
SLD-Сплошная
 62
     7
370
    35
100
AcDbLine
 10
1014.8708504209
 20
-1210.8506318507
 30
0.0
 11
1014.8708504209
 21
-1210.0021037133
 31
0.0
  0
ARC
  5
33F
330
1F
100
AcDbEntity
  8
0
  6
SLD-Сплошная
 62
     7
370
    35
100
AcDbCircle
 10
-1015.8070860727
 20
-1209.6198547917
 30
0.0
 40
1.546398837498877
100
AcDbArc
 50
307.2597629339
 51
52.8129754467
  0
ARC
  5
340
330
1F
100
AcDbEntity
  8
0
  6
SLD-Сплошная
 62
     7
370
    35
100
AcDbCircle
 10
-1016.0062612544
 20
-1208.6273412932
 30
0.0
 40
1.783011349492473
100
AcDbArc
 50
309.5531654556
 51
341.4127791664
  0
LINE
  5
341
330
1F
100
AcDbEntity
  8
0
  6
SLD-Сплошная
 62
     7
370
    35
100
AcDbLine
 10
-1014.8708504209
 20
-1210.0021037133
 30
0.0
 11
-1014.8708504209
 21
-1210.8506318507
 31
0.0
  0
LINE
  5
342
330
1F
100
AcDbEntity
  8
0
  6
SLD-Сплошная
 62
     7
370
    35
100
AcDbLine
 10
-855.0
 20
-1210.8506318507
 30
0.0
 11
-855.0
 21
-1208.3878901509
 31
0.0
  0
LINE
  5
343
330
1F
100
AcDbEntity
  8
0
  6
SLD-Сплошная
 62
     7
370
    35
100
AcDbLine
 10
-1037.0
 20
-1208.3878901509
 30
0.0
 11
-1037.0
 21
-1210.8506318507
 31
0.0
  0
LINE
  5
344
330
1F
100
AcDbEntity
  8
0
  6
SLD-Сплошная
 62
     7
370
    35
100
AcDbLine
 10
855.0
 20
-1210.8506318507
 30
0.0
 11
855.0
 21
-1208.3878901509
 31
0.0
  0
LINE
  5
345
330
1F
100
AcDbEntity
  8
0
  6
SLD-Сплошная
 62
     7
370
    35
100
AcDbLine
 10
-850.0
 20
-1200.2577386319
 30
0.0
 11
-855.0
 21
-1200.2577386319
 31
0.0
  0
LINE
  5
346
330
1F
100
AcDbEntity
  8
0
  6
SLD-Сплошная
 62
     7
370
    35
100
AcDbLine
 10
-850.0
 20
-1201.4577386319
 30
0.0
 11
-855.0
 21
-1201.4577386319
 31
0.0
  0
LINE
  5
347
330
1F
100
AcDbEntity
  8
0
  6
SLD-Сплошная
 62
     7
370
    35
100
AcDbLine
 10
1067.0
 20
-1201.4577386319
 30
0.0
 11
1067.0
 21
-1200.2577386319
 31
0.0
  0
LINE
  5
348
330
1F
100
AcDbEntity
  8
0
  6
SLD-Сплошная
 62
     7
370
    35
100
AcDbLine
 10
1067.0
 20
-1200.2577386319
 30
0.0
 11
1062.0
 21
-1200.2577386319
 31
0.0
  0
LINE
  5
349
330
1F
100
AcDbEntity
  8
0
  6
SLD-Сплошная
 62
     7
370
    35
100
AcDbLine
 10
1062.0
 20
-1201.4577386319
 30
0.0
 11
1067.0
 21
-1201.4577386319
 31
0.0
  0
LINE
  5
34A
330
1F
100
AcDbEntity
  8
0
  6
SLD-Сплошная
 62
     7
370
    35
100
AcDbLine
 10
1062.0
 20
-1200.2577386319
 30
0.0
 11
1037.0
 21
-1200.2577386319
 31
0.0
  0
LINE
  5
34B
330
1F
100
AcDbEntity
  8
0
  6
SLD-Сплошная
 62
     7
370
    35
100
AcDbLine
 10
1062.0
 20
-1201.4577386319
 30
0.0
 11
1037.0
 21
-1201.4577386319
 31
0.0
  0
LINE
  5
34C
330
1F
100
AcDbEntity
  8
0
  6
SLD-Сплошная
 62
     7
370
    35
100
AcDbLine
 10
855.0
 20
-1200.2577386319
 30
0.0
 11
850.0
 21
-1200.2577386319
 31
0.0
  0
LINE
  5
34D
330
1F
100
AcDbEntity
  8
0
  6
SLD-Сплошная
 62
     7
370
    35
100
AcDbLine
 10
855.0
 20
-1201.4577386319
 30
0.0
 11
850.0
 21
-1201.4577386319
 31
0.0
  0
LINE
  5
34E
330
1F
100
AcDbEntity
  8
0
  6
SLD-Сплошная
 62
     7
370
    35
100
AcDbLine
 10
-1067.0
 20
-1200.2577386319
 30
0.0
 11
-1067.0
 21
-1201.4577386319
 31
0.0
  0
LINE
  5
34F
330
1F
100
AcDbEntity
  8
0
  6
SLD-Сплошная
 62
     7
370
    35
100
AcDbLine
 10
-1062.0
 20
-1200.2577386319
 30
0.0
 11
-1067.0
 21
-1200.2577386319
 31
0.0
  0
LINE
  5
350
330
1F
100
AcDbEntity
  8
0
  6
SLD-Сплошная
 62
     7
370
    35
100
AcDbLine
 10
-1067.0
 20
-1201.4577386319
 30
0.0
 11
-1062.0
 21
-1201.4577386319
 31
0.0
  0
LINE
  5
351
330
1F
100
AcDbEntity
  8
0
  6
SLD-Сплошная
 62
     7
370
    35
100
AcDbLine
 10
-1062.0
 20
-1200.2577386319
 30
0.0
 11
-1037.0
 21
-1200.2577386319
 31
0.0
  0
LINE
  5
352
330
1F
100
AcDbEntity
  8
0
  6
SLD-Сплошная
 62
     7
370
    35
100
AcDbLine
 10
-1062.0
 20
-1201.4577386319
 30
0.0
 11
-1037.0
 21
-1201.4577386319
 31
0.0
  0
SPLINE
  5
353
330
1F
100
AcDbEntity
  8
0
  6
SLD-Сплошная
 62
     7
370
    35
100
AcDbSpline
210
0.0
220
0.0
230
1.0
 70
     8
 71
     3
 72
     9
 73
     5
 74
     0
 42
0.000000001
 43
0.00000001
 40
0.0
 40
0.0
 40
0.0
 40
0.0
 40
0.5000000000000119
 40
1.0
 40
1.0
 40
1.0
 40
1.0
 10
854.9999999999998
 20
-1211.672214335497
 30
0.0
 10
855.0205275765195
 20
-1211.942138466455
 30
0.0
 10
855.0615827295585
 20
-1212.481986728372
 30
0.0
 10
855.1026378825975
 20
-1212.902911276454
 30
0.0
 10
855.1231654591169
 20
-1213.113373550495
 30
0.0
  0
SPLINE
  5
354
330
1F
100
AcDbEntity
  8
0
  6
SLD-Сплошная
 62
     7
370
    35
100
AcDbSpline
210
0.0
220
0.0
230
1.0
 70
     8
 71
     3
 72
     9
 73
     5
 74
     0
 42
0.000000001
 43
0.00000001
 40
0.0
 40
0.0
 40
0.0
 40
0.0
 40
0.4999999999999956
 40
1.0
 40
1.0
 40
1.0
 40
1.0
 10
854.9999999999998
 20
-1211.609773042617
 30
0.0
 10
855.0205275765195
 20
-1211.732465829417
 30
0.0
 10
855.0615827295583
 20
-1211.977851403015
 30
0.0
 10
855.1026378825975
 20
-1212.169180743052
 30
0.0
 10
855.1231654591169
 20
-1212.264845413071
 30
0.0
  0
LINE
  5
355
330
1F
100
AcDbEntity
  8
0
  6
SLD-Сплошная
 62
     7
370
    35
100
AcDbLine
 10
855.0
 20
-1210.8506318507
 30
0.0
 11
855.0
 21
-1211.6097730426
 31
0.0
  0
SPLINE
  5
356
330
1F
100
AcDbEntity
  8
0
  6
SLD-Сплошная
 62
     7
370
    35
100
AcDbSpline
210
0.0
220
0.0
230
1.0
 70
     8
 71
     3
 72
     9
 73
     5
 74
     0
 42
0.000000001
 43
0.00000001
 40
0.0
 40
0.0
 40
0.0
 40
0.0
 40
0.5000000000000786
 40
1.0
 40
1.0
 40
1.0
 40
1.0
 10
1036.876834540883
 20
-1212.264845413071
 30
0.0
 10
1036.897362117402
 20
-1212.169180743052
 30
0.0
 10
1036.938417270441
 20
-1211.977851403015
 30
0.0
 10
1036.97947242348
 20
-1211.732465829417
 30
0.0
 10
1037.0
 20
-1211.609773042617
 30
0.0
  0
LINE
  5
357
330
1F
100
AcDbEntity
  8
0
  6
SLD-Сплошная
 62
     7
370
    35
100
AcDbLine
 10
1037.0
 20
-1211.6097730426
 30
0.0
 11
1037.0
 21
-1210.8506318507
 31
0.0
  0
SPLINE
  5
358
330
1F
100
AcDbEntity
  8
0
  6
SLD-Сплошная
 62
     7
370
    35
100
AcDbSpline
210
0.0
220
0.0
230
1.0
 70
     8
 71
     3
 72
    11
 73
     7
 74
     0
 42
0.000000001
 43
0.00000001
 40
0.0
 40
0.0
 40
0.0
 40
0.0
 40
0.2476695311055657
 40
0.4998277937302647
 40
0.7446021013268567
 40
1.0
 40
1.0
 40
1.0
 40
1.0
 10
1019.129149579059
 20
-1210.850631850698
 30
0.0
 10
1018.803994667993
 20
-1211.01021929447
 30
0.0
 10
1018.147791779034
 20
-1211.332286524829
 30
0.0
 10
1017.0126047284
 20
-1211.500466168513
 30
0.0
 10
1015.870523483068
 20
-1211.325091799423
 30
0.0
 10
1015.20876003086
 20
-1211.011008860212
 30
0.0
 10
1014.870850420941
 20
-1210.850631850698
 30
0.0
  0
SPLINE
  5
359
330
1F
100
AcDbEntity
  8
0
  6
SLD-Сплошная
 62
     7
370
    35
100
AcDbSpline
210
0.0
220
0.0
230
1.0
 70
     8
 71
     3
 72
     9
 73
     5
 74
     0
 42
0.000000001
 43
0.00000001
 40
0.0
 40
0.0
 40
0.0
 40
0.0
 40
0.500000000000022
 40
1.0
 40
1.0
 40
1.0
 40
1.0
 10
1036.876834540883
 20
-1213.113373550495
 30
0.0
 10
1036.897362117402
 20
-1212.902911276454
 30
0.0
 10
1036.938417270441
 20
-1212.481986728373
 30
0.0
 10
1036.979472423481
 20
-1211.942138466456
 30
0.0
 10
1037.0
 20
-1211.672214335498
 30
0.0
  0
SPLINE
  5
35A
330
1F
100
AcDbEntity
  8
0
  6
SLD-Сплошная
 62
     7
370
    35
100
AcDbSpline
210
0.0
220
0.0
230
1.0
 70
     8
 71
     3
 72
     9
 73
     5
 74
     0
 42
0.000000001
 43
0.00000001
 40
0.0
 40
0.0
 40
0.0
 40
0.0
 40
0.4999999999999893
 40
1.0
 40
1.0
 40
1.0
 40
1.0
 10
-1037.0
 20
-1211.609773042618
 30
0.0
 10
-1036.979472423481
 20
-1211.732465829417
 30
0.0
 10
-1036.938417270442
 20
-1211.977851403015
 30
0.0
 10
-1036.897362117403
 20
-1212.169180743052
 30
0.0
 10
-1036.876834540883
 20
-1212.264845413071
 30
0.0
  0
SPLINE
  5
35B
330
1F
100
AcDbEntity
  8
0
  6
SLD-Сплошная
 62
     7
370
    35
100
AcDbSpline
210
0.0
220
0.0
230
1.0
 70
     8
 71
     3
 72
     9
 73
     5
 74
     0
 42
0.000000001
 43
0.00000001
 40
0.0
 40
0.0
 40
0.0
 40
0.0
 40
0.5000000000000278
 40
0.9999999999999999
 40
0.9999999999999999
 40
0.9999999999999999
 40
0.9999999999999999
 10
-855.1231654591169
 20
-1212.264845413071
 30
0.0
 10
-855.1026378825975
 20
-1212.169180743052
 30
0.0
 10
-855.0615827295584
 20
-1211.977851403015
 30
0.0
 10
-855.0205275765193
 20
-1211.732465829417
 30
0.0
 10
-854.9999999999998
 20
-1211.609773042617
 30
0.0
  0
LINE
  5
35C
330
1F
100
AcDbEntity
  8
0
  6
SLD-Сплошная
 62
     7
370
    35
100
AcDbLine
 10
-855.0
 20
-1211.6097730426
 30
0.0
 11
-855.0
 21
-1210.8506318507
 31
0.0
  0
SPLINE
  5
35D
330
1F
100
AcDbEntity
  8
0
  6
SLD-Сплошная
 62
     7
370
    35
100
AcDbSpline
210
0.0
220
0.0
230
1.0
 70
     8
 71
     3
 72
    11
 73
     7
 74
     0
 42
0.000000001
 43
0.00000001
 40
0.0
 40
0.0
 40
0.0
 40
0.0
 40
0.2476695310968032
 40
0.4998277937295421
 40
0.7446021013181872
 40
1.0
 40
1.0
 40
1.0
 40
1.0
 10
-1014.870850420941
 20
-1210.850631850697
 30
0.0
 10
-1015.196005331997
 20
-1211.010219294459
 30
0.0
 10
-1015.852208220958
 20
-1211.332286524808
 30
0.0
 10
-1016.987395271573
 20
-1211.500466168513
 30
0.0
 10
-1018.129476516924
 20
-1211.325091799443
 30
0.0
 10
-1018.791239969131
 20
-1211.011008860222
 30
0.0
 10
-1019.129149579059
 20
-1210.850631850697
 30
0.0
  0
LINE
  5
35E
330
1F
100
AcDbEntity
  8
0
  6
SLD-Сплошная
 62
     7
370
    35
100
AcDbLine
 10
-1037.0
 20
-1210.8506318507
 30
0.0
 11
-1037.0
 21
-1211.6097730426
 31
0.0
  0
SPLINE
  5
35F
330
1F
100
AcDbEntity
  8
0
  6
SLD-Сплошная
 62
     7
370
    35
100
AcDbSpline
210
0.0
220
0.0
230
1.0
 70
     8
 71
     3
 72
     9
 73
     5
 74
     0
 42
0.000000001
 43
0.00000001
 40
0.0
 40
0.0
 40
0.0
 40
0.0
 40
0.5000000000000043
 40
1.0
 40
1.0
 40
1.0
 40
1.0
 10
-855.1231654591169
 20
-1213.113373550494
 30
0.0
 10
-855.1026378825976
 20
-1212.902911276454
 30
0.0
 10
-855.0615827295584
 20
-1212.481986728372
 30
0.0
 10
-855.0205275765193
 20
-1211.942138466456
 30
0.0
 10
-854.9999999999998
 20
-1211.672214335498
 30
0.0
  0
SPLINE
  5
360
330
1F
100
AcDbEntity
  8
0
  6
SLD-Сплошная
 62
     7
370
    35
100
AcDbSpline
210
0.0
220
0.0
230
1.0
 70
     8
 71
     3
 72
     9
 73
     5
 74
     0
 42
0.000000001
 43
0.00000001
 40
0.0
 40
0.0
 40
0.0
 40
0.0
 40
0.4999999999999936
 40
1.0
 40
1.0
 40
1.0
 40
1.0
 10
-1037.0
 20
-1211.672214335498
 30
0.0
 10
-1036.979472423481
 20
-1211.942138466456
 30
0.0
 10
-1036.938417270442
 20
-1212.481986728373
 30
0.0
 10
-1036.897362117403
 20
-1212.902911276454
 30
0.0
 10
-1036.876834540883
 20
-1213.113373550494
 30
0.0
  0
SPLINE
  5
361
330
1F
100
AcDbEntity
  8
0
  6
SLD-Сплошная
 62
     7
370
    35
100
AcDbSpline
210
0.0
220
0.0
230
1.0
 70
     8
 71
     3
 72
    15
 73
    11
 74
     0
 42
0.000000001
 43
0.00000001
 40
0.0
 40
0.0
 40
0.0
 40
0.0
 40
0.1493602607964652
 40
0.2777329983856272
 40
0.3916592779311364
 40
0.5004688752890972
 40
0.6044785831450534
 40
0.7170072555601819
 40
0.8469247013850755
 40
1.0
 40
1.0
 40
1.0
 40
1.0
 10
1019.129149579059
 20
-1210.002103713274
 30
0.0
 10
1018.975847703098
 20
-1210.17304929942
 30
0.0
 10
1018.690785334823
 20
-1210.490919862499
 30
0.0
 10
1018.165394495602
 20
-1210.948743476664
 30
0.0
 10
1017.599874934213
 20
-1211.239203472025
 30
0.0
 10
1017.010897229589
 20
-1211.338124311764
 30
0.0
 10
1016.424050915633
 20
-1211.241477600992
 30
0.0
 10
1015.8688231077
 20
-1210.948940367497
 30
0.0
 10
1015.335814224586
 20
-1210.491438874461
 30
0.0
 10
1015.034069153021
 20
-1210.173877653407
 30
0.0
 10
1014.870850420941
 20
-1210.002103713274
 30
0.0
  0
SPLINE
  5
362
330
1F
100
AcDbEntity
  8
0
  6
SLD-Сплошная
 62
     7
370
    35
100
AcDbSpline
210
0.0
220
0.0
230
1.0
 70
     8
 71
     3
 72
    15
 73
    11
 74
     0
 42
0.000000001
 43
0.00000001
 40
0.0
 40
0.0
 40
0.0
 40
0.0
 40
0.1493602607880844
 40
0.2777329983745792
 40
0.3916592779225644
 40
0.5004688752862675
 40
0.6044785831366191
 40
0.7170072555494122
 40
0.8469247013769632
 40
1.0
 40
1.0
 40
1.0
 40
1.0
 10
-1014.870850420941
 20
-1210.002103713274
 30
0.0
 10
-1015.024152296894
 20
-1210.173049299409
 30
0.0
 10
-1015.309214665159
 20
-1210.490919862473
 30
0.0
 10
-1015.834605504374
 20
-1210.948743476619
 30
0.0
 10
-1016.400125065768
 20
-1211.239203471981
 30
0.0
 10
-1016.989102770387
 20
-1211.338124311764
 30
0.0
 10
-1017.575949084348
 20
-1211.241477601032
 30
0.0
 10
-1018.131176892276
 20
-1210.948940367538
 30
0.0
 10
-1018.664185775394
 20
-1210.491438874486
 30
0.0
 10
-1018.96593084697
 20
-1210.173877653417
 30
0.0
 10
-1019.129149579059
 20
-1210.002103713274
 30
0.0
  0
LINE
  5
363
330
1F
100
AcDbEntity
  8
0
  6
SLD-Сплошная
 62
     7
370
    35
100
AcDbLine
 10
1045.0
 20
-1199.2577386319
 30
0.0
 11
1059.0
 21
-1199.2577386319
 31
0.0
  0
LINE
  5
364
330
1F
100
AcDbEntity
  8
0
  6
SLD-Сплошная
 62
     7
370
    35
100
AcDbLine
 10
-1045.0
 20
-1199.2577386319
 30
0.0
 11
-1059.0
 21
-1199.2577386319
 31
0.0
  0
LINE
  5
365
330
1F
100
AcDbEntity
  8
0
  6
SLD-Сплошная
 62
     7
370
    35
100
AcDbLine
 10
1048.75
 20
-1202.057738632
 30
0.0
 11
1055.25
 21
-1202.057738632
 31
0.0
  0
LINE
  5
366
330
1F
100
AcDbEntity
  8
0
  6
SLD-Сплошная
 62
     7
370
    35
100
AcDbLine
 10
-1055.25
 20
-1202.057738632
 30
0.0
 11
-1048.75
 21
-1202.057738632
 31
0.0
  0
ARC
  5
367
330
1F
100
AcDbEntity
  8
0
  6
SLD-Сплошная
 62
     7
370
    35
100
AcDbCircle
 10
500.0
 20
-1192.4577386319
 30
0.0
 40
4.000000000000216
100
AcDbArc
 50
318.6675229036
 51
18.6675229036
  0
SPLINE
  5
368
330
1F
100
AcDbEntity
  8
0
  6
SLD-Сплошная
 62
     7
370
    35
100
AcDbSpline
210
0.0
220
0.0
230
1.0
 70
    24
 71
     3
 72
     9
 73
     5
 74
     0
 42
0.000000001
 43
0.00000001
 40
0.0
 40
0.0
 40
0.0
 40
0.0
 40
0.0701852045457404
 40
1.0
 40
1.0
 40
1.0
 40
1.0
 10
503.7895674374187
 20
-1191.177434512836
 30
0.0
 10
503.8070866289978
 20
-1191.229289503342
 30
0.0
 10
504.0567003715574
 20
-1191.968120298832
 30
0.0
 10
504.3013098515704
 20
-1192.692138996067
 30
0.0
 10
504.5287513651951
 20
-1193.365342292942
 30
0.0
  0
SPLINE
  5
369
330
1F
100
AcDbEntity
  8
0
  6
SLD-Сплошная
 62
     7
370
    35
100
AcDbSpline
210
0.0
220
0.0
230
1.0
 70
    24
 71
     3
 72
     9
 73
     5
 74
     0
 42
0.000000001
 43
0.00000001
 40
0.0
 40
0.0
 40
0.0
 40
0.0
 40
0.7789539221069991
 40
1.0
 40
1.0
 40
1.0
 40
1.0
 10
504.5287513651951
 20
-1193.365342292942
 30
0.0
 10
504.1368114887792
 20
-1193.81096840482
 30
0.0
 10
503.6336496645782
 20
-1194.383051167653
 30
0.0
 10
503.1176248677981
 20
-1194.969758817624
 30
0.0
 10
503.0035596103743
 20
-1195.09944824252
 30
0.0
  0
ARC
  5
36A
330
1F
100
AcDbEntity
  8
0
  6
SLD-Сплошная
 62
     7
370
    35
100
AcDbCircle
 10
500.0
 20
-1192.4577386319
 30
0.0
 40
3.999999999999981
100
AcDbArc
 50
298.9550243719
 51
318.6675229036
  0
LINE
  5
36B
330
1F
100
AcDbEntity
  8
0
  6
SLD-Сплошная
 62
     7
370
    35
100
AcDbLine
 10
503.0035596104
 20
-1195.0994482425
 30
0.0
 11
502.1560054403
 21
-1196.0630967308
 31
0.0
  0
ARC
  5
36C
330
1F
100
AcDbEntity
  8
0
  6
SLD-Сплошная
 62
     7
370
    35
100
AcDbCircle
 10
500.0
 20
-1192.4577386319
 30
0.0
 40
4.000000000000216
100
AcDbArc
 50
18.6675229036
 51
61.0449756282
  0
LINE
  5
36D
330
1F
100
AcDbEntity
  8
0
  6
SLD-Сплошная
 62
     7
370
    35
100
AcDbLine
 10
503.0503835096
 20
-1188.9895267327
 30
0.0
 11
503.7895674374
 21
-1191.1774345128
 31
0.0
  0
SPLINE
  5
36E
330
1F
100
AcDbEntity
  8
0
  6
SLD-Сплошная
 62
     7
370
    35
100
AcDbSpline
210
0.0
220
0.0
230
1.0
 70
    24
 71
     3
 72
     9
 73
     5
 74
     0
 42
0.000000001
 43
0.00000001
 40
0.0
 40
0.0
 40
0.0
 40
0.0
 40
0.070185204545524
 40
1.0
 40
1.0
 40
1.0
 40
1.0
 10
496.2104325625799
 20
-1193.738042750933
 30
0.0
 10
496.1929133710009
 20
-1193.686187760427
 30
0.0
 10
495.9432996284404
 20
-1192.947356964937
 30
0.0
 10
495.6986901484273
 20
-1192.223338267701
 30
0.0
 10
495.4712486348029
 20
-1191.550134970826
 30
0.0
  0
ARC
  5
36F
330
1F
100
AcDbEntity
  8
0
  6
SLD-Сплошная
 62
     7
370
    35
100
AcDbCircle
 10
500.0
 20
-1192.4577386319
 30
0.0
 40
4.000000000000814
100
AcDbArc
 50
138.6675229036
 51
198.6675229036
  0
SPLINE
  5
370
330
1F
100
AcDbEntity
  8
0
  6
SLD-Сплошная
 62
     7
370
    35
100
AcDbSpline
210
0.0
220
0.0
230
1.0
 70
    24
 71
     3
 72
     9
 73
     5
 74
     0
 42
0.000000001
 43
0.00000001
 40
0.0
 40
0.0
 40
0.0
 40
0.0
 40
0.1972242043130917
 40
1.0
 40
1.0
 40
1.0
 40
1.0
 10
495.4712486348029
 20
-1191.550134970826
 30
0.0
 10
495.5691624553019
 20
-1191.438809337091
 30
0.0
 10
496.0656219078331
 20
-1190.87434700792
 30
0.0
 10
496.5819470570931
 20
-1190.28729786448
 30
0.0
 10
496.9964403896237
 20
-1189.816029021249
 30
0.0
  0
ARC
  5
371
330
1F
100
AcDbEntity
  8
0
  6
SLD-Сплошная
 62
     7
370
    35
100
AcDbCircle
 10
500.0
 20
-1192.4577386319
 30
0.0
 40
4.000000000000194
100
AcDbArc
 50
198.6675229036
 51
241.0449756281
  0
LINE
  5
372
330
1F
100
AcDbEntity
  8
0
  6
SLD-Сплошная
 62
     7
370
    35
100
AcDbLine
 10
496.9496164904
 20
-1195.925950531
 30
0.0
 11
496.2104325626
 21
-1193.7380427509
 31
0.0
  0
ARC
  5
373
330
1F
100
AcDbEntity
  8
0
  6
SLD-Сплошная
 62
     7
370
    35
100
AcDbCircle
 10
500.0
 20
-1192.4577386319
 30
0.0
 40
4.000000000000814
100
AcDbArc
 50
118.9550243718
 51
138.6675229036
  0
SPLINE
  5
374
330
1F
100
AcDbEntity
  8
0
  6
SLD-Сплошная
 62
     7
370
    35
100
AcDbSpline
210
0.0
220
0.0
230
1.0
 70
    24
 71
     3
 72
     9
 73
     5
 74
     0
 42
0.000000001
 43
0.00000001
 40
0.0
 40
0.0
 40
0.0
 40
0.0
 40
0.398970893473116
 40
1.0
 40
1.0
 40
1.0
 40
1.0
 10
496.9964403896238
 20
-1189.816029021249
 30
0.0
 10
497.1106742782783
 20
-1189.686147866743
 30
0.0
 10
497.3969956378641
 20
-1189.360607441037
 30
0.0
 10
497.6761903882967
 20
-1189.043169796697
 30
0.0
 10
497.8439945596964
 20
-1188.852380532942
 30
0.0
  0
SPLINE
  5
375
330
1F
100
AcDbEntity
  8
0
  6
SLD-Сплошная
 62
     7
370
    35
100
AcDbSpline
210
0.0
220
0.0
230
1.0
 70
     8
 71
     3
 72
    11
 73
     7
 74
     0
 42
0.000000001
 43
0.00000001
 40
0.0
 40
0.0
 40
0.0
 40
0.0
 40
0.1265852332079932
 40
0.4692135075535062
 40
0.7339691201191233
 40
1.0
 40
1.0
 40
1.0
 40
1.0
 10
502.4346082142215
 20
-1196.051204788605
 30
0.0
 10
502.5318397451915
 20
-1195.939106599699
 30
0.0
 10
502.8922478791815
 20
-1195.523592221966
 30
0.0
 10
503.4666914293736
 20
-1194.871396357669
 30
0.0
 10
504.1493519690003
 20
-1194.103897672569
 30
0.0
 10
504.5613221500539
 20
-1193.643834526203
 30
0.0
 10
504.7678021402385
 20
-1193.413250279297
 30
0.0
  0
SPLINE
  5
376
330
1F
100
AcDbEntity
  8
0
  6
SLD-Сплошная
 62
     7
370
    35
100
AcDbSpline
210
0.0
220
0.0
230
1.0
 70
    24
 71
     3
 72
    12
 73
     8
 74
     0
 42
0.000000001
 43
0.00000001
 40
0.0
 40
0.0
 40
0.0
 40
0.0
 40
0.0086674047352108
 40
0.2676326298821417
 40
0.5286616002503323
 40
0.7638461449002582
 40
0.9999999999999999
 40
0.9999999999999999
 40
0.9999999999999999
 40
0.9999999999999999
 10
504.7678021402385
 20
-1193.413250279297
 30
0.0
 10
504.7666854316369
 20
-1193.413026480565
 30
0.0
 10
504.732203638188
 20
-1193.40611601023
 30
0.0
 10
504.6671111931099
 20
-1193.393070882178
 30
0.0
 10
504.5917248133505
 20
-1193.37796275441
 30
0.0
 10
504.5394195589186
 20
-1193.367480297637
 30
0.0
 10
504.5323123018096
 20
-1193.366055937576
 30
0.0
 10
504.5287513651951
 20
-1193.365342292942
 30
0.0
  0
SPLINE
  5
377
330
1F
100
AcDbEntity
  8
0
  6
SLD-Сплошная
 62
     7
370
    35
100
AcDbSpline
210
0.0
220
0.0
230
1.0
 70
     8
 71
     3
 72
    10
 73
     6
 74
     0
 42
0.000000001
 43
0.00000001
 40
0.0
 40
0.0
 40
0.0
 40
0.0
 40
0.1318317034404447
 40
0.6614260061727738
 40
1.0
 40
1.0
 40
1.0
 40
1.0
 10
504.7678021402385
 20
-1193.413250279297
 30
0.0
 10
504.7030831585363
 20
-1193.227217715077
 30
0.0
 10
504.3783750915554
 20
-1192.293855156914
 30
0.0
 10
503.8814920978508
 20
-1190.846078816018
 30
0.0
 10
503.4747096199332
 20
-1189.606764614345
 30
0.0
 10
503.316069908355
 20
-1189.123448694459
 30
0.0
  0
SPLINE
  5
378
330
1F
100
AcDbEntity
  8
0
  6
SLD-Сплошная
 62
     7
370
    35
100
AcDbSpline
210
0.0
220
0.0
230
1.0
 70
     8
 71
     3
 72
    10
 73
     6
 74
     0
 42
0.000000001
 43
0.00000001
 40
0.0
 40
0.0
 40
0.0
 40
0.0
 40
0.1318317034405967
 40
0.6614260061726578
 40
1.0
 40
1.0
 40
1.0
 40
1.0
 10
495.2321978597593
 20
-1191.502226984471
 30
0.0
 10
495.296916841462
 20
-1191.688259548692
 30
0.0
 10
495.6216249084437
 20
-1192.621622106854
 30
0.0
 10
496.1185079021467
 20
-1194.069398447751
 30
0.0
 10
496.5252903800646
 20
-1195.308712649424
 30
0.0
 10
496.6839300916429
 20
-1195.79202856931
 30
0.0
  0
SPLINE
  5
379
330
1F
100
AcDbEntity
  8
0
  6
SLD-Сплошная
 62
     7
370
    35
100
AcDbSpline
210
0.0
220
0.0
230
1.0
 70
    24
 71
     3
 72
    12
 73
     8
 74
     0
 42
0.000000001
 43
0.00000001
 40
0.0
 40
0.0
 40
0.0
 40
0.0
 40
0.2361538550992573
 40
0.4713383997486119
 40
0.7323673701172221
 40
0.991332595262702
 40
0.9999999999999999
 40
0.9999999999999999
 40
0.9999999999999999
 40
0.9999999999999999
 10
495.4712486348029
 20
-1191.550134970826
 30
0.0
 10
495.4676876981884
 20
-1191.549421326193
 30
0.0
 10
495.4605804410796
 20
-1191.547996966132
 30
0.0
 10
495.4082751866486
 20
-1191.537514509359
 30
0.0
 10
495.3328888068861
 20
-1191.522406381591
 30
0.0
 10
495.2677963618152
 20
-1191.509361253541
 30
0.0
 10
495.2333145683612
 20
-1191.502450783204
 30
0.0
 10
495.2321978597593
 20
-1191.502226984471
 30
0.0
  0
SPLINE
  5
37A
330
1F
100
AcDbEntity
  8
0
  6
SLD-Сплошная
 62
     7
370
    35
100
AcDbSpline
210
0.0
220
0.0
230
1.0
 70
     8
 71
     3
 72
     9
 73
     5
 74
     0
 42
0.000000001
 43
0.00000001
 40
0.0
 40
0.0
 40
0.0
 40
0.0
 40
0.4488738627707462
 40
1.0
 40
1.0
 40
1.0
 40
1.0
 10
497.4773476599189
 20
-1188.961590981119
 30
0.0
 10
497.1428282014897
 20
-1189.346121792212
 30
0.0
 10
496.3975866399417
 20
-1190.202778512476
 30
0.0
 10
495.6462687733856
 20
-1191.040523709857
 30
0.0
 10
495.2321978597593
 20
-1191.502226984471
 30
0.0
  0
ARC
  5
37B
330
1F
100
AcDbEntity
  8
0
  6
SLD-Сплошная
 62
     7
370
    35
100
AcDbCircle
 10
-100.0
 20
-1192.4577386319
 30
0.0
 40
4.000000000000242
100
AcDbArc
 50
318.6675229036
 51
18.6675229036
  0
SPLINE
  5
37C
330
1F
100
AcDbEntity
  8
0
  6
SLD-Сплошная
 62
     7
370
    35
100
AcDbSpline
210
0.0
220
0.0
230
1.0
 70
    24
 71
     3
 72
     9
 73
     5
 74
     0
 42
0.000000001
 43
0.00000001
 40
0.0
 40
0.0
 40
0.0
 40
0.0
 40
0.7789539221069991
 40
1.0
 40
1.0
 40
1.0
 40
1.0
 10
-95.47124863480488
 20
-1193.365342292942
 30
0.0
 10
-95.86318851122077
 20
-1193.81096840482
 30
0.0
 10
-96.36635033542174
 20
-1194.383051167653
 30
0.0
 10
-96.88237513220189
 20
-1194.969758817624
 30
0.0
 10
-96.99644038962568
 20
-1195.09944824252
 30
0.0
  0
SPLINE
  5
37D
330
1F
100
AcDbEntity
  8
0
  6
SLD-Сплошная
 62
     7
370
    35
100
AcDbSpline
210
0.0
220
0.0
230
1.0
 70
    24
 71
     3
 72
     9
 73
     5
 74
     0
 42
0.000000001
 43
0.00000001
 40
0.0
 40
0.0
 40
0.0
 40
0.0
 40
0.0701852045457263
 40
1.0
 40
1.0
 40
1.0
 40
1.0
 10
-96.21043256258127
 20
-1191.177434512836
 30
0.0
 10
-96.19291337100233
 20
-1191.229289503342
 30
0.0
 10
-95.94329962844262
 20
-1191.968120298832
 30
0.0
 10
-95.69869014842952
 20
-1192.692138996067
 30
0.0
 10
-95.47124863480488
 20
-1193.365342292942
 30
0.0
  0
LINE
  5
37E
330
1F
100
AcDbEntity
  8
0
  6
SLD-Сплошная
 62
     7
370
    35
100
AcDbLine
 10
-96.9964403896
 20
-1195.0994482425
 30
0.0
 11
-97.7513293429
 21
-1195.9577386319
 31
0.0
  0
ARC
  5
37F
330
1F
100
AcDbEntity
  8
0
  6
SLD-Сплошная
 62
     7
370
    35
100
AcDbCircle
 10
-100.0
 20
-1192.4577386319
 30
0.0
 40
3.999999999999981
100
AcDbArc
 50
298.9550243719
 51
318.6675229036
  0
ARC
  5
380
330
1F
100
AcDbEntity
  8
0
  6
SLD-Сплошная
 62
     7
370
    35
100
AcDbCircle
 10
-100.0
 20
-1192.4577386319
 30
0.0
 40
4.000000000000242
100
AcDbArc
 50
18.6675229036
 51
61.0449756282
  0
LINE
  5
381
330
1F
100
AcDbEntity
  8
0
  6
SLD-Сплошная
 62
     7
370
    35
100
AcDbLine
 10
-96.9496164904
 20
-1188.9895267327
 30
0.0
 11
-96.2104325626
 21
-1191.1774345128
 31
0.0
  0
ARC
  5
382
330
1F
100
AcDbEntity
  8
0
  6
SLD-Сплошная
 62
     7
370
    35
100
AcDbCircle
 10
-100.0
 20
-1192.4577386319
 30
0.0
 40
4.000000000000835
100
AcDbArc
 50
118.9550243718
 51
138.6675229036
  0
SPLINE
  5
383
330
1F
100
AcDbEntity
  8
0
  6
SLD-Сплошная
 62
     7
370
    35
100
AcDbSpline
210
0.0
220
0.0
230
1.0
 70
    24
 71
     3
 72
     9
 73
     5
 74
     0
 42
0.000000001
 43
0.00000001
 40
0.0
 40
0.0
 40
0.0
 40
0.0
 40
0.39897089347313
 40
1.0
 40
1.0
 40
1.0
 40
1.0
 10
-103.0035596103763
 20
-1189.816029021249
 30
0.0
 10
-102.8893257217217
 20
-1189.686147866743
 30
0.0
 10
-102.6030043621355
 20
-1189.360607441037
 30
0.0
 10
-102.3238096117031
 20
-1189.043169796697
 30
0.0
 10
-102.1560054403036
 20
-1188.852380532942
 30
0.0
  0
ARC
  5
384
330
1F
100
AcDbEntity
  8
0
  6
SLD-Сплошная
 62
     7
370
    35
100
AcDbCircle
 10
-100.0
 20
-1192.4577386319
 30
0.0
 40
4.000000000000835
100
AcDbArc
 50
138.6675229036
 51
198.6675229036
  0
ARC
  5
385
330
1F
100
AcDbEntity
  8
0
  6
SLD-Сплошная
 62
     7
370
    35
100
AcDbCircle
 10
-100.0
 20
-1192.4577386319
 30
0.0
 40
4.000000000000207
100
AcDbArc
 50
198.6675229036
 51
241.0449756281
  0
SPLINE
  5
386
330
1F
100
AcDbEntity
  8
0
  6
SLD-Сплошная
 62
     7
370
    35
100
AcDbSpline
210
0.0
220
0.0
230
1.0
 70
    24
 71
     3
 72
     9
 73
     5
 74
     0
 42
0.000000001
 43
0.00000001
 40
0.0
 40
0.0
 40
0.0
 40
0.0
 40
0.070185204545524
 40
1.0
 40
1.0
 40
1.0
 40
1.0
 10
-103.7895674374201
 20
-1193.738042750933
 30
0.0
 10
-103.807086628999
 20
-1193.686187760427
 30
0.0
 10
-104.0567003715593
 20
-1192.947356964937
 30
0.0
 10
-104.3013098515725
 20
-1192.223338267701
 30
0.0
 10
-104.5287513651971
 20
-1191.550134970826
 30
0.0
  0
SPLINE
  5
387
330
1F
100
AcDbEntity
  8
0
  6
SLD-Сплошная
 62
     7
370
    35
100
AcDbSpline
210
0.0
220
0.0
230
1.0
 70
    24
 71
     3
 72
     9
 73
     5
 74
     0
 42
0.000000001
 43
0.00000001
 40
0.0
 40
0.0
 40
0.0
 40
0.0
 40
0.1972242043130917
 40
1.0
 40
1.0
 40
1.0
 40
1.0
 10
-104.5287513651971
 20
-1191.550134970826
 30
0.0
 10
-104.430837544698
 20
-1191.438809337091
 30
0.0
 10
-103.9343780921667
 20
-1190.87434700792
 30
0.0
 10
-103.4180529429067
 20
-1190.28729786448
 30
0.0
 10
-103.0035596103763
 20
-1189.816029021249
 30
0.0
  0
LINE
  5
388
330
1F
100
AcDbEntity
  8
0
  6
SLD-Сплошная
 62
     7
370
    35
100
AcDbLine
 10
-103.0503835096
 20
-1195.925950531
 30
0.0
 11
-103.7895674374
 21
-1193.7380427509
 31
0.0
  0
SPLINE
  5
389
330
1F
100
AcDbEntity
  8
0
  6
SLD-Сплошная
 62
     7
370
    35
100
AcDbSpline
210
0.0
220
0.0
230
1.0
 70
     8
 71
     3
 72
    11
 73
     7
 74
     0
 42
0.000000001
 43
0.00000001
 40
0.0
 40
0.0
 40
0.0
 40
0.0
 40
0.0933699559174592
 40
0.4490281143142448
 40
0.7238521747925172
 40
0.9999999999999999
 40
0.9999999999999999
 40
0.9999999999999999
 40
0.9999999999999999
 10
-97.48082654423278
 20
-1195.953845295637
 30
0.0
 10
-97.41170949879641
 20
-1195.874184854484
 30
0.0
 10
-97.07931674703502
 20
-1195.49108755809
 30
0.0
 10
-96.53323871872499
 20
-1194.871381791169
 30
0.0
 10
-95.85066367573441
 20
-1194.103900935029
 30
0.0
 10
-95.43868307320369
 20
-1193.64383561543
 30
0.0
 10
-95.23219785976144
 20
-1193.413250279297
 30
0.0
  0
SPLINE
  5
38A
330
1F
100
AcDbEntity
  8
0
  6
SLD-Сплошная
 62
     7
370
    35
100
AcDbSpline
210
0.0
220
0.0
230
1.0
 70
    24
 71
     3
 72
    12
 73
     8
 74
     0
 42
0.000000001
 43
0.00000001
 40
0.0
 40
0.0
 40
0.0
 40
0.0
 40
0.0086674047352103
 40
0.2676326298821274
 40
0.5286616002503973
 40
0.7638461449002477
 40
1.0
 40
1.0
 40
1.0
 40
1.0
 10
-95.23219785976138
 20
-1193.413250279297
 30
0.0
 10
-95.23331456836299
 20
-1193.413026480565
 30
0.0
 10
-95.26779636181648
 20
-1193.40611601023
 30
0.0
 10
-95.33288880688862
 20
-1193.393070882177
 30
0.0
 10
-95.40827518664973
 20
-1193.37796275441
 30
0.0
 10
-95.4605804410813
 20
-1193.367480297637
 30
0.0
 10
-95.46768769819042
 20
-1193.366055937576
 30
0.0
 10
-95.47124863480488
 20
-1193.365342292942
 30
0.0
  0
SPLINE
  5
38B
330
1F
100
AcDbEntity
  8
0
  6
SLD-Сплошная
 62
     7
370
    35
100
AcDbSpline
210
0.0
220
0.0
230
1.0
 70
     8
 71
     3
 72
    10
 73
     6
 74
     0
 42
0.000000001
 43
0.00000001
 40
0.0
 40
0.0
 40
0.0
 40
0.0
 40
0.1309609171391832
 40
0.6570570972499401
 40
1.0
 40
1.0
 40
1.0
 40
1.0
 10
-95.23219785976144
 20
-1193.413250279297
 30
0.0
 10
-95.29691749602736
 20
-1193.227217246706
 30
0.0
 10
-95.62162884708492
 20
-1192.293852338629
 30
0.0
 10
-96.12174548672992
 20
-1190.836499687014
 30
0.0
 10
-96.5316086069677
 20
-1189.587718656037
 30
0.0
 10
-96.69335006481089
 20
-1189.094920805965
 30
0.0
  0
SPLINE
  5
38C
330
1F
100
AcDbEntity
  8
0
  6
SLD-Сплошная
 62
     7
370
    35
100
AcDbSpline
210
0.0
220
0.0
230
1.0
 70
     8
 71
     3
 72
    10
 73
     6
 74
     0
 42
0.000000001
 43
0.00000001
 40
0.0
 40
0.0
 40
0.0
 40
0.0
 40
0.1309609171393309
 40
0.657057097249812
 40
1.0
 40
1.0
 40
1.0
 40
1.0
 10
-104.7678021402407
 20
-1191.502226984471
 30
0.0
 10
-104.7030825039745
 20
-1191.688260017064
 30
0.0
 10
-104.3783711529161
 20
-1192.62162492514
 30
0.0
 10
-103.8782545132723
 20
-1194.078977576755
 30
0.0
 10
-103.4683913930344
 20
-1195.327758607732
 30
0.0
 10
-103.3066499351912
 20
-1195.820556457804
 30
0.0
  0
SPLINE
  5
38D
330
1F
100
AcDbEntity
  8
0
  6
SLD-Сплошная
 62
     7
370
    35
100
AcDbSpline
210
0.0
220
0.0
230
1.0
 70
    24
 71
     3
 72
    12
 73
     8
 74
     0
 42
0.000000001
 43
0.00000001
 40
0.0
 40
0.0
 40
0.0
 40
0.0
 40
0.2361538550992303
 40
0.4713383997487066
 40
0.7323673701172193
 40
0.9913325952625807
 40
1.0
 40
1.0
 40
1.0
 40
1.0
 10
-104.5287513651971
 20
-1191.550134970826
 30
0.0
 10
-104.5323123018114
 20
-1191.549421326193
 30
0.0
 10
-104.5394195589202
 20
-1191.547996966132
 30
0.0
 10
-104.5917248133517
 20
-1191.537514509359
 30
0.0
 10
-104.6671111931133
 20
-1191.522406381591
 30
0.0
 10
-104.732203638185
 20
-1191.509361253541
 30
0.0
 10
-104.7666854316388
 20
-1191.502450783204
 30
0.0
 10
-104.7678021402407
 20
-1191.502226984471
 30
0.0
  0
SPLINE
  5
38E
330
1F
100
AcDbEntity
  8
0
  6
SLD-Сплошная
 62
     7
370
    35
100
AcDbSpline
210
0.0
220
0.0
230
1.0
 70
     8
 71
     3
 72
     9
 73
     5
 74
     0
 42
0.000000001
 43
0.00000001
 40
0.0
 40
0.0
 40
0.0
 40
0.0
 40
0.4486782902496353
 40
1.0
 40
1.0
 40
1.0
 40
1.0
 10
-102.5234463950372
 20
-1188.962499625458
 30
0.0
 10
-102.8577016686599
 20
-1189.346725998379
 30
0.0
 10
-103.6026792637131
 20
-1190.20307760101
 30
0.0
 10
-104.3537310083026
 20
-1191.040524389317
 30
0.0
 10
-104.7678021402407
 20
-1191.502226984471
 30
0.0
  0
ARC
  5
38F
330
1F
100
AcDbEntity
  8
0
  6
SLD-Сплошная
 62
     7
370
    35
100
AcDbCircle
 10
-500.0
 20
-1192.4577386319
 30
0.0
 40
3.999999999999981
100
AcDbArc
 50
298.9550243719
 51
318.6675229036
  0
LINE
  5
390
330
1F
100
AcDbEntity
  8
0
  6
SLD-Сплошная
 62
     7
370
    35
100
AcDbLine
 10
-496.9964403896
 20
-1195.0994482425
 30
0.0
 11
-497.7513293429
 21
-1195.9577386319
 31
0.0
  0
ARC
  5
391
330
1F
100
AcDbEntity
  8
0
  6
SLD-Сплошная
 62
     7
370
    35
100
AcDbCircle
 10
-500.0
 20
-1192.4577386319
 30
0.0
 40
4.000000000000269
100
AcDbArc
 50
318.6675229036
 51
18.6675229036
  0
SPLINE
  5
392
330
1F
100
AcDbEntity
  8
0
  6
SLD-Сплошная
 62
     7
370
    35
100
AcDbSpline
210
0.0
220
0.0
230
1.0
 70
    24
 71
     3
 72
     9
 73
     5
 74
     0
 42
0.000000001
 43
0.00000001
 40
0.0
 40
0.0
 40
0.0
 40
0.0
 40
0.0701852045457298
 40
1.0
 40
1.0
 40
1.0
 40
1.0
 10
-496.2104325625812
 20
-1191.177434512836
 30
0.0
 10
-496.1929133710022
 20
-1191.229289503342
 30
0.0
 10
-495.9432996284428
 20
-1191.968120298832
 30
0.0
 10
-495.6986901484295
 20
-1192.692138996067
 30
0.0
 10
-495.4712486348048
 20
-1193.365342292942
 30
0.0
  0
SPLINE
  5
393
330
1F
100
AcDbEntity
  8
0
  6
SLD-Сплошная
 62
     7
370
    35
100
AcDbSpline
210
0.0
220
0.0
230
1.0
 70
    24
 71
     3
 72
     9
 73
     5
 74
     0
 42
0.000000001
 43
0.00000001
 40
0.0
 40
0.0
 40
0.0
 40
0.0
 40
0.778953922107006
 40
1.0
 40
1.0
 40
1.0
 40
1.0
 10
-495.4712486348048
 20
-1193.365342292942
 30
0.0
 10
-495.8631885112207
 20
-1193.81096840482
 30
0.0
 10
-496.3663503354217
 20
-1194.383051167653
 30
0.0
 10
-496.8823751322018
 20
-1194.969758817624
 30
0.0
 10
-496.9964403896255
 20
-1195.09944824252
 30
0.0
  0
ARC
  5
394
330
1F
100
AcDbEntity
  8
0
  6
SLD-Сплошная
 62
     7
370
    35
100
AcDbCircle
 10
-500.0
 20
-1192.4577386319
 30
0.0
 40
4.000000000000269
100
AcDbArc
 50
18.6675229036
 51
61.0449756282
  0
LINE
  5
395
330
1F
100
AcDbEntity
  8
0
  6
SLD-Сплошная
 62
     7
370
    35
100
AcDbLine
 10
-496.9496164904
 20
-1188.9895267327
 30
0.0
 11
-496.2104325626
 21
-1191.1774345128
 31
0.0
  0
ARC
  5
396
330
1F
100
AcDbEntity
  8
0
  6
SLD-Сплошная
 62
     7
370
    35
100
AcDbCircle
 10
-500.0
 20
-1192.4577386319
 30
0.0
 40
4.000000000000814
100
AcDbArc
 50
118.9550243718
 51
138.6675229036
  0
ARC
  5
397
330
1F
100
AcDbEntity
  8
0
  6
SLD-Сплошная
 62
     7
370
    35
100
AcDbCircle
 10
-500.0
 20
-1192.4577386319
 30
0.0
 40
4.000000000000814
100
AcDbArc
 50
138.6675229036
 51
198.6675229036
  0
ARC
  5
398
330
1F
100
AcDbEntity
  8
0
  6
SLD-Сплошная
 62
     7
370
    35
100
AcDbCircle
 10
-500.0
 20
-1192.4577386319
 30
0.0
 40
4.000000000000194
100
AcDbArc
 50
198.6675229036
 51
241.0449756281
  0
SPLINE
  5
399
330
1F
100
AcDbEntity
  8
0
  6
SLD-Сплошная
 62
     7
370
    35
100
AcDbSpline
210
0.0
220
0.0
230
1.0
 70
    24
 71
     3
 72
     9
 73
     5
 74
     0
 42
0.000000001
 43
0.00000001
 40
0.0
 40
0.0
 40
0.0
 40
0.0
 40
0.0701852045455221
 40
1.0
 40
1.0
 40
1.0
 40
1.0
 10
-503.78956743742
 20
-1193.738042750933
 30
0.0
 10
-503.807086628999
 20
-1193.686187760427
 30
0.0
 10
-504.056700371559
 20
-1192.947356964937
 30
0.0
 10
-504.3013098515723
 20
-1192.223338267701
 30
0.0
 10
-504.528751365197
 20
-1191.550134970826
 30
0.0
  0
SPLINE
  5
39A
330
1F
100
AcDbEntity
  8
0
  6
SLD-Сплошная
 62
     7
370
    35
100
AcDbSpline
210
0.0
220
0.0
230
1.0
 70
    24
 71
     3
 72
     9
 73
     5
 74
     0
 42
0.000000001
 43
0.00000001
 40
0.0
 40
0.0
 40
0.0
 40
0.0
 40
0.1972242043130993
 40
1.0
 40
1.0
 40
1.0
 40
1.0
 10
-504.528751365197
 20
-1191.550134970826
 30
0.0
 10
-504.4308375446979
 20
-1191.438809337091
 30
0.0
 10
-503.9343780921665
 20
-1190.87434700792
 30
0.0
 10
-503.4180529429065
 20
-1190.28729786448
 30
0.0
 10
-503.0035596103762
 20
-1189.816029021249
 30
0.0
  0
SPLINE
  5
39B
330
1F
100
AcDbEntity
  8
0
  6
SLD-Сплошная
 62
     7
370
    35
100
AcDbSpline
210
0.0
220
0.0
230
1.0
 70
    24
 71
     3
 72
     9
 73
     5
 74
     0
 42
0.000000001
 43
0.00000001
 40
0.0
 40
0.0
 40
0.0
 40
0.0
 40
0.398970893473125
 40
1.0
 40
1.0
 40
1.0
 40
1.0
 10
-503.0035596103762
 20
-1189.816029021249
 30
0.0
 10
-502.8893257217217
 20
-1189.686147866743
 30
0.0
 10
-502.6030043621356
 20
-1189.360607441037
 30
0.0
 10
-502.323809611703
 20
-1189.043169796697
 30
0.0
 10
-502.1560054403035
 20
-1188.852380532942
 30
0.0
  0
LINE
  5
39C
330
1F
100
AcDbEntity
  8
0
  6
SLD-Сплошная
 62
     7
370
    35
100
AcDbLine
 10
-503.0503835096
 20
-1195.925950531
 30
0.0
 11
-503.7895674374
 21
-1193.7380427509
 31
0.0
  0
SPLINE
  5
39D
330
1F
100
AcDbEntity
  8
0
  6
SLD-Сплошная
 62
     7
370
    35
100
AcDbSpline
210
0.0
220
0.0
230
1.0
 70
     8
 71
     3
 72
    11
 73
     7
 74
     0
 42
0.000000001
 43
0.00000001
 40
0.0
 40
0.0
 40
0.0
 40
0.0
 40
0.1265852332080329
 40
0.4692135075535299
 40
0.7339691201191378
 40
1.0
 40
1.0
 40
1.0
 40
1.0
 10
-497.5653917857786
 20
-1196.051204788605
 30
0.0
 10
-497.4681602548085
 20
-1195.939106599699
 30
0.0
 10
-497.1077521208181
 20
-1195.523592221966
 30
0.0
 10
-496.5333085706262
 20
-1194.871396357669
 30
0.0
 10
-495.8506480309993
 20
-1194.103897672569
 30
0.0
 10
-495.4386778499457
 20
-1193.643834526203
 30
0.0
 10
-495.2321978597614
 20
-1193.413250279297
 30
0.0
  0
SPLINE
  5
39E
330
1F
100
AcDbEntity
  8
0
  6
SLD-Сплошная
 62
     7
370
    35
100
AcDbSpline
210
0.0
220
0.0
230
1.0
 70
    24
 71
     3
 72
    12
 73
     8
 74
     0
 42
0.000000001
 43
0.00000001
 40
0.0
 40
0.0
 40
0.0
 40
0.0
 40
0.008667404735271
 40
0.2676326298822136
 40
0.5286616002503871
 40
0.7638461449002506
 40
1.0
 40
1.0
 40
1.0
 40
1.0
 10
-495.2321978597614
 20
-1193.413250279297
 30
0.0
 10
-495.233314568363
 20
-1193.413026480565
 30
0.0
 10
-495.267796361816
 20
-1193.406116010231
 30
0.0
 10
-495.3328888068888
 20
-1193.393070882177
 30
0.0
 10
-495.4082751866494
 20
-1193.37796275441
 30
0.0
 10
-495.4605804410813
 20
-1193.367480297637
 30
0.0
 10
-495.4676876981903
 20
-1193.366055937576
 30
0.0
 10
-495.4712486348048
 20
-1193.365342292942
 30
0.0
  0
SPLINE
  5
39F
330
1F
100
AcDbEntity
  8
0
  6
SLD-Сплошная
 62
     7
370
    35
100
AcDbSpline
210
0.0
220
0.0
230
1.0
 70
     8
 71
     3
 72
    10
 73
     6
 74
     0
 42
0.000000001
 43
0.00000001
 40
0.0
 40
0.0
 40
0.0
 40
0.0
 40
0.1309609171391825
 40
0.6570570972499415
 40
0.9999999999999999
 40
0.9999999999999999
 40
0.9999999999999999
 40
0.9999999999999999
 10
-495.2321978597614
 20
-1193.413250279297
 30
0.0
 10
-495.2969174960273
 20
-1193.227217246706
 30
0.0
 10
-495.6216288470847
 20
-1192.293852338629
 30
0.0
 10
-496.1217454867298
 20
-1190.836499687014
 30
0.0
 10
-496.5316086069677
 20
-1189.587718656037
 30
0.0
 10
-496.6933500648108
 20
-1189.094920805965
 30
0.0
  0
SPLINE
  5
3A0
330
1F
100
AcDbEntity
  8
0
  6
SLD-Сплошная
 62
     7
370
    35
100
AcDbSpline
210
0.0
220
0.0
230
1.0
 70
     8
 71
     3
 72
    10
 73
     6
 74
     0
 42
0.000000001
 43
0.00000001
 40
0.0
 40
0.0
 40
0.0
 40
0.0
 40
0.1309609171393272
 40
0.657057097249805
 40
1.0
 40
1.0
 40
1.0
 40
1.0
 10
-504.7678021402406
 20
-1191.502226984471
 30
0.0
 10
-504.7030825039743
 20
-1191.688260017064
 30
0.0
 10
-504.378371152916
 20
-1192.62162492514
 30
0.0
 10
-503.8782545132723
 20
-1194.078977576755
 30
0.0
 10
-503.4683913930343
 20
-1195.327758607732
 30
0.0
 10
-503.306649935191
 20
-1195.820556457804
 30
0.0
  0
SPLINE
  5
3A1
330
1F
100
AcDbEntity
  8
0
  6
SLD-Сплошная
 62
     7
370
    35
100
AcDbSpline
210
0.0
220
0.0
230
1.0
 70
    24
 71
     3
 72
    12
 73
     8
 74
     0
 42
0.000000001
 43
0.00000001
 40
0.0
 40
0.0
 40
0.0
 40
0.0
 40
0.2361538550992509
 40
0.4713383997487107
 40
0.7323673701172632
 40
0.9913325952626407
 40
0.9999999999999999
 40
0.9999999999999999
 40
0.9999999999999999
 40
0.9999999999999999
 10
-504.528751365197
 20
-1191.550134970826
 30
0.0
 10
-504.5323123018114
 20
-1191.549421326193
 30
0.0
 10
-504.5394195589201
 20
-1191.547996966132
 30
0.0
 10
-504.5917248133514
 20
-1191.537514509359
 30
0.0
 10
-504.6671111931135
 20
-1191.522406381591
 30
0.0
 10
-504.7322036381844
 20
-1191.509361253541
 30
0.0
 10
-504.7666854316387
 20
-1191.502450783204
 30
0.0
 10
-504.7678021402406
 20
-1191.502226984471
 30
0.0
  0
SPLINE
  5
3A2
330
1F
100
AcDbEntity
  8
0
  6
SLD-Сплошная
 62
     7
370
    35
100
AcDbSpline
210
0.0
220
0.0
230
1.0
 70
     8
 71
     3
 72
     9
 73
     5
 74
     0
 42
0.000000001
 43
0.00000001
 40
0.0
 40
0.0
 40
0.0
 40
0.0
 40
0.4486782902496461
 40
1.0
 40
1.0
 40
1.0
 40
1.0
 10
-502.5234463950371
 20
-1188.962499625457
 30
0.0
 10
-502.8577016686598
 20
-1189.346725998379
 30
0.0
 10
-503.6026792637131
 20
-1190.20307760101
 30
0.0
 10
-504.3537310083026
 20
-1191.040524389317
 30
0.0
 10
-504.7678021402406
 20
-1191.502226984471
 30
0.0
  0
ARC
  5
3A3
330
1F
100
AcDbEntity
  8
0
  6
SLD-Сплошная
 62
     7
370
    35
100
AcDbCircle
 10
100.0
 20
-1192.4577386319
 30
0.0
 40
4.000000000000242
100
AcDbArc
 50
318.6675229036
 51
18.6675229036
  0
SPLINE
  5
3A4
330
1F
100
AcDbEntity
  8
0
  6
SLD-Сплошная
 62
     7
370
    35
100
AcDbSpline
210
0.0
220
0.0
230
1.0
 70
    24
 71
     3
 72
     9
 73
     5
 74
     0
 42
0.000000001
 43
0.00000001
 40
0.0
 40
0.0
 40
0.0
 40
0.0
 40
0.7789539221069991
 40
1.0
 40
1.0
 40
1.0
 40
1.0
 10
104.5287513651951
 20
-1193.365342292942
 30
0.0
 10
104.1368114887792
 20
-1193.81096840482
 30
0.0
 10
103.6336496645781
 20
-1194.383051167653
 30
0.0
 10
103.1176248677982
 20
-1194.969758817624
 30
0.0
 10
103.0035596103743
 20
-1195.09944824252
 30
0.0
  0
SPLINE
  5
3A5
330
1F
100
AcDbEntity
  8
0
  6
SLD-Сплошная
 62
     7
370
    35
100
AcDbSpline
210
0.0
220
0.0
230
1.0
 70
    24
 71
     3
 72
     9
 73
     5
 74
     0
 42
0.000000001
 43
0.00000001
 40
0.0
 40
0.0
 40
0.0
 40
0.0
 40
0.0701852045457263
 40
1.0
 40
1.0
 40
1.0
 40
1.0
 10
103.7895674374187
 20
-1191.177434512836
 30
0.0
 10
103.8070866289976
 20
-1191.229289503342
 30
0.0
 10
104.0567003715577
 20
-1191.968120298832
 30
0.0
 10
104.3013098515707
 20
-1192.692138996067
 30
0.0
 10
104.5287513651951
 20
-1193.365342292942
 30
0.0
  0
LINE
  5
3A6
330
1F
100
AcDbEntity
  8
0
  6
SLD-Сплошная
 62
     7
370
    35
100
AcDbLine
 10
103.0035596104
 20
-1195.0994482425
 30
0.0
 11
102.2486706571
 21
-1195.9577386319
 31
0.0
  0
ARC
  5
3A7
330
1F
100
AcDbEntity
  8
0
  6
SLD-Сплошная
 62
     7
370
    35
100
AcDbCircle
 10
100.0
 20
-1192.4577386319
 30
0.0
 40
3.999999999999974
100
AcDbArc
 50
298.9550243719
 51
318.6675229036
  0
ARC
  5
3A8
330
1F
100
AcDbEntity
  8
0
  6
SLD-Сплошная
 62
     7
370
    35
100
AcDbCircle
 10
100.0
 20
-1192.4577386319
 30
0.0
 40
4.000000000000242
100
AcDbArc
 50
18.6675229036
 51
61.0449756282
  0
LINE
  5
3A9
330
1F
100
AcDbEntity
  8
0
  6
SLD-Сплошная
 62
     7
370
    35
100
AcDbLine
 10
103.0503835096
 20
-1188.9895267327
 30
0.0
 11
103.7895674374
 21
-1191.1774345128
 31
0.0
  0
ARC
  5
3AA
330
1F
100
AcDbEntity
  8
0
  6
SLD-Сплошная
 62
     7
370
    35
100
AcDbCircle
 10
100.0
 20
-1192.4577386319
 30
0.0
 40
4.000000000000207
100
AcDbArc
 50
198.6675229036
 51
241.0449756281
  0
LINE
  5
3AB
330
1F
100
AcDbEntity
  8
0
  6
SLD-Сплошная
 62
     7
370
    35
100
AcDbLine
 10
96.9496164904
 20
-1195.925950531
 30
0.0
 11
96.2104325626
 21
-1193.7380427509
 31
0.0
  0
ARC
  5
3AC
330
1F
100
AcDbEntity
  8
0
  6
SLD-Сплошная
 62
     7
370
    35
100
AcDbCircle
 10
100.0
 20
-1192.4577386319
 30
0.0
 40
4.000000000000835
100
AcDbArc
 50
118.9550243718
 51
138.6675229036
  0
ARC
  5
3AD
330
1F
100
AcDbEntity
  8
0
  6
SLD-Сплошная
 62
     7
370
    35
100
AcDbCircle
 10
100.0
 20
-1192.4577386319
 30
0.0
 40
4.000000000000835
100
AcDbArc
 50
138.6675229036
 51
198.6675229036
  0
SPLINE
  5
3AE
330
1F
100
AcDbEntity
  8
0
  6
SLD-Сплошная
 62
     7
370
    35
100
AcDbSpline
210
0.0
220
0.0
230
1.0
 70
    24
 71
     3
 72
     9
 73
     5
 74
     0
 42
0.000000001
 43
0.00000001
 40
0.0
 40
0.0
 40
0.0
 40
0.0
 40
0.070185204545524
 40
1.0
 40
1.0
 40
1.0
 40
1.0
 10
96.21043256257994
 20
-1193.738042750933
 30
0.0
 10
96.19291337100105
 20
-1193.686187760427
 30
0.0
 10
95.94329962844073
 20
-1192.947356964937
 30
0.0
 10
95.69869014842752
 20
-1192.223338267701
 30
0.0
 10
95.47124863480289
 20
-1191.550134970826
 30
0.0
  0
SPLINE
  5
3AF
330
1F
100
AcDbEntity
  8
0
  6
SLD-Сплошная
 62
     7
370
    35
100
AcDbSpline
210
0.0
220
0.0
230
1.0
 70
    24
 71
     3
 72
     9
 73
     5
 74
     0
 42
0.000000001
 43
0.00000001
 40
0.0
 40
0.0
 40
0.0
 40
0.0
 40
0.1972242043130917
 40
1.0
 40
1.0
 40
1.0
 40
1.0
 10
95.47124863480289
 20
-1191.550134970826
 30
0.0
 10
95.56916245530206
 20
-1191.438809337091
 30
0.0
 10
96.0656219078333
 20
-1190.87434700792
 30
0.0
 10
96.58194705709333
 20
-1190.28729786448
 30
0.0
 10
96.99644038962369
 20
-1189.816029021249
 30
0.0
  0
SPLINE
  5
3B0
330
1F
100
AcDbEntity
  8
0
  6
SLD-Сплошная
 62
     7
370
    35
100
AcDbSpline
210
0.0
220
0.0
230
1.0
 70
    24
 71
     3
 72
     9
 73
     5
 74
     0
 42
0.000000001
 43
0.00000001
 40
0.0
 40
0.0
 40
0.0
 40
0.0
 40
0.39897089347313
 40
1.0
 40
1.0
 40
1.0
 40
1.0
 10
96.99644038962374
 20
-1189.816029021249
 30
0.0
 10
97.11067427827841
 20
-1189.686147866743
 30
0.0
 10
97.39699563786446
 20
-1189.360607441037
 30
0.0
 10
97.67619038829694
 20
-1189.043169796697
 30
0.0
 10
97.84399455969644
 20
-1188.852380532942
 30
0.0
  0
SPLINE
  5
3B1
330
1F
100
AcDbEntity
  8
0
  6
SLD-Сплошная
 62
     7
370
    35
100
AcDbSpline
210
0.0
220
0.0
230
1.0
 70
     8
 71
     3
 72
    11
 73
     7
 74
     0
 42
0.000000001
 43
0.00000001
 40
0.0
 40
0.0
 40
0.0
 40
0.0
 40
0.0936327416456125
 40
0.4491878129135834
 40
0.723932215938078
 40
1.0
 40
1.0
 40
1.0
 40
1.0
 10
102.5185287343344
 20
-1195.954587559842
 30
0.0
 10
102.5878601845133
 20
-1195.874679802055
 30
0.0
 10
102.9204665135032
 20
-1195.491335361593
 30
0.0
 10
103.4667606980104
 20
-1194.8713819128
 30
0.0
 10
104.1493364548997
 20
-1194.103900907787
 30
0.0
 10
104.5613169704107
 20
-1193.643835606335
 30
0.0
 10
104.7678021402386
 20
-1193.413250279297
 30
0.0
  0
SPLINE
  5
3B2
330
1F
100
AcDbEntity
  8
0
  6
SLD-Сплошная
 62
     7
370
    35
100
AcDbSpline
210
0.0
220
0.0
230
1.0
 70
    24
 71
     3
 72
    12
 73
     8
 74
     0
 42
0.000000001
 43
0.00000001
 40
0.0
 40
0.0
 40
0.0
 40
0.0
 40
0.0086674047354526
 40
0.2676326298823411
 40
0.5286616002504889
 40
0.7638461449002507
 40
1.0
 40
1.0
 40
1.0
 40
1.0
 10
104.7678021402386
 20
-1193.413250279297
 30
0.0
 10
104.7666854316369
 20
-1193.413026480565
 30
0.0
 10
104.732203638184
 20
-1193.406116010231
 30
0.0
 10
104.667111193111
 20
-1193.393070882177
 30
0.0
 10
104.5917248133506
 20
-1193.37796275441
 30
0.0
 10
104.5394195589188
 20
-1193.367480297637
 30
0.0
 10
104.5323123018098
 20
-1193.366055937576
 30
0.0
 10
104.5287513651952
 20
-1193.365342292942
 30
0.0
  0
SPLINE
  5
3B3
330
1F
100
AcDbEntity
  8
0
  6
SLD-Сплошная
 62
     7
370
    35
100
AcDbSpline
210
0.0
220
0.0
230
1.0
 70
     8
 71
     3
 72
    10
 73
     6
 74
     0
 42
0.000000001
 43
0.00000001
 40
0.0
 40
0.0
 40
0.0
 40
0.0
 40
0.1318317034404446
 40
0.6614260061727734
 40
1.0
 40
1.0
 40
1.0
 40
1.0
 10
104.7678021402386
 20
-1193.413250279297
 30
0.0
 10
104.7030831585363
 20
-1193.227217715077
 30
0.0
 10
104.3783750915555
 20
-1192.293855156914
 30
0.0
 10
103.8814920978505
 20
-1190.846078816018
 30
0.0
 10
103.4747096199332
 20
-1189.606764614345
 30
0.0
 10
103.316069908355
 20
-1189.123448694459
 30
0.0
  0
SPLINE
  5
3B4
330
1F
100
AcDbEntity
  8
0
  6
SLD-Сплошная
 62
     7
370
    35
100
AcDbSpline
210
0.0
220
0.0
230
1.0
 70
     8
 71
     3
 72
    10
 73
     6
 74
     0
 42
0.000000001
 43
0.00000001
 40
0.0
 40
0.0
 40
0.0
 40
0.0
 40
0.1318317034405941
 40
0.6614260061726648
 40
1.0
 40
1.0
 40
1.0
 40
1.0
 10
95.23219785975934
 20
-1191.502226984471
 30
0.0
 10
95.29691684146185
 20
-1191.688259548692
 30
0.0
 10
95.62162490844356
 20
-1192.621622106854
 30
0.0
 10
96.11850790214704
 20
-1194.069398447751
 30
0.0
 10
96.52529038006469
 20
-1195.308712649424
 30
0.0
 10
96.68393009164289
 20
-1195.79202856931
 30
0.0
  0
SPLINE
  5
3B5
330
1F
100
AcDbEntity
  8
0
  6
SLD-Сплошная
 62
     7
370
    35
100
AcDbSpline
210
0.0
220
0.0
230
1.0
 70
    24
 71
     3
 72
    12
 73
     8
 74
     0
 42
0.000000001
 43
0.00000001
 40
0.0
 40
0.0
 40
0.0
 40
0.0
 40
0.236153855099259
 40
0.471338399748764
 40
0.7323673701173085
 40
0.9913325952627012
 40
1.0
 40
1.0
 40
1.0
 40
1.0
 10
95.47124863480295
 20
-1191.550134970826
 30
0.0
 10
95.46768769818853
 20
-1191.549421326193
 30
0.0
 10
95.4605804410798
 20
-1191.547996966132
 30
0.0
 10
95.4082751866483
 20
-1191.537514509359
 30
0.0
 10
95.33288880688684
 20
-1191.522406381592
 30
0.0
 10
95.26779636181531
 20
-1191.509361253541
 30
0.0
 10
95.23331456836115
 20
-1191.502450783204
 30
0.0
 10
95.23219785975934
 20
-1191.502226984471
 30
0.0
  0
SPLINE
  5
3B6
330
1F
100
AcDbEntity
  8
0
  6
SLD-Сплошная
 62
     7
370
    35
100
AcDbSpline
210
0.0
220
0.0
230
1.0
 70
     8
 71
     3
 72
     9
 73
     5
 74
     0
 42
0.000000001
 43
0.00000001
 40
0.0
 40
0.0
 40
0.0
 40
0.0
 40
0.4488738627707435
 40
1.0
 40
1.0
 40
1.0
 40
1.0
 10
97.47734765991889
 20
-1188.961590981119
 30
0.0
 10
97.14282820148956
 20
-1189.346121792212
 30
0.0
 10
96.39758663994152
 20
-1190.202778512476
 30
0.0
 10
95.64626877338567
 20
-1191.040523709857
 30
0.0
 10
95.23219785975934
 20
-1191.502226984471
 30
0.0
  0
LINE
  5
3B7
330
1F
100
AcDbEntity
  8
0
  6
SLD-Сплошная
 62
     7
370
    35
100
AcDbLine
 10
303.0035596104
 20
-1195.0994482425
 30
0.0
 11
302.2486706571
 21
-1195.9577386319
 31
0.0
  0
ARC
  5
3B8
330
1F
100
AcDbEntity
  8
0
  6
SLD-Сплошная
 62
     7
370
    35
100
AcDbCircle
 10
300.0
 20
-1192.4577386319
 30
0.0
 40
3.999999999999981
100
AcDbArc
 50
298.9550243719
 51
318.6675229036
  0
ARC
  5
3B9
330
1F
100
AcDbEntity
  8
0
  6
SLD-Сплошная
 62
     7
370
    35
100
AcDbCircle
 10
300.0
 20
-1192.4577386319
 30
0.0
 40
4.000000000000162
100
AcDbArc
 50
318.6675229036
 51
18.6675229036
  0
SPLINE
  5
3BA
330
1F
100
AcDbEntity
  8
0
  6
SLD-Сплошная
 62
     7
370
    35
100
AcDbSpline
210
0.0
220
0.0
230
1.0
 70
    24
 71
     3
 72
     9
 73
     5
 74
     0
 42
0.000000001
 43
0.00000001
 40
0.0
 40
0.0
 40
0.0
 40
0.0
 40
0.0701852045457404
 40
1.0
 40
1.0
 40
1.0
 40
1.0
 10
303.7895674374187
 20
-1191.177434512836
 30
0.0
 10
303.8070866289977
 20
-1191.229289503342
 30
0.0
 10
304.0567003715578
 20
-1191.968120298832
 30
0.0
 10
304.3013098515707
 20
-1192.692138996067
 30
0.0
 10
304.5287513651952
 20
-1193.365342292942
 30
0.0
  0
SPLINE
  5
3BB
330
1F
100
AcDbEntity
  8
0
  6
SLD-Сплошная
 62
     7
370
    35
100
AcDbSpline
210
0.0
220
0.0
230
1.0
 70
    24
 71
     3
 72
     9
 73
     5
 74
     0
 42
0.000000001
 43
0.00000001
 40
0.0
 40
0.0
 40
0.0
 40
0.0
 40
0.7789539221069991
 40
1.0
 40
1.0
 40
1.0
 40
1.0
 10
304.5287513651952
 20
-1193.365342292942
 30
0.0
 10
304.1368114887792
 20
-1193.81096840482
 30
0.0
 10
303.6336496645781
 20
-1194.383051167653
 30
0.0
 10
303.1176248677983
 20
-1194.969758817624
 30
0.0
 10
303.0035596103744
 20
-1195.09944824252
 30
0.0
  0
ARC
  5
3BC
330
1F
100
AcDbEntity
  8
0
  6
SLD-Сплошная
 62
     7
370
    35
100
AcDbCircle
 10
300.0
 20
-1192.4577386319
 30
0.0
 40
4.000000000000162
100
AcDbArc
 50
18.6675229036
 51
61.0449756282
  0
LINE
  5
3BD
330
1F
100
AcDbEntity
  8
0
  6
SLD-Сплошная
 62
     7
370
    35
100
AcDbLine
 10
303.0503835096
 20
-1188.9895267327
 30
0.0
 11
303.7895674374
 21
-1191.1774345128
 31
0.0
  0
ARC
  5
3BE
330
1F
100
AcDbEntity
  8
0
  6
SLD-Сплошная
 62
     7
370
    35
100
AcDbCircle
 10
300.0
 20
-1192.4577386319
 30
0.0
 40
4.000000000000194
100
AcDbArc
 50
198.6675229036
 51
241.0449756281
  0
LINE
  5
3BF
330
1F
100
AcDbEntity
  8
0
  6
SLD-Сплошная
 62
     7
370
    35
100
AcDbLine
 10
296.9496164904
 20
-1195.925950531
 30
0.0
 11
296.2104325626
 21
-1193.7380427509
 31
0.0
  0
SPLINE
  5
3C0
330
1F
100
AcDbEntity
  8
0
  6
SLD-Сплошная
 62
     7
370
    35
100
AcDbSpline
210
0.0
220
0.0
230
1.0
 70
    24
 71
     3
 72
     9
 73
     5
 74
     0
 42
0.000000001
 43
0.00000001
 40
0.0
 40
0.0
 40
0.0
 40
0.0
 40
0.070185204545524
 40
1.0
 40
1.0
 40
1.0
 40
1.0
 10
296.21043256258
 20
-1193.738042750933
 30
0.0
 10
296.1929133710011
 20
-1193.686187760427
 30
0.0
 10
295.9432996284406
 20
-1192.947356964937
 30
0.0
 10
295.6986901484273
 20
-1192.223338267701
 30
0.0
 10
295.4712486348029
 20
-1191.550134970826
 30
0.0
  0
ARC
  5
3C1
330
1F
100
AcDbEntity
  8
0
  6
SLD-Сплошная
 62
     7
370
    35
100
AcDbCircle
 10
300.0
 20
-1192.4577386319
 30
0.0
 40
4.000000000000856
100
AcDbArc
 50
138.6675229036
 51
198.6675229036
  0
SPLINE
  5
3C2
330
1F
100
AcDbEntity
  8
0
  6
SLD-Сплошная
 62
     7
370
    35
100
AcDbSpline
210
0.0
220
0.0
230
1.0
 70
    24
 71
     3
 72
     9
 73
     5
 74
     0
 42
0.000000001
 43
0.00000001
 40
0.0
 40
0.0
 40
0.0
 40
0.0
 40
0.1972242043130917
 40
1.0
 40
1.0
 40
1.0
 40
1.0
 10
295.4712486348029
 20
-1191.550134970826
 30
0.0
 10
295.5691624553022
 20
-1191.438809337091
 30
0.0
 10
296.0656219078331
 20
-1190.87434700792
 30
0.0
 10
296.5819470570933
 20
-1190.28729786448
 30
0.0
 10
296.9964403896237
 20
-1189.816029021249
 30
0.0
  0
ARC
  5
3C3
330
1F
100
AcDbEntity
  8
0
  6
SLD-Сплошная
 62
     7
370
    35
100
AcDbCircle
 10
300.0
 20
-1192.4577386319
 30
0.0
 40
4.000000000000856
100
AcDbArc
 50
118.9550243718
 51
138.6675229036
  0
SPLINE
  5
3C4
330
1F
100
AcDbEntity
  8
0
  6
SLD-Сплошная
 62
     7
370
    35
100
AcDbSpline
210
0.0
220
0.0
230
1.0
 70
    24
 71
     3
 72
     9
 73
     5
 74
     0
 42
0.000000001
 43
0.00000001
 40
0.0
 40
0.0
 40
0.0
 40
0.0
 40
0.398970893473116
 40
1.0
 40
1.0
 40
1.0
 40
1.0
 10
296.9964403896238
 20
-1189.816029021249
 30
0.0
 10
297.1106742782784
 20
-1189.686147866743
 30
0.0
 10
297.3969956378643
 20
-1189.360607441037
 30
0.0
 10
297.6761903882967
 20
-1189.043169796697
 30
0.0
 10
297.8439945596965
 20
-1188.852380532942
 30
0.0
  0
SPLINE
  5
3C5
330
1F
100
AcDbEntity
  8
0
  6
SLD-Сплошная
 62
     7
370
    35
100
AcDbSpline
210
0.0
220
0.0
230
1.0
 70
     8
 71
     3
 72
    11
 73
     7
 74
     0
 42
0.000000001
 43
0.00000001
 40
0.0
 40
0.0
 40
0.0
 40
0.0
 40
0.0936327416456337
 40
0.4491878129136047
 40
0.7239322159380777
 40
1.0
 40
1.0
 40
1.0
 40
1.0
 10
302.5185287343344
 20
-1195.954587559842
 30
0.0
 10
302.5878601845132
 20
-1195.874679802055
 30
0.0
 10
302.9204665135034
 20
-1195.491335361593
 30
0.0
 10
303.4667606980103
 20
-1194.8713819128
 30
0.0
 10
304.1493364548997
 20
-1194.103900907787
 30
0.0
 10
304.5613169704106
 20
-1193.643835606335
 30
0.0
 10
304.7678021402386
 20
-1193.413250279297
 30
0.0
  0
SPLINE
  5
3C6
330
1F
100
AcDbEntity
  8
0
  6
SLD-Сплошная
 62
     7
370
    35
100
AcDbSpline
210
0.0
220
0.0
230
1.0
 70
    24
 71
     3
 72
    12
 73
     8
 74
     0
 42
0.000000001
 43
0.00000001
 40
0.0
 40
0.0
 40
0.0
 40
0.0
 40
0.0086674047352108
 40
0.2676326298821417
 40
0.5286616002503323
 40
0.7638461449002582
 40
0.9999999999999999
 40
0.9999999999999999
 40
0.9999999999999999
 40
0.9999999999999999
 10
304.7678021402386
 20
-1193.413250279297
 30
0.0
 10
304.766685431637
 20
-1193.413026480565
 30
0.0
 10
304.7322036381868
 20
-1193.40611601023
 30
0.0
 10
304.6671111931103
 20
-1193.393070882178
 30
0.0
 10
304.5917248133505
 20
-1193.37796275441
 30
0.0
 10
304.5394195589184
 20
-1193.367480297637
 30
0.0
 10
304.5323123018096
 20
-1193.366055937576
 30
0.0
 10
304.5287513651952
 20
-1193.365342292942
 30
0.0
  0
SPLINE
  5
3C7
330
1F
100
AcDbEntity
  8
0
  6
SLD-Сплошная
 62
     7
370
    35
100
AcDbSpline
210
0.0
220
0.0
230
1.0
 70
     8
 71
     3
 72
    10
 73
     6
 74
     0
 42
0.000000001
 43
0.00000001
 40
0.0
 40
0.0
 40
0.0
 40
0.0
 40
0.1318317034404447
 40
0.6614260061727738
 40
1.0
 40
1.0
 40
1.0
 40
1.0
 10
304.7678021402386
 20
-1193.413250279297
 30
0.0
 10
304.7030831585362
 20
-1193.227217715077
 30
0.0
 10
304.3783750915555
 20
-1192.293855156914
 30
0.0
 10
303.8814920978508
 20
-1190.846078816018
 30
0.0
 10
303.4747096199332
 20
-1189.606764614345
 30
0.0
 10
303.316069908355
 20
-1189.123448694459
 30
0.0
  0
SPLINE
  5
3C8
330
1F
100
AcDbEntity
  8
0
  6
SLD-Сплошная
 62
     7
370
    35
100
AcDbSpline
210
0.0
220
0.0
230
1.0
 70
     8
 71
     3
 72
    10
 73
     6
 74
     0
 42
0.000000001
 43
0.00000001
 40
0.0
 40
0.0
 40
0.0
 40
0.0
 40
0.1318317034405967
 40
0.6614260061726578
 40
1.0
 40
1.0
 40
1.0
 40
1.0
 10
295.2321978597593
 20
-1191.502226984471
 30
0.0
 10
295.2969168414619
 20
-1191.688259548692
 30
0.0
 10
295.6216249084437
 20
-1192.621622106854
 30
0.0
 10
296.118507902147
 20
-1194.069398447751
 30
0.0
 10
296.5252903800646
 20
-1195.308712649424
 30
0.0
 10
296.6839300916429
 20
-1195.79202856931
 30
0.0
  0
SPLINE
  5
3C9
330
1F
100
AcDbEntity
  8
0
  6
SLD-Сплошная
 62
     7
370
    35
100
AcDbSpline
210
0.0
220
0.0
230
1.0
 70
    24
 71
     3
 72
    12
 73
     8
 74
     0
 42
0.000000001
 43
0.00000001
 40
0.0
 40
0.0
 40
0.0
 40
0.0
 40
0.2361538550992573
 40
0.4713383997486119
 40
0.7323673701172221
 40
0.991332595262702
 40
0.9999999999999999
 40
0.9999999999999999
 40
0.9999999999999999
 40
0.9999999999999999
 10
295.4712486348029
 20
-1191.550134970826
 30
0.0
 10
295.4676876981886
 20
-1191.549421326193
 30
0.0
 10
295.4605804410796
 20
-1191.547996966132
 30
0.0
 10
295.4082751866487
 20
-1191.537514509359
 30
0.0
 10
295.332888806886
 20
-1191.522406381591
 30
0.0
 10
295.2677963618158
 20
-1191.509361253541
 30
0.0
 10
295.2333145683611
 20
-1191.502450783204
 30
0.0
 10
295.2321978597593
 20
-1191.502226984471
 30
0.0
  0
SPLINE
  5
3CA
330
1F
100
AcDbEntity
  8
0
  6
SLD-Сплошная
 62
     7
370
    35
100
AcDbSpline
210
0.0
220
0.0
230
1.0
 70
     8
 71
     3
 72
     9
 73
     5
 74
     0
 42
0.000000001
 43
0.00000001
 40
0.0
 40
0.0
 40
0.0
 40
0.0
 40
0.4488738627707462
 40
1.0
 40
1.0
 40
1.0
 40
1.0
 10
297.477347659919
 20
-1188.961590981119
 30
0.0
 10
297.1428282014896
 20
-1189.346121792212
 30
0.0
 10
296.3975866399418
 20
-1190.202778512476
 30
0.0
 10
295.6462687733856
 20
-1191.040523709857
 30
0.0
 10
295.2321978597593
 20
-1191.502226984471
 30
0.0
  0
ARC
  5
3CB
330
1F
100
AcDbEntity
  8
0
  6
SLD-Сплошная
 62
     7
370
    35
100
AcDbCircle
 10
-300.0
 20
-1192.4577386319
 30
0.0
 40
4.000000000000269
100
AcDbArc
 50
318.6675229036
 51
18.6675229036
  0
SPLINE
  5
3CC
330
1F
100
AcDbEntity
  8
0
  6
SLD-Сплошная
 62
     7
370
    35
100
AcDbSpline
210
0.0
220
0.0
230
1.0
 70
    24
 71
     3
 72
     9
 73
     5
 74
     0
 42
0.000000001
 43
0.00000001
 40
0.0
 40
0.0
 40
0.0
 40
0.0
 40
0.0701852045457298
 40
1.0
 40
1.0
 40
1.0
 40
1.0
 10
-296.2104325625812
 20
-1191.177434512836
 30
0.0
 10
-296.1929133710023
 20
-1191.229289503342
 30
0.0
 10
-295.9432996284426
 20
-1191.968120298832
 30
0.0
 10
-295.6986901484294
 20
-1192.692138996067
 30
0.0
 10
-295.4712486348049
 20
-1193.365342292942
 30
0.0
  0
SPLINE
  5
3CD
330
1F
100
AcDbEntity
  8
0
  6
SLD-Сплошная
 62
     7
370
    35
100
AcDbSpline
210
0.0
220
0.0
230
1.0
 70
    24
 71
     3
 72
     9
 73
     5
 74
     0
 42
0.000000001
 43
0.00000001
 40
0.0
 40
0.0
 40
0.0
 40
0.0
 40
0.778953922107006
 40
1.0
 40
1.0
 40
1.0
 40
1.0
 10
-295.4712486348049
 20
-1193.365342292942
 30
0.0
 10
-295.8631885112208
 20
-1193.81096840482
 30
0.0
 10
-296.3663503354218
 20
-1194.383051167653
 30
0.0
 10
-296.8823751322018
 20
-1194.969758817624
 30
0.0
 10
-296.9964403896256
 20
-1195.09944824252
 30
0.0
  0
ARC
  5
3CE
330
1F
100
AcDbEntity
  8
0
  6
SLD-Сплошная
 62
     7
370
    35
100
AcDbCircle
 10
-300.0
 20
-1192.4577386319
 30
0.0
 40
3.999999999999981
100
AcDbArc
 50
298.9550243719
 51
318.6675229036
  0
LINE
  5
3CF
330
1F
100
AcDbEntity
  8
0
  6
SLD-Сплошная
 62
     7
370
    35
100
AcDbLine
 10
-296.9964403896
 20
-1195.0994482425
 30
0.0
 11
-297.7513293429
 21
-1195.9577386319
 31
0.0
  0
ARC
  5
3D0
330
1F
100
AcDbEntity
  8
0
  6
SLD-Сплошная
 62
     7
370
    35
100
AcDbCircle
 10
-300.0
 20
-1192.4577386319
 30
0.0
 40
4.000000000000269
100
AcDbArc
 50
18.6675229036
 51
61.0449756282
  0
LINE
  5
3D1
330
1F
100
AcDbEntity
  8
0
  6
SLD-Сплошная
 62
     7
370
    35
100
AcDbLine
 10
-296.9496164904
 20
-1188.9895267327
 30
0.0
 11
-296.2104325626
 21
-1191.1774345128
 31
0.0
  0
ARC
  5
3D2
330
1F
100
AcDbEntity
  8
0
  6
SLD-Сплошная
 62
     7
370
    35
100
AcDbCircle
 10
-300.0
 20
-1192.4577386319
 30
0.0
 40
4.000000000000194
100
AcDbArc
 50
198.6675229036
 51
241.0449756281
  0
LINE
  5
3D3
330
1F
100
AcDbEntity
  8
0
  6
SLD-Сплошная
 62
     7
370
    35
100
AcDbLine
 10
-303.0503835096
 20
-1195.925950531
 30
0.0
 11
-303.7895674374
 21
-1193.7380427509
 31
0.0
  0
SPLINE
  5
3D4
330
1F
100
AcDbEntity
  8
0
  6
SLD-Сплошная
 62
     7
370
    35
100
AcDbSpline
210
0.0
220
0.0
230
1.0
 70
    24
 71
     3
 72
     9
 73
     5
 74
     0
 42
0.000000001
 43
0.00000001
 40
0.0
 40
0.0
 40
0.0
 40
0.0
 40
0.0701852045455221
 40
1.0
 40
1.0
 40
1.0
 40
1.0
 10
-303.78956743742
 20
-1193.738042750933
 30
0.0
 10
-303.8070866289989
 20
-1193.686187760427
 30
0.0
 10
-304.0567003715591
 20
-1192.947356964937
 30
0.0
 10
-304.3013098515723
 20
-1192.223338267701
 30
0.0
 10
-304.5287513651971
 20
-1191.550134970826
 30
0.0
  0
ARC
  5
3D5
330
1F
100
AcDbEntity
  8
0
  6
SLD-Сплошная
 62
     7
370
    35
100
AcDbCircle
 10
-300.0
 20
-1192.4577386319
 30
0.0
 40
4.000000000000814
100
AcDbArc
 50
138.6675229036
 51
198.6675229036
  0
SPLINE
  5
3D6
330
1F
100
AcDbEntity
  8
0
  6
SLD-Сплошная
 62
     7
370
    35
100
AcDbSpline
210
0.0
220
0.0
230
1.0
 70
    24
 71
     3
 72
     9
 73
     5
 74
     0
 42
0.000000001
 43
0.00000001
 40
0.0
 40
0.0
 40
0.0
 40
0.0
 40
0.1972242043130993
 40
1.0
 40
1.0
 40
1.0
 40
1.0
 10
-304.5287513651971
 20
-1191.550134970826
 30
0.0
 10
-304.4308375446979
 20
-1191.438809337091
 30
0.0
 10
-303.9343780921665
 20
-1190.87434700792
 30
0.0
 10
-303.4180529429066
 20
-1190.28729786448
 30
0.0
 10
-303.0035596103763
 20
-1189.816029021249
 30
0.0
  0
ARC
  5
3D7
330
1F
100
AcDbEntity
  8
0
  6
SLD-Сплошная
 62
     7
370
    35
100
AcDbCircle
 10
-300.0
 20
-1192.4577386319
 30
0.0
 40
4.000000000000814
100
AcDbArc
 50
118.9550243718
 51
138.6675229036
  0
SPLINE
  5
3D8
330
1F
100
AcDbEntity
  8
0
  6
SLD-Сплошная
 62
     7
370
    35
100
AcDbSpline
210
0.0
220
0.0
230
1.0
 70
    24
 71
     3
 72
     9
 73
     5
 74
     0
 42
0.000000001
 43
0.00000001
 40
0.0
 40
0.0
 40
0.0
 40
0.0
 40
0.4483176756058421
 40
1.0
 40
1.0
 40
1.0
 40
1.0
 10
-303.0035596103763
 20
-1189.816029021249
 30
0.0
 10
-302.8892789523283
 20
-1189.68609469108
 30
0.0
 10
-302.6343689537574
 20
-1189.396268219274
 30
0.0
 10
-302.3858011312285
 20
-1189.113652647455
 30
0.0
 10
-302.2486706571261
 20
-1188.957738631885
 30
0.0
  0
SPLINE
  5
3D9
330
1F
100
AcDbEntity
  8
0
  6
SLD-Сплошная
 62
     7
370
    35
100
AcDbSpline
210
0.0
220
0.0
230
1.0
 70
     8
 71
     3
 72
    11
 73
     7
 74
     0
 42
0.000000001
 43
0.00000001
 40
0.0
 40
0.0
 40
0.0
 40
0.0
 40
0.0933699559174543
 40
0.4490281143142348
 40
0.723852174792515
 40
1.0
 40
1.0
 40
1.0
 40
1.0
 10
-297.4808265442327
 20
-1195.953845295637
 30
0.0
 10
-297.4117094987964
 20
-1195.874184854484
 30
0.0
 10
-297.079316747035
 20
-1195.49108755809
 30
0.0
 10
-296.533238718725
 20
-1194.871381791169
 30
0.0
 10
-295.8506636757343
 20
-1194.103900935029
 30
0.0
 10
-295.4386830732037
 20
-1193.64383561543
 30
0.0
 10
-295.2321978597614
 20
-1193.413250279297
 30
0.0
  0
SPLINE
  5
3DA
330
1F
100
AcDbEntity
  8
0
  6
SLD-Сплошная
 62
     7
370
    35
100
AcDbSpline
210
0.0
220
0.0
230
1.0
 70
    24
 71
     3
 72
    12
 73
     8
 74
     0
 42
0.000000001
 43
0.00000001
 40
0.0
 40
0.0
 40
0.0
 40
0.0
 40
0.008667404735271
 40
0.2676326298822136
 40
0.5286616002503871
 40
0.7638461449002506
 40
1.0
 40
1.0
 40
1.0
 40
1.0
 10
-295.2321978597614
 20
-1193.413250279297
 30
0.0
 10
-295.233314568363
 20
-1193.413026480565
 30
0.0
 10
-295.2677963618166
 20
-1193.406116010231
 30
0.0
 10
-295.3328888068885
 20
-1193.393070882177
 30
0.0
 10
-295.4082751866496
 20
-1193.37796275441
 30
0.0
 10
-295.4605804410813
 20
-1193.367480297637
 30
0.0
 10
-295.4676876981903
 20
-1193.366055937576
 30
0.0
 10
-295.4712486348049
 20
-1193.365342292942
 30
0.0
  0
SPLINE
  5
3DB
330
1F
100
AcDbEntity
  8
0
  6
SLD-Сплошная
 62
     7
370
    35
100
AcDbSpline
210
0.0
220
0.0
230
1.0
 70
     8
 71
     3
 72
    10
 73
     6
 74
     0
 42
0.000000001
 43
0.00000001
 40
0.0
 40
0.0
 40
0.0
 40
0.0
 40
0.1309609171391824
 40
0.6570570972499407
 40
1.0
 40
1.0
 40
1.0
 40
1.0
 10
-295.2321978597614
 20
-1193.413250279297
 30
0.0
 10
-295.2969174960273
 20
-1193.227217246706
 30
0.0
 10
-295.6216288470848
 20
-1192.293852338629
 30
0.0
 10
-296.1217454867299
 20
-1190.836499687014
 30
0.0
 10
-296.5316086069677
 20
-1189.587718656037
 30
0.0
 10
-296.6933500648108
 20
-1189.094920805965
 30
0.0
  0
SPLINE
  5
3DC
330
1F
100
AcDbEntity
  8
0
  6
SLD-Сплошная
 62
     7
370
    35
100
AcDbSpline
210
0.0
220
0.0
230
1.0
 70
     8
 71
     3
 72
    10
 73
     6
 74
     0
 42
0.000000001
 43
0.00000001
 40
0.0
 40
0.0
 40
0.0
 40
0.0
 40
0.130960917139328
 40
0.6570570972498094
 40
1.0
 40
1.0
 40
1.0
 40
1.0
 10
-304.7678021402407
 20
-1191.502226984471
 30
0.0
 10
-304.7030825039744
 20
-1191.688260017064
 30
0.0
 10
-304.378371152916
 20
-1192.62162492514
 30
0.0
 10
-303.8782545132723
 20
-1194.078977576755
 30
0.0
 10
-303.4683913930344
 20
-1195.327758607732
 30
0.0
 10
-303.3066499351911
 20
-1195.820556457804
 30
0.0
  0
SPLINE
  5
3DD
330
1F
100
AcDbEntity
  8
0
  6
SLD-Сплошная
 62
     7
370
    35
100
AcDbSpline
210
0.0
220
0.0
230
1.0
 70
    24
 71
     3
 72
    12
 73
     8
 74
     0
 42
0.000000001
 43
0.00000001
 40
0.0
 40
0.0
 40
0.0
 40
0.0
 40
0.2361538550992509
 40
0.4713383997487107
 40
0.7323673701172632
 40
0.9913325952626407
 40
0.9999999999999999
 40
0.9999999999999999
 40
0.9999999999999999
 40
0.9999999999999999
 10
-304.5287513651971
 20
-1191.550134970826
 30
0.0
 10
-304.5323123018114
 20
-1191.549421326193
 30
0.0
 10
-304.5394195589201
 20
-1191.547996966132
 30
0.0
 10
-304.5917248133516
 20
-1191.537514509359
 30
0.0
 10
-304.6671111931134
 20
-1191.522406381591
 30
0.0
 10
-304.7322036381846
 20
-1191.509361253541
 30
0.0
 10
-304.7666854316387
 20
-1191.502450783204
 30
0.0
 10
-304.7678021402406
 20
-1191.502226984471
 30
0.0
  0
SPLINE
  5
3DE
330
1F
100
AcDbEntity
  8
0
  6
SLD-Сплошная
 62
     7
370
    35
100
AcDbSpline
210
0.0
220
0.0
230
1.0
 70
     8
 71
     3
 72
     9
 73
     5
 74
     0
 42
0.000000001
 43
0.00000001
 40
0.0
 40
0.0
 40
0.0
 40
0.0
 40
0.455826993470974
 40
0.9999999999999999
 40
0.9999999999999999
 40
0.9999999999999999
 40
0.9999999999999999
 10
-302.4940506814521
 20
-1188.92886184193
 30
0.0
 10
-302.8380859078163
 20
-1189.324358756305
 30
0.0
 10
-303.5928354757266
 20
-1190.192005736498
 30
0.0
 10
-304.3537389881868
 20
-1191.04049955321
 30
0.0
 10
-304.7678021402407
 20
-1191.502226984471
 30
0.0
  0
LINE
  5
3DF
330
1F
100
AcDbEntity
  8
0
  6
SLD-Сплошная
 62
     7
370
    35
100
AcDbLine
 10
247.8000713447
 20
-1211.5696836885
 30
0.0
 11
246.6001569584
 21
-1211.5840177565
 31
0.0
  0
LINE
  5
3E0
330
1F
100
AcDbEntity
  8
0
  6
SLD-Сплошная
 62
     7
370
    35
100
AcDbLine
 10
248.0928932188
 20
-1212.2648454131
 30
0.0
 11
247.2443650814
 21
-1213.1133735505
 31
0.0
  0
SPLINE
  5
3E1
330
1F
100
AcDbEntity
  8
0
  6
SLD-Сплошная
 62
     7
370
    35
100
AcDbSpline
210
0.0
220
0.0
230
1.0
 70
     8
 71
     3
 72
    11
 73
     7
 74
     0
 42
0.000000001
 43
0.00000001
 40
0.0
 40
0.0
 40
0.0
 40
0.0
 40
0.2499999999999956
 40
0.5000000000000039
 40
0.7499999999999837
 40
1.0
 40
1.0
 40
1.0
 40
1.0
 10
247.8000713447339
 20
-1211.569683688514
 30
0.0
 10
247.8044238879872
 20
-1211.634116187224
 30
0.0
 10
247.8131289744936
 20
-1211.762981184642
 30
0.0
 10
247.873423989254
 20
-1211.948038779835
 30
0.0
 10
247.9637105156294
 20
-1212.120463098011
 30
0.0
 10
248.049832317752
 20
-1212.216717974718
 30
0.0
 10
248.0928932188133
 20
-1212.264845413071
 30
0.0
  0
SPLINE
  5
3E2
330
1F
100
AcDbEntity
  8
0
  6
SLD-Сплошная
 62
     7
370
    35
100
AcDbSpline
210
0.0
220
0.0
230
1.0
 70
     8
 71
     3
 72
    11
 73
     7
 74
     0
 42
0.000000001
 43
0.00000001
 40
0.0
 40
0.0
 40
0.0
 40
0.0
 40
0.249999999999992
 40
0.49999999999998
 40
0.7499999999999873
 40
1.0
 40
1.0
 40
1.0
 40
1.0
 10
246.6001569584147
 20
-1211.58401775647
 30
0.0
 10
246.609732553572
 20
-1211.72576925363
 30
0.0
 10
246.6288837438865
 20
-1212.00927224795
 30
0.0
 10
246.7615327763581
 20
-1212.416398957375
 30
0.0
 10
246.9601631343853
 20
-1212.795732457363
 30
0.0
 10
247.1496310990547
 20
-1213.007493186118
 30
0.0
 10
247.2443650813896
 20
-1213.113373550495
 30
0.0
  0
ARC
  5
3E3
330
1F
100
AcDbEntity
  8
0
  6
SLD-Сплошная
 62
     7
370
    35
100
AcDbCircle
 10
248.8
 20
-1211.5577386319
 30
0.0
 40
1.000000000000088
100
AcDbArc
 50
135.0
 51
180.6844176075
  0
ARC
  5
3E4
330
1F
100
AcDbEntity
  8
0
  6
SLD-Сплошная
 62
     7
370
    35
100
AcDbCircle
 10
248.8
 20
-1211.5577386319
 30
0.0
 40
2.200000000000006
100
AcDbArc
 50
135.0
 51
180.6844176075
  0
ARC
  5
3E5
330
1F
100
AcDbEntity
  8
0
  6
SLD-Сплошная
 62
     7
370
    35
100
AcDbCircle
 10
-248.8
 20
-1211.5577386319
 30
0.0
 40
2.199999999999964
100
AcDbArc
 50
359.3155823925
 51
45.0
  0
ARC
  5
3E6
330
1F
100
AcDbEntity
  8
0
  6
SLD-Сплошная
 62
     7
370
    35
100
AcDbCircle
 10
-248.8
 20
-1211.5577386319
 30
0.0
 40
0.9999999999999679
100
AcDbArc
 50
359.3155823925
 51
45.0
  0
LINE
  5
3E7
330
1F
100
AcDbEntity
  8
0
  6
SLD-Сплошная
 62
     7
370
    35
100
AcDbLine
 10
-247.8000713447
 20
-1211.5696836885
 30
0.0
 11
-246.6001569584
 21
-1211.5840177565
 31
0.0
  0
SPLINE
  5
3E8
330
1F
100
AcDbEntity
  8
0
  6
SLD-Сплошная
 62
     7
370
    35
100
AcDbSpline
210
0.0
220
0.0
230
1.0
 70
     8
 71
     3
 72
    11
 73
     7
 74
     0
 42
0.000000001
 43
0.00000001
 40
0.0
 40
0.0
 40
0.0
 40
0.0
 40
0.2500000000000016
 40
0.5000000000000021
 40
0.7500000000000011
 40
0.9999999999999999
 40
0.9999999999999999
 40
0.9999999999999999
 40
0.9999999999999999
 10
-247.2443650813895
 20
-1213.113373550495
 30
0.0
 10
-247.1496310990547
 20
-1213.007493186118
 30
0.0
 10
-246.9601631343851
 20
-1212.795732457363
 30
0.0
 10
-246.7615327763586
 20
-1212.416398957375
 30
0.0
 10
-246.6288837438864
 20
-1212.00927224795
 30
0.0
 10
-246.6097325535719
 20
-1211.72576925363
 30
0.0
 10
-246.6001569584147
 20
-1211.58401775647
 30
0.0
  0
SPLINE
  5
3E9
330
1F
100
AcDbEntity
  8
0
  6
SLD-Сплошная
 62
     7
370
    35
100
AcDbSpline
210
0.0
220
0.0
230
1.0
 70
     8
 71
     3
 72
    11
 73
     7
 74
     0
 42
0.000000001
 43
0.00000001
 40
0.0
 40
0.0
 40
0.0
 40
0.0
 40
0.2500000000000173
 40
0.5000000000000113
 40
0.750000000000011
 40
1.0
 40
1.0
 40
1.0
 40
1.0
 10
-248.0928932188134
 20
-1212.264845413071
 30
0.0
 10
-248.0498323177521
 20
-1212.216717974718
 30
0.0
 10
-247.9637105156295
 20
-1212.120463098011
 30
0.0
 10
-247.8734239892539
 20
-1211.948038779835
 30
0.0
 10
-247.8131289744938
 20
-1211.762981184642
 30
0.0
 10
-247.8044238879872
 20
-1211.634116187224
 30
0.0
 10
-247.8000713447339
 20
-1211.569683688514
 30
0.0
  0
LINE
  5
3EA
330
1F
100
AcDbEntity
  8
0
  6
SLD-Сплошная
 62
     7
370
    35
100
AcDbLine
 10
-247.2443650814
 20
-1213.1133735505
 30
0.0
 11
-248.0928932188
 21
-1212.2648454131
 31
0.0
  0
ARC
  5
3EB
330
1F
100
AcDbEntity
  8
0
  6
SLD-Сплошная
 62
     7
370
    35
100
AcDbCircle
 10
249.0
 20
-1206.8322552323
 30
0.0
 40
1.000000000000189
100
AcDbArc
 50
315.0
 51
0.0
  0
ARC
  5
3EC
330
1F
100
AcDbEntity
  8
0
  6
SLD-Сплошная
 62
     7
370
    35
100
AcDbCircle
 10
249.0
 20
-1206.8322552323
 30
0.0
 40
2.200000000000167
100
AcDbArc
 50
315.0
 51
0.0
  0
LINE
  5
3ED
330
1F
100
AcDbEntity
  8
0
  6
SLD-Сплошная
 62
     7
370
    35
100
AcDbLine
 10
247.2443650814
 20
-1210.0021037133
 30
0.0
 11
249.7071067812
 21
-1207.5393620135
 31
0.0
  0
LINE
  5
3EE
330
1F
100
AcDbEntity
  8
0
  6
SLD-Сплошная
 62
     7
370
    35
100
AcDbLine
 10
248.0928932188
 20
-1210.8506318507
 30
0.0
 11
250.5556349186
 21
-1208.3878901509
 31
0.0
  0
LINE
  5
3EF
330
1F
100
AcDbEntity
  8
0
  6
SLD-Сплошная
 62
     7
370
    35
100
AcDbLine
 10
250.0
 20
-1206.8322552323
 30
0.0
 11
250.0
 21
-1202.4577386319
 31
0.0
  0
LINE
  5
3F0
330
1F
100
AcDbEntity
  8
0
  6
SLD-Сплошная
 62
     7
370
    35
100
AcDbLine
 10
251.2
 20
-1206.8322552323
 30
0.0
 11
251.2
 21
-1202.4577386319
 31
0.0
  0
ARC
  5
3F1
330
1F
100
AcDbEntity
  8
0
  6
SLD-Сплошная
 62
     7
370
    35
100
AcDbCircle
 10
249.0
 20
-1202.4577386319
 30
0.0
 40
1.000000000000227
100
AcDbArc
 50
0.0
 51
90.0
  0
ARC
  5
3F2
330
1F
100
AcDbEntity
  8
0
  6
SLD-Сплошная
 62
     7
370
    35
100
AcDbCircle
 10
249.0
 20
-1202.4577386319
 30
0.0
 40
2.199999999999996
100
AcDbArc
 50
0.0
 51
27.0356917895
  0
ARC
  5
3F3
330
1F
100
AcDbEntity
  8
0
  6
SLD-Сплошная
 62
     7
370
    35
100
AcDbCircle
 10
-249.0
 20
-1202.4577386319
 30
0.0
 40
1.000000000000227
100
AcDbArc
 50
90.0
 51
180.0
  0
ARC
  5
3F4
330
1F
100
AcDbEntity
  8
0
  6
SLD-Сплошная
 62
     7
370
    35
100
AcDbCircle
 10
-249.0
 20
-1202.4577386319
 30
0.0
 40
2.199999999999996
100
AcDbArc
 50
152.9643082105
 51
180.0
  0
LINE
  5
3F5
330
1F
100
AcDbEntity
  8
0
  6
SLD-Сплошная
 62
     7
370
    35
100
AcDbLine
 10
-247.2443650814
 20
-1210.0021037133
 30
0.0
 11
-249.7071067812
 21
-1207.5393620135
 31
0.0
  0
LINE
  5
3F6
330
1F
100
AcDbEntity
  8
0
  6
SLD-Сплошная
 62
     7
370
    35
100
AcDbLine
 10
-248.0928932188
 20
-1210.8506318507
 30
0.0
 11
-250.5556349186
 21
-1208.3878901509
 31
0.0
  0
LINE
  5
3F7
330
1F
100
AcDbEntity
  8
0
  6
SLD-Сплошная
 62
     7
370
    35
100
AcDbLine
 10
-251.2
 20
-1206.8322552323
 30
0.0
 11
-251.2
 21
-1202.4577386319
 31
0.0
  0
LINE
  5
3F8
330
1F
100
AcDbEntity
  8
0
  6
SLD-Сплошная
 62
     7
370
    35
100
AcDbLine
 10
-250.0
 20
-1206.8322552323
 30
0.0
 11
-250.0
 21
-1202.4577386319
 31
0.0
  0
ARC
  5
3F9
330
1F
100
AcDbEntity
  8
0
  6
SLD-Сплошная
 62
     7
370
    35
100
AcDbCircle
 10
-249.0
 20
-1206.8322552323
 30
0.0
 40
2.200000000000126
100
AcDbArc
 50
180.0
 51
225.0
  0
ARC
  5
3FA
330
1F
100
AcDbEntity
  8
0
  6
SLD-Сплошная
 62
     7
370
    35
100
AcDbCircle
 10
-249.0
 20
-1206.8322552323
 30
0.0
 40
1.000000000000209
100
AcDbArc
 50
180.0
 51
225.0
  0
LINE
  5
3FB
330
1F
100
AcDbEntity
  8
0
  6
SLD-Сплошная
 62
     7
370
    35
100
AcDbLine
 10
250.0
 20
-1215.8690084691
 30
0.0
 11
250.8485281374
 21
-1215.0204803317
 31
0.0
  0
LINE
  5
3FC
330
1F
100
AcDbEntity
  8
0
  6
SLD-Сплошная
 62
     7
370
    35
100
AcDbLine
 10
247.2443650814
 20
-1213.1133735505
 30
0.0
 11
250.0
 21
-1215.8690084691
 31
0.0
  0
LINE
  5
3FD
330
1F
100
AcDbEntity
  8
0
  6
SLD-Сплошная
 62
     7
370
    35
100
AcDbLine
 10
250.8485281374
 20
-1215.0204803317
 30
0.0
 11
248.0928932188
 21
-1212.2648454131
 31
0.0
  0
LINE
  5
3FE
330
1F
100
AcDbEntity
  8
0
  6
SLD-Сплошная
 62
     7
370
    35
100
AcDbLine
 10
-248.0928932188
 20
-1212.2648454131
 30
0.0
 11
-250.8485281374
 21
-1215.0204803317
 31
0.0
  0
LINE
  5
3FF
330
1F
100
AcDbEntity
  8
0
  6
SLD-Сплошная
 62
     7
370
    35
100
AcDbLine
 10
-250.8485281374
 20
-1215.0204803317
 30
0.0
 11
-250.0
 21
-1215.8690084691
 31
0.0
  0
LINE
  5
400
330
1F
100
AcDbEntity
  8
0
  6
SLD-Сплошная
 62
     7
370
    35
100
AcDbLine
 10
-250.0
 20
-1215.8690084691
 30
0.0
 11
-247.2443650814
 21
-1213.1133735505
 31
0.0
  0
LINE
  5
401
330
1F
100
AcDbEntity
  8
0
  6
SLD-Сплошная
 62
     7
370
    35
100
AcDbLine
 10
-3.25
 20
-1202.057738632
 30
0.0
 11
3.25
 21
-1202.057738632
 31
0.0
  0
ENDSEC
  0
SECTION
  2
OBJECTS
  0
DICTIONARY
  5
C
330
0
100
AcDbDictionary
281
     1
  3
ACAD_DETAILVIEWSTYLE
350
409
  3
ACAD_GROUP
350
D
  3
ACAD_LAYOUT
350
1A
  3
ACAD_MATERIAL
350
43
  3
ACAD_MLEADERSTYLE
350
6B
  3
ACAD_MLINESTYLE
350
17
  3
ACAD_PLOTSETTINGS
350
19
  3
ACAD_PLOTSTYLENAME
350
E
  3
ACAD_SCALELIST
350
47
  3
ACAD_SECTIONVIEWSTYLE
350
40A
  3
ACAD_TABLESTYLE
350
69
  3
ACAD_VISUALSTYLE
350
2A
  3
ACDB_RECOMPOSE_DATA
350
406
  3
AcDbVariableDictionary
350
402
  0
SUN
  5
6D
330
29
100
AcDbSun
 90
        1
290
     0
 63
     7
421
 16777215
 40
1.0
291
     1
 91
  2455826
 92
 54000000
292
     0
 70
     2
 71
   256
280
     1
  0
DICTIONARY
  5
409
102
{ACAD_REACTORS
330
C
102
}
330
C
100
AcDbDictionary
281
     1
  0
DICTIONARY
  5
D
102
{ACAD_REACTORS
330
C
102
}
330
C
100
AcDbDictionary
281
     1
  0
DICTIONARY
  5
1A
102
{ACAD_REACTORS
330
C
102
}
330
C
100
AcDbDictionary
281
     1
  3
Layout1
350
1E
  3
Layout2
350
26
  3
Model
350
22
  0
DICTIONARY
  5
43
102
{ACAD_REACTORS
330
C
102
}
330
C
100
AcDbDictionary
281
     1
  3
ByBlock
350
45
  3
ByLayer
350
44
  3
Global
350
46
  0
DICTIONARY
  5
6B
102
{ACAD_REACTORS
330
C
102
}
330
C
100
AcDbDictionary
281
     1
  3
Standard
350
6C
  0
DICTIONARY
  5
17
102
{ACAD_REACTORS
330
C
102
}
330
C
100
AcDbDictionary
281
     1
  3
Standard
350
18
  0
DICTIONARY
  5
19
102
{ACAD_REACTORS
330
C
102
}
330
C
100
AcDbDictionary
281
     1
  0
ACDBDICTIONARYWDFLT
  5
E
102
{ACAD_REACTORS
330
C
102
}
330
C
100
AcDbDictionary
281
     1
  3
Normal
350
F
100
AcDbDictionaryWithDefault
340
F
  0
DICTIONARY
  5
47
102
{ACAD_REACTORS
330
C
102
}
330
C
100
AcDbDictionary
281
     1
  3
A0
350
48
  3
A1
350
49
  3
A2
350
4A
  3
A3
350
4B
  3
A4
350
4C
  3
A5
350
4D
  3
A6
350
4E
  3
A7
350
4F
  3
A8
350
50
  3
A9
350
51
  3
B0
350
52
  3
B1
350
53
  3
B2
350
54
  3
B3
350
55
  3
B4
350
56
  3
B5
350
57
  3
B6
350
58
  3
B7
350
59
  3
B8
350
5A
  3
B9
350
5B
  3
C0
350
5C
  3
C1
350
5D
  3
C2
350
5E
  3
C3
350
5F
  3
C4
350
60
  3
C5
350
61
  3
C6
350
62
  3
C7
350
63
  3
C8
350
64
  3
C9
350
65
  3
D0
350
66
  3
D1
350
67
  3
D2
350
68
  0
DICTIONARY
  5
40A
102
{ACAD_REACTORS
330
C
102
}
330
C
100
AcDbDictionary
281
     1
  0
DICTIONARY
  5
69
102
{ACAD_REACTORS
330
C
102
}
330
C
100
AcDbDictionary
281
     1
  3
Standard
350
6A
  0
DICTIONARY
  5
2A
102
{ACAD_REACTORS
330
C
102
}
330
C
100
AcDbDictionary
281
     1
  3
2dWireframe
350
2F
  3
Basic
350
32
  3
Brighten
350
36
  3
ColorChange
350
3A
  3
Conceptual
350
34
  3
Dim
350
35
  3
EdgeColorOff
350
3D
  3
Facepattern
350
39
  3
Flat
350
2B
  3
FlatWithEdges
350
2C
  3
Gouraud
350
2D
  3
GouraudWithEdges
350
2E
  3
Hidden
350
31
  3
JitterOff
350
3B
  3
Linepattern
350
38
  3
OverhangOff
350
3C
  3
Realistic
350
33
  3
Shaded
350
42
  3
Shaded with edges
350
41
  3
Shades of Gray
350
3E
  3
Sketchy
350
3F
  3
Thicken
350
37
  3
Wireframe
350
30
  3
X-Ray
350
40
  0
XRECORD
  5
406
102
{ACAD_REACTORS
330
C
102
}
330
C
100
AcDbXrecord
280
     1
 90
        1
330
6A
  0
DICTIONARY
  5
402
102
{ACAD_REACTORS
330
C
102
}
330
C
100
AcDbDictionary
281
     1
  3
CANNOSCALE
350
403
  3
CMLEADERSTYLE
350
408
  3
CTABLESTYLE
350
407
  0
LAYOUT
  5
1E
102
{ACAD_REACTORS
330
1A
102
}
330
1A
100
AcDbPlotSettings
  1

  2
none_device
  4

  6

 40
0.0
 41
0.0
 42
0.0
 43
0.0
 44
0.0
 45
0.0
 46
0.0
 47
0.0
 48
0.0
 49
0.0
140
0.0
141
0.0
142
1.0
143
1.0
 70
   688
 72
     1
 73
     0
 74
     5
  7

 75
    16
 76
     0
 77
     2
 78
   300
147
1.0
148
0.0
149
0.0
100
AcDbLayout
  1
Layout1
 70
     1
 71
     1
 10
0.0
 20
0.0
 11
420.0
 21
297.0
 12
0.0
 22
0.0
 32
0.0
 14
1.0000000000E+20
 24
1.0000000000E+20
 34
1.0000000000E+20
 15
-1.0000000000E+20
 25
-1.0000000000E+20
 35
-1.0000000000E+20
146
0.0
 13
0.0
 23
0.0
 33
0.0
 16
1.0
 26
0.0
 36
0.0
 17
0.0
 27
1.0
 37
0.0
 76
     0
330
1B
  0
LAYOUT
  5
26
102
{ACAD_REACTORS
330
1A
102
}
330
1A
100
AcDbPlotSettings
  1

  2
none_device
  4

  6

 40
0.0
 41
0.0
 42
0.0
 43
0.0
 44
0.0
 45
0.0
 46
0.0
 47
0.0
 48
0.0
 49
0.0
140
0.0
141
0.0
142
1.0
143
1.0
 70
   688
 72
     1
 73
     0
 74
     5
  7

 75
    16
 76
     0
 77
     2
 78
   300
147
1.0
148
0.0
149
0.0
100
AcDbLayout
  1
Layout2
 70
     1
 71
     2
 10
0.0
 20
0.0
 11
0.0
 21
0.0
 12
0.0
 22
0.0
 32
0.0
 14
0.0
 24
0.0
 34
0.0
 15
0.0
 25
0.0
 35
0.0
146
0.0
 13
0.0
 23
0.0
 33
0.0
 16
1.0
 26
0.0
 36
0.0
 17
0.0
 27
1.0
 37
0.0
 76
     0
330
23
  0
LAYOUT
  5
22
102
{ACAD_REACTORS
330
1A
102
}
330
1A
100
AcDbPlotSettings
  1

  2
none_device
  4
Letter_(8.50_x_11.00_Inches)
  6

 40
6.35
 41
6.35
 42
6.35000508
 43
6.35000508
 44
215.9
 45
279.4
 46
0.0
 47
0.0
 48
0.0
 49
0.0
140
0.0
141
0.0
142
1.0
143
1.0
 70
  1712
 72
     1
 73
     0
 74
     0
  7

 75
     0
 76
     0
 77
     2
 78
   300
147
1.0
148
0.0
149
0.0
100
AcDbLayout
  1
Model
 70
     1
 71
     0
 10
0.0
 20
0.0
 11
1420.0
 21
1297.0
 12
0.0
 22
0.0
 32
0.0
 14
0.0
 24
0.0
 34
0.0
 15
1420.0
 25
1297.0
 35
0.0
146
0.0
 13
0.0
 23
0.0
 33
0.0
 16
1.0
 26
0.0
 36
0.0
 17
0.0
 27
1.0
 37
0.0
 76
     0
330
1F
331
29
  0
MATERIAL
  5
45
102
{ACAD_REACTORS
330
43
102
}
330
43
100
AcDbMaterial
  1
ByBlock
 72
     1
 94
      127
  0
MATERIAL
  5
44
102
{ACAD_REACTORS
330
43
102
}
330
43
100
AcDbMaterial
  1
ByLayer
 72
     1
 94
      127
  0
MATERIAL
  5
46
102
{ACAD_REACTORS
330
43
102
}
330
43
100
AcDbMaterial
  1
Global
 72
     1
 94
      127
  0
MLEADERSTYLE
  5
6C
102
{ACAD_REACTORS
330
6B
102
}
330
6B
100
AcDbMLeaderStyle
179
     2
170
     2
171
     1
172
     0
 90
        2
 40
0.0
 41
0.0
173
     1
 91
-1056964608
340
14
 92
       -2
290
     1
 42
2.0
291
     1
 43
8.0
  3
Standard
341
0
 44
4.0
300

342
11
174
     1
178
     6
175
     1
176
     0
 93
-1056964608
 45
4.0
292
     0
297
     0
 46
4.0
343
0
 94
-1056964608
 47
1.0
 49
1.0
140
1.0
293
     1
141
0.0
294
     1
177
     0
142
1.0
295
     0
296
     0
143
3.75
271
     0
272
     9
273
     9
298
     0
  0
MLINESTYLE
  5
18
102
{ACAD_REACTORS
330
17
102
}
330
17
100
AcDbMlineStyle
  2
Standard
 70
     0
  3

 62
   256
 51
90.0
 52
90.0
 71
     2
 49
0.5
 62
   256
  6
BYLAYER
 49
-0.5
 62
   256
  6
BYLAYER
  0
ACDBPLACEHOLDER
  5
F
102
{ACAD_REACTORS
330
E
102
}
330
E
  0
SCALE
  5
48
102
{ACAD_REACTORS
330
47
102
}
330
47
100
AcDbScale
 70
     0
300
1:1
140
1.0
141
1.0
290
     1
  0
SCALE
  5
49
102
{ACAD_REACTORS
330
47
102
}
330
47
100
AcDbScale
 70
     0
300
1:2
140
1.0
141
2.0
290
     0
  0
SCALE
  5
4A
102
{ACAD_REACTORS
330
47
102
}
330
47
100
AcDbScale
 70
     0
300
1:4
140
1.0
141
4.0
290
     0
  0
SCALE
  5
4B
102
{ACAD_REACTORS
330
47
102
}
330
47
100
AcDbScale
 70
     0
300
1:5
140
1.0
141
5.0
290
     0
  0
SCALE
  5
4C
102
{ACAD_REACTORS
330
47
102
}
330
47
100
AcDbScale
 70
     0
300
1:8
140
1.0
141
8.0
290
     0
  0
SCALE
  5
4D
102
{ACAD_REACTORS
330
47
102
}
330
47
100
AcDbScale
 70
     0
300
1:10
140
1.0
141
10.0
290
     0
  0
SCALE
  5
4E
102
{ACAD_REACTORS
330
47
102
}
330
47
100
AcDbScale
 70
     0
300
1:16
140
1.0
141
16.0
290
     0
  0
SCALE
  5
4F
102
{ACAD_REACTORS
330
47
102
}
330
47
100
AcDbScale
 70
     0
300
1:20
140
1.0
141
20.0
290
     0
  0
SCALE
  5
50
102
{ACAD_REACTORS
330
47
102
}
330
47
100
AcDbScale
 70
     0
300
1:30
140
1.0
141
30.0
290
     0
  0
SCALE
  5
51
102
{ACAD_REACTORS
330
47
102
}
330
47
100
AcDbScale
 70
     0
300
1:40
140
1.0
141
40.0
290
     0
  0
SCALE
  5
52
102
{ACAD_REACTORS
330
47
102
}
330
47
100
AcDbScale
 70
     0
300
1:50
140
1.0
141
50.0
290
     0
  0
SCALE
  5
53
102
{ACAD_REACTORS
330
47
102
}
330
47
100
AcDbScale
 70
     0
300
1:100
140
1.0
141
100.0
290
     0
  0
SCALE
  5
54
102
{ACAD_REACTORS
330
47
102
}
330
47
100
AcDbScale
 70
     0
300
2:1
140
2.0
141
1.0
290
     0
  0
SCALE
  5
55
102
{ACAD_REACTORS
330
47
102
}
330
47
100
AcDbScale
 70
     0
300
4:1
140
4.0
141
1.0
290
     0
  0
SCALE
  5
56
102
{ACAD_REACTORS
330
47
102
}
330
47
100
AcDbScale
 70
     0
300
8:1
140
8.0
141
1.0
290
     0
  0
SCALE
  5
57
102
{ACAD_REACTORS
330
47
102
}
330
47
100
AcDbScale
 70
     0
300
10:1
140
10.0
141
1.0
290
     0
  0
SCALE
  5
58
102
{ACAD_REACTORS
330
47
102
}
330
47
100
AcDbScale
 70
     0
300
100:1
140
100.0
141
1.0
290
     0
  0
SCALE
  5
59
102
{ACAD_REACTORS
330
47
102
}
330
47
100
AcDbScale
 70
     0
300
1/128" = 1'-0"
140
0.0078125
141
12.0
290
     0
  0
SCALE
  5
5A
102
{ACAD_REACTORS
330
47
102
}
330
47
100
AcDbScale
 70
     0
300
1/64" = 1'-0"
140
0.015625
141
12.0
290
     0
  0
SCALE
  5
5B
102
{ACAD_REACTORS
330
47
102
}
330
47
100
AcDbScale
 70
     0
300
1/32" = 1'-0"
140
0.03125
141
12.0
290
     0
  0
SCALE
  5
5C
102
{ACAD_REACTORS
330
47
102
}
330
47
100
AcDbScale
 70
     0
300
1/16" = 1'-0"
140
0.0625
141
12.0
290
     0
  0
SCALE
  5
5D
102
{ACAD_REACTORS
330
47
102
}
330
47
100
AcDbScale
 70
     0
300
3/32" = 1'-0"
140
0.09375
141
12.0
290
     0
  0
SCALE
  5
5E
102
{ACAD_REACTORS
330
47
102
}
330
47
100
AcDbScale
 70
     0
300
1/8" = 1'-0"
140
0.125
141
12.0
290
     0
  0
SCALE
  5
5F
102
{ACAD_REACTORS
330
47
102
}
330
47
100
AcDbScale
 70
     0
300
3/16" = 1'-0"
140
0.1875
141
12.0
290
     0
  0
SCALE
  5
60
102
{ACAD_REACTORS
330
47
102
}
330
47
100
AcDbScale
 70
     0
300
1/4" = 1'-0"
140
0.25
141
12.0
290
     0
  0
SCALE
  5
61
102
{ACAD_REACTORS
330
47
102
}
330
47
100
AcDbScale
 70
     0
300
3/8" = 1'-0"
140
0.375
141
12.0
290
     0
  0
SCALE
  5
62
102
{ACAD_REACTORS
330
47
102
}
330
47
100
AcDbScale
 70
     0
300
1/2" = 1'-0"
140
0.5
141
12.0
290
     0
  0
SCALE
  5
63
102
{ACAD_REACTORS
330
47
102
}
330
47
100
AcDbScale
 70
     0
300
3/4" = 1'-0"
140
0.75
141
12.0
290
     0
  0
SCALE
  5
64
102
{ACAD_REACTORS
330
47
102
}
330
47
100
AcDbScale
 70
     0
300
1" = 1'-0"
140
1.0
141
12.0
290
     0
  0
SCALE
  5
65
102
{ACAD_REACTORS
330
47
102
}
330
47
100
AcDbScale
 70
     0
300
1-1/2" = 1'-0"
140
1.5
141
12.0
290
     0
  0
SCALE
  5
66
102
{ACAD_REACTORS
330
47
102
}
330
47
100
AcDbScale
 70
     0
300
3" = 1'-0"
140
3.0
141
12.0
290
     0
  0
SCALE
  5
67
102
{ACAD_REACTORS
330
47
102
}
330
47
100
AcDbScale
 70
     0
300
6" = 1'-0"
140
6.0
141
12.0
290
     0
  0
SCALE
  5
68
102
{ACAD_REACTORS
330
47
102
}
330
47
100
AcDbScale
 70
     0
300
1'-0" = 1'-0"
140
12.0
141
12.0
290
     0
  0
TABLESTYLE
  5
6A
102
{ACAD_REACTORS
330
69
102
}
102
{ACAD_XDICTIONARY
360
404
102
}
330
69
100
AcDbTableStyle
  3
Standard
 70
     0
 71
     0
 40
0.06
 41
0.06
280
     0
281
     0
  7
Standard
140
4.5
170
     2
 62
     0
 63
   257
283
     0
 90
        4
 91
        0
  1

274
    -2
284
     1
 64
     0
275
    -2
285
     1
 65
     0
276
    -2
286
     1
 66
     0
277
    -2
287
     1
 67
     0
278
    -2
288
     1
 68
     0
279
    -2
289
     1
 69
     0
  7
Standard
140
6.0
170
     5
 62
     0
 63
   257
283
     0
 90
        4
 91
        0
  1

274
    -2
284
     1
 64
     0
275
    -2
285
     1
 65
     0
276
    -2
286
     1
 66
     0
277
    -2
287
     1
 67
     0
278
    -2
288
     1
 68
     0
279
    -2
289
     1
 69
     0
  7
Standard
140
4.5
170
     5
 62
     0
 63
   257
283
     0
 90
        4
 91
        0
  1

274
    -2
284
     1
 64
     0
275
    -2
285
     1
 65
     0
276
    -2
286
     1
 66
     0
277
    -2
287
     1
 67
     0
278
    -2
288
     1
 68
     0
279
    -2
289
     1
 69
     0
  0
VISUALSTYLE
  5
2F
102
{ACAD_REACTORS
330
2A
102
}
330
2A
100
AcDbVisualStyle
  2
2dWireframe
 70
     4
177
     3
291
     0
 70
    58
 90
        0
176
     1
 90
        2
176
     1
 90
        0
176
     1
 90
        0
176
     1
 40
0.6
176
     1
 40
30.0
176
     1
 62
     7
420
 16777215
176
     1
 90
        1
176
     1
 90
        4
176
     1
 62
     7
176
     1
 62
   257
176
     1
 90
        1
176
     1
 90
        1
176
     1
 40
1.0
176
     1
 90
        0
176
     1
 62
   257
176
     1
 40
1.0
176
     1
 90
        1
176
     1
 90
        6
176
     1
 90
        2
176
     1
 62
     7
176
     1
 90
        5
176
     1
 90
        0
176
     1
 90
        0
176
     1
290
     0
176
     1
 90
        1
176
     1
 40
0.0
176
     1
 90
        0
176
     1
290
     1
176
     1
290
     1
176
     1
290
     0
176
     1
290
     0
176
     1
290
     0
176
     1
290
     0
176
     1
290
     0
176
     1
290
     0
176
     1
290
     0
176
     1
 90
       50
176
     1
 40
0.0
176
     1
 40
1.0
176
     1
 90
        0
176
     1
 62
    18
420
        0
176
     1
 90
       50
176
     1
 90
        3
176
     1
 62
     5
420
      255
176
     1
290
     0
176
     1
 90
       50
176
     1
 90
       50
176
     1
 90
       50
176
     1
290
     0
176
     1
 90
       50
176
     1
 62
   256
176
     0
 40
1.0
176
     0
 90
        2
176
     1
  1
strokes_ogs.tif
176
     1
290
     0
176
     1
 40
1.0
176
     1
 40
1.0
176
     1
  0
VISUALSTYLE
  5
32
102
{ACAD_REACTORS
330
2A
102
}
330
2A
100
AcDbVisualStyle
  2
Basic
 70
     7
177
     3
291
     1
 70
    58
 90
        1
176
     1
 90
        0
176
     1
 90
        1
176
     1
 90
        0
176
     1
 40
0.6
176
     1
 40
30.0
176
     1
 62
     7
420
 16777215
176
     1
 90
        0
176
     1
 90
        4
176
     1
 62
     7
176
     1
 62
   257
176
     1
 90
        1
176
     1
 90
        1
176
     1
 40
1.0
176
     1
 90
        8
176
     1
 62
     7
176
     1
 40
1.0
176
     1
 90
        1
176
     1
 90
        6
176
     1
 90
        2
176
     1
 62
     7
176
     1
 90
        5
176
     1
 90
        0
176
     1
 90
        0
176
     1
290
     0
176
     1
 90
        1
176
     1
 40
0.0
176
     1
 90
        0
176
     1
290
     0
176
     1
290
     1
176
     1
290
     1
176
     1
290
     0
176
     1
290
     0
176
     1
290
     0
176
     1
290
     0
176
     1
290
     0
176
     1
290
     0
176
     1
 90
       50
176
     1
 40
0.0
176
     1
 40
1.0
176
     1
 90
        0
176
     1
 62
    18
420
        0
176
     1
 90
       50
176
     1
 90
        3
176
     1
 62
     5
420
      255
176
     1
290
     0
176
     1
 90
       50
176
     1
 90
       50
176
     1
 90
       50
176
     1
290
     0
176
     1
 90
       50
176
     1
 62
   256
176
     0
 40
1.0
176
     0
 90
        2
176
     1
  1
strokes_ogs.tif
176
     1
290
     0
176
     1
 40
1.0
176
     1
 40
1.0
176
     1
  0
VISUALSTYLE
  5
36
102
{ACAD_REACTORS
330
2A
102
}
330
2A
100
AcDbVisualStyle
  2
Brighten
 70
    12
177
     3
291
     1
 70
    58
 90
        2
176
     1
 90
        2
176
     1
 90
        0
176
     1
 90
        0
176
     1
 40
0.6
176
     1
 40
30.0
176
     1
 62
     7
420
 16777215
176
     1
 90
        1
176
     1
 90
        4
176
     1
 62
     7
176
     1
 62
   257
176
     1
 90
        1
176
     1
 90
        1
176
     1
 40
1.0
176
     1
 90
        8
176
     1
 62
     7
176
     1
 40
1.0
176
     1
 90
        1
176
     1
 90
        6
176
     1
 90
        2
176
     1
 62
     7
176
     1
 90
        5
176
     1
 90
        0
176
     1
 90
        0
176
     1
290
     0
176
     1
 90
        1
176
     1
 40
50.0
176
     1
 90
        0
176
     1
290
     0
176
     1
290
     1
176
     1
290
     1
176
     1
290
     0
176
     1
290
     0
176
     1
290
     0
176
     1
290
     0
176
     1
290
     0
176
     1
290
     0
176
     1
 90
       50
176
     1
 40
0.0
176
     1
 40
1.0
176
     1
 90
        0
176
     1
 62
    18
420
        0
176
     1
 90
       50
176
     1
 90
        3
176
     1
 62
     5
420
      255
176
     1
290
     0
176
     1
 90
       50
176
     1
 90
       50
176
     1
 90
       50
176
     1
290
     0
176
     1
 90
       50
176
     1
 62
   256
176
     0
 40
1.0
176
     0
 90
        2
176
     1
  1
strokes_ogs.tif
176
     1
290
     0
176
     1
 40
1.0
176
     1
 40
1.0
176
     1
  0
VISUALSTYLE
  5
3A
102
{ACAD_REACTORS
330
2A
102
}
330
2A
100
AcDbVisualStyle
  2
ColorChange
 70
    16
177
     3
291
     1
 70
    58
 90
        2
176
     1
 90
        2
176
     1
 90
        3
176
     1
 90
        0
176
     1
 40
0.6
176
     1
 40
30.0
176
     1
 62
     8
420
  8421504
176
     1
 90
        1
176
     1
 90
        4
176
     1
 62
     7
176
     1
 62
   257
176
     1
 90
        1
176
     1
 90
        1
176
     1
 40
1.0
176
     1
 90
        8
176
     1
 62
     8
420
  8421504
176
     1
 40
1.0
176
     1
 90
        1
176
     1
 90
        6
176
     1
 90
        2
176
     1
 62
     7
176
     1
 90
        5
176
     1
 90
        0
176
     1
 90
        0
176
     1
290
     0
176
     1
 90
        1
176
     1
 40
0.0
176
     1
 90
        0
176
     1
290
     0
176
     1
290
     1
176
     1
290
     1
176
     1
290
     0
176
     1
290
     0
176
     1
290
     0
176
     1
290
     0
176
     1
290
     0
176
     1
290
     0
176
     1
 90
       50
176
     1
 40
0.0
176
     1
 40
1.0
176
     1
 90
        0
176
     1
 62
    18
420
        0
176
     1
 90
       50
176
     1
 90
        3
176
     1
 62
     5
420
      255
176
     1
290
     0
176
     1
 90
       50
176
     1
 90
       50
176
     1
 90
       50
176
     1
290
     0
176
     1
 90
       50
176
     1
 62
   256
176
     0
 40
1.0
176
     0
 90
        2
176
     1
  1
strokes_ogs.tif
176
     1
290
     0
176
     1
 40
1.0
176
     1
 40
1.0
176
     1
  0
VISUALSTYLE
  5
34
102
{ACAD_REACTORS
330
2A
102
}
330
2A
100
AcDbVisualStyle
  2
Conceptual
 70
     9
177
     3
291
     0
 70
    58
 90
        3
176
     1
 90
        2
176
     1
 90
        0
176
     1
 90
        0
176
     1
 40
0.6
176
     1
 40
30.0
176
     1
 62
     7
420
 16777215
176
     1
 90
        2
176
     1
 90
        2
176
     1
 62
     7
176
     1
 62
   257
176
     1
 90
        1
176
     1
 90
        1
176
     1
 40
179.0
176
     1
 90
        8
176
     1
 62
     7
176
     1
 40
1.0
176
     1
 90
        1
176
     1
 90
        6
176
     1
 90
        2
176
     1
 62
     7
176
     1
 90
        3
176
     1
 90
        0
176
     1
 90
        0
176
     1
290
     0
176
     1
 90
        1
176
     1
 40
0.0
176
     1
 90
        0
176
     1
290
     0
176
     1
290
     1
176
     1
290
     1
176
     1
290
     0
176
     1
290
     0
176
     1
290
     0
176
     1
290
     0
176
     1
290
     0
176
     1
290
     0
176
     1
 90
       50
176
     1
 40
0.0
176
     1
 40
1.0
176
     1
 90
        0
176
     1
 62
    18
420
        0
176
     1
 90
       50
176
     1
 90
        3
176
     1
 62
     5
420
      255
176
     1
290
     0
176
     1
 90
       50
176
     1
 90
       50
176
     1
 90
       50
176
     1
290
     0
176
     1
 90
       50
176
     1
 62
   256
176
     0
 40
1.0
176
     0
 90
        2
176
     1
  1
strokes_ogs.tif
176
     1
290
     0
176
     1
 40
1.0
176
     1
 40
1.0
176
     1
  0
VISUALSTYLE
  5
35
102
{ACAD_REACTORS
330
2A
102
}
330
2A
100
AcDbVisualStyle
  2
Dim
 70
    11
177
     3
291
     1
 70
    58
 90
        2
176
     1
 90
        2
176
     1
 90
        0
176
     1
 90
        0
176
     1
 40
0.6
176
     1
 40
30.0
176
     1
 62
     7
420
 16777215
176
     1
 90
        1
176
     1
 90
        4
176
     1
 62
     7
176
     1
 62
   257
176
     1
 90
        1
176
     1
 90
        1
176
     1
 40
1.0
176
     1
 90
        8
176
     1
 62
     7
176
     1
 40
1.0
176
     1
 90
        1
176
     1
 90
        6
176
     1
 90
        2
176
     1
 62
     7
176
     1
 90
        5
176
     1
 90
        0
176
     1
 90
        0
176
     1
290
     0
176
     1
 90
        1
176
     1
 40
-50.0
176
     1
 90
        0
176
     1
290
     0
176
     1
290
     1
176
     1
290
     1
176
     1
290
     0
176
     1
290
     0
176
     1
290
     0
176
     1
290
     0
176
     1
290
     0
176
     1
290
     0
176
     1
 90
       50
176
     1
 40
0.0
176
     1
 40
1.0
176
     1
 90
        0
176
     1
 62
    18
420
        0
176
     1
 90
       50
176
     1
 90
        3
176
     1
 62
     5
420
      255
176
     1
290
     0
176
     1
 90
       50
176
     1
 90
       50
176
     1
 90
       50
176
     1
290
     0
176
     1
 90
       50
176
     1
 62
   256
176
     0
 40
1.0
176
     0
 90
        2
176
     1
  1
strokes_ogs.tif
176
     1
290
     0
176
     1
 40
1.0
176
     1
 40
1.0
176
     1
  0
VISUALSTYLE
  5
3D
102
{ACAD_REACTORS
330
2A
102
}
330
2A
100
AcDbVisualStyle
  2
EdgeColorOff
 70
    22
177
     3
291
     1
 70
    58
 90
        2
176
     0
 90
        2
176
     0
 90
        0
176
     0
 90
        0
176
     0
 40
0.6
176
     0
 40
30.0
176
     0
 62
     7
420
 16777215
176
     0
 90
        1
176
     0
 90
        4
176
     0
 62
     7
176
     0
 62
   257
176
     0
 90
        1
176
     0
 90
        1
176
     0
 40
1.0
176
     0
 90
        8
176
     2
 62
     7
176
     0
 40
1.0
176
     0
 90
        1
176
     0
 90
        6
176
     0
 90
        2
176
     0
 62
     7
176
     0
 90
        5
176
     0
 90
        0
176
     0
 90
        0
176
     0
290
     0
176
     0
 90
        1
176
     0
 40
0.0
176
     0
 90
        0
176
     0
290
     0
176
     0
290
     1
176
     0
290
     1
176
     0
290
     0
176
     0
290
     0
176
     0
290
     0
176
     0
290
     0
176
     0
290
     0
176
     0
290
     0
176
     0
 90
       50
176
     0
 40
0.0
176
     0
 40
1.0
176
     0
 90
        0
176
     0
 62
    18
420
        0
176
     0
 90
       50
176
     0
 90
        3
176
     0
 62
     5
420
      255
176
     0
290
     0
176
     0
 90
       50
176
     0
 90
       50
176
     0
 90
       50
176
     0
290
     0
176
     0
 90
       50
176
     0
 62
   256
176
     0
 40
1.0
176
     0
 90
        2
176
     0
  1
strokes_ogs.tif
176
     0
290
     0
176
     0
 40
1.0
176
     0
 40
1.0
176
     0
  0
VISUALSTYLE
  5
39
102
{ACAD_REACTORS
330
2A
102
}
330
2A
100
AcDbVisualStyle
  2
Facepattern
 70
    15
177
     3
291
     1
 70
    58
 90
        2
176
     1
 90
        2
176
     1
 90
        0
176
     1
 90
        0
176
     1
 40
0.6
176
     1
 40
30.0
176
     1
 62
     7
420
 16777215
176
     1
 90
        1
176
     1
 90
        4
176
     1
 62
     7
176
     1
 62
   257
176
     1
 90
        1
176
     1
 90
        1
176
     1
 40
1.0
176
     1
 90
        8
176
     1
 62
     7
176
     1
 40
1.0
176
     1
 90
        1
176
     1
 90
        6
176
     1
 90
        2
176
     1
 62
     7
176
     1
 90
        5
176
     1
 90
        0
176
     1
 90
        0
176
     1
290
     0
176
     1
 90
        1
176
     1
 40
0.0
176
     1
 90
        0
176
     1
290
     0
176
     1
290
     1
176
     1
290
     1
176
     1
290
     0
176
     1
290
     0
176
     1
290
     0
176
     1
290
     0
176
     1
290
     0
176
     1
290
     0
176
     1
 90
       50
176
     1
 40
0.0
176
     1
 40
1.0
176
     1
 90
        0
176
     1
 62
    18
420
        0
176
     1
 90
       50
176
     1
 90
        3
176
     1
 62
     5
420
      255
176
     1
290
     0
176
     1
 90
       50
176
     1
 90
       50
176
     1
 90
       50
176
     1
290
     0
176
     1
 90
       50
176
     1
 62
   256
176
     0
 40
1.0
176
     0
 90
        2
176
     1
  1
strokes_ogs.tif
176
     1
290
     0
176
     1
 40
1.0
176
     1
 40
1.0
176
     1
  0
VISUALSTYLE
  5
2B
102
{ACAD_REACTORS
330
2A
102
}
330
2A
100
AcDbVisualStyle
  2
Flat
 70
     0
177
     3
291
     1
 70
    58
 90
        2
176
     1
 90
        1
176
     1
 90
        1
176
     1
 90
        2
176
     1
 40
0.6
176
     1
 40
30.0
176
     1
 62
     7
420
 16777215
176
     1
 90
        0
176
     1
 90
        0
176
     1
 62
     7
176
     1
 62
   257
176
     1
 90
        1
176
     1
 90
        1
176
     1
 40
1.0
176
     1
 90
        8
176
     1
 62
     7
176
     1
 40
1.0
176
     1
 90
        1
176
     1
 90
        6
176
     1
 90
        2
176
     1
 62
     7
176
     1
 90
        5
176
     1
 90
        0
176
     1
 90
        0
176
     1
290
     0
176
     1
 90
       13
176
     1
 40
0.0
176
     1
 90
        0
176
     1
290
     0
176
     1
290
     1
176
     1
290
     1
176
     1
290
     0
176
     1
290
     0
176
     1
290
     0
176
     1
290
     0
176
     1
290
     0
176
     1
290
     0
176
     1
 90
       50
176
     1
 40
0.0
176
     1
 40
1.0
176
     1
 90
        0
176
     1
 62
    18
420
        0
176
     1
 90
       50
176
     1
 90
        3
176
     1
 62
     5
420
      255
176
     1
290
     0
176
     1
 90
       50
176
     1
 90
       50
176
     1
 90
       50
176
     1
290
     0
176
     1
 90
       50
176
     1
 62
   256
176
     0
 40
1.0
176
     0
 90
        2
176
     1
  1
strokes_ogs.tif
176
     1
290
     0
176
     1
 40
1.0
176
     1
 40
1.0
176
     1
  0
VISUALSTYLE
  5
2C
102
{ACAD_REACTORS
330
2A
102
}
330
2A
100
AcDbVisualStyle
  2
FlatWithEdges
 70
     1
177
     3
291
     1
 70
    58
 90
        2
176
     1
 90
        1
176
     1
 90
        1
176
     1
 90
        2
176
     1
 40
0.6
176
     1
 40
30.0
176
     1
 62
     7
420
 16777215
176
     1
 90
        1
176
     1
 90
        0
176
     1
 62
     7
176
     1
 62
   257
176
     1
 90
        1
176
     1
 90
        1
176
     1
 40
1.0
176
     1
 90
        0
176
     1
 62
   257
176
     1
 40
1.0
176
     1
 90
        1
176
     1
 90
        6
176
     1
 90
        2
176
     1
 62
     7
176
     1
 90
        5
176
     1
 90
        0
176
     1
 90
        0
176
     1
290
     0
176
     1
 90
       13
176
     1
 40
0.0
176
     1
 90
        0
176
     1
290
     0
176
     1
290
     1
176
     1
290
     1
176
     1
290
     0
176
     1
290
     0
176
     1
290
     0
176
     1
290
     0
176
     1
290
     0
176
     1
290
     0
176
     1
 90
       50
176
     1
 40
0.0
176
     1
 40
1.0
176
     1
 90
        0
176
     1
 62
    18
420
        0
176
     1
 90
       50
176
     1
 90
        3
176
     1
 62
     5
420
      255
176
     1
290
     0
176
     1
 90
       50
176
     1
 90
       50
176
     1
 90
       50
176
     1
290
     0
176
     1
 90
       50
176
     1
 62
   256
176
     0
 40
1.0
176
     0
 90
        2
176
     1
  1
strokes_ogs.tif
176
     1
290
     0
176
     1
 40
1.0
176
     1
 40
1.0
176
     1
  0
VISUALSTYLE
  5
2D
102
{ACAD_REACTORS
330
2A
102
}
330
2A
100
AcDbVisualStyle
  2
Gouraud
 70
     2
177
     3
291
     1
 70
    58
 90
        2
176
     1
 90
        2
176
     1
 90
        1
176
     1
 90
        2
176
     1
 40
0.6
176
     1
 40
30.0
176
     1
 62
     7
420
 16777215
176
     1
 90
        0
176
     1
 90
        0
176
     1
 62
     7
176
     1
 62
   257
176
     1
 90
        1
176
     1
 90
        1
176
     1
 40
1.0
176
     1
 90
        0
176
     1
 62
     7
176
     1
 40
1.0
176
     1
 90
        1
176
     1
 90
        6
176
     1
 90
        2
176
     1
 62
     7
176
     1
 90
        5
176
     1
 90
        0
176
     1
 90
        0
176
     1
290
     0
176
     1
 90
       13
176
     1
 40
0.0
176
     1
 90
        0
176
     1
290
     0
176
     1
290
     1
176
     1
290
     1
176
     1
290
     0
176
     1
290
     0
176
     1
290
     0
176
     1
290
     0
176
     1
290
     0
176
     1
290
     0
176
     1
 90
       50
176
     1
 40
0.0
176
     1
 40
1.0
176
     1
 90
        0
176
     1
 62
    18
420
        0
176
     1
 90
       50
176
     1
 90
        3
176
     1
 62
     5
420
      255
176
     1
290
     0
176
     1
 90
       50
176
     1
 90
       50
176
     1
 90
       50
176
     1
290
     0
176
     1
 90
       50
176
     1
 62
   256
176
     0
 40
1.0
176
     0
 90
        2
176
     1
  1
strokes_ogs.tif
176
     1
290
     0
176
     1
 40
1.0
176
     1
 40
1.0
176
     1
  0
VISUALSTYLE
  5
2E
102
{ACAD_REACTORS
330
2A
102
}
330
2A
100
AcDbVisualStyle
  2
GouraudWithEdges
 70
     3
177
     3
291
     1
 70
    58
 90
        2
176
     1
 90
        2
176
     1
 90
        1
176
     1
 90
        2
176
     1
 40
0.6
176
     1
 40
30.0
176
     1
 62
     7
420
 16777215
176
     1
 90
        1
176
     1
 90
        0
176
     1
 62
     7
176
     1
 62
   257
176
     1
 90
        1
176
     1
 90
        1
176
     1
 40
1.0
176
     1
 90
        0
176
     1
 62
   257
176
     1
 40
1.0
176
     1
 90
        1
176
     1
 90
        6
176
     1
 90
        2
176
     1
 62
     7
176
     1
 90
        5
176
     1
 90
        0
176
     1
 90
        0
176
     1
290
     0
176
     1
 90
       13
176
     1
 40
0.0
176
     1
 90
        0
176
     1
290
     0
176
     1
290
     1
176
     1
290
     1
176
     1
290
     0
176
     1
290
     0
176
     1
290
     0
176
     1
290
     0
176
     1
290
     0
176
     1
290
     0
176
     1
 90
       50
176
     1
 40
0.0
176
     1
 40
1.0
176
     1
 90
        0
176
     1
 62
    18
420
        0
176
     1
 90
       50
176
     1
 90
        3
176
     1
 62
     5
420
      255
176
     1
290
     0
176
     1
 90
       50
176
     1
 90
       50
176
     1
 90
       50
176
     1
290
     0
176
     1
 90
       50
176
     1
 62
   256
176
     0
 40
1.0
176
     0
 90
        2
176
     1
  1
strokes_ogs.tif
176
     1
290
     0
176
     1
 40
1.0
176
     1
 40
1.0
176
     1
  0
VISUALSTYLE
  5
31
102
{ACAD_REACTORS
330
2A
102
}
330
2A
100
AcDbVisualStyle
  2
Hidden
 70
     6
177
     3
291
     0
 70
    58
 90
        1
176
     1
 90
        2
176
     1
 90
        2
176
     1
 90
        0
176
     1
 40
0.6
176
     1
 40
30.0
176
     1
 62
     7
420
 16777215
176
     1
 90
        2
176
     1
 90
        2
176
     1
 62
     7
176
     1
 62
   257
176
     1
 90
        2
176
     1
 90
        1
176
     1
 40
40.0
176
     1
 90
        0
176
     1
 62
   257
176
     1
 40
1.0
176
     1
 90
        1
176
     1
 90
        6
176
     1
 90
        2
176
     1
 62
     7
176
     1
 90
        3
176
     1
 90
        0
176
     1
 90
        0
176
     1
290
     0
176
     1
 90
        1
176
     1
 40
0.0
176
     1
 90
        0
176
     1
290
     0
176
     1
290
     1
176
     1
290
     1
176
     1
290
     0
176
     1
290
     0
176
     1
290
     0
176
     1
290
     0
176
     1
290
     0
176
     1
290
     0
176
     1
 90
       50
176
     1
 40
0.0
176
     1
 40
1.0
176
     1
 90
        0
176
     1
 62
    18
420
        0
176
     1
 90
       50
176
     1
 90
        3
176
     1
 62
     5
420
      255
176
     1
290
     0
176
     1
 90
       50
176
     1
 90
       50
176
     1
 90
       50
176
     1
290
     0
176
     1
 90
       50
176
     1
 62
   256
176
     0
 40
1.0
176
     0
 90
        2
176
     1
  1
strokes_ogs.tif
176
     1
290
     0
176
     1
 40
1.0
176
     1
 40
1.0
176
     1
  0
VISUALSTYLE
  5
3B
102
{ACAD_REACTORS
330
2A
102
}
330
2A
100
AcDbVisualStyle
  2
JitterOff
 70
    20
177
     3
291
     1
 70
    58
 90
        2
176
     0
 90
        2
176
     0
 90
        0
176
     0
 90
        0
176
     0
 40
0.6
176
     0
 40
30.0
176
     0
 62
     7
420
 16777215
176
     0
 90
        1
176
     0
 90
        4
176
     0
 62
     7
176
     0
 62
   257
176
     0
 90
        1
176
     0
 90
        1
176
     0
 40
1.0
176
     0
 90
       10
176
     2
 62
     7
176
     0
 40
1.0
176
     0
 90
        1
176
     0
 90
        6
176
     0
 90
        2
176
     0
 62
     7
176
     0
 90
        5
176
     0
 90
        0
176
     0
 90
        0
176
     0
290
     0
176
     0
 90
        1
176
     0
 40
0.0
176
     0
 90
        0
176
     0
290
     0
176
     0
290
     1
176
     0
290
     1
176
     0
290
     0
176
     0
290
     0
176
     0
290
     0
176
     0
290
     0
176
     0
290
     0
176
     0
290
     0
176
     0
 90
       50
176
     0
 40
0.0
176
     0
 40
1.0
176
     0
 90
        0
176
     0
 62
    18
420
        0
176
     0
 90
       50
176
     0
 90
        3
176
     0
 62
     5
420
      255
176
     0
290
     0
176
     0
 90
       50
176
     0
 90
       50
176
     0
 90
       50
176
     0
290
     0
176
     0
 90
       50
176
     0
 62
   256
176
     0
 40
1.0
176
     0
 90
        2
176
     0
  1
strokes_ogs.tif
176
     0
290
     0
176
     0
 40
1.0
176
     0
 40
1.0
176
     0
  0
VISUALSTYLE
  5
38
102
{ACAD_REACTORS
330
2A
102
}
330
2A
100
AcDbVisualStyle
  2
Linepattern
 70
    14
177
     3
291
     1
 70
    58
 90
        2
176
     1
 90
        2
176
     1
 90
        0
176
     1
 90
        0
176
     1
 40
0.6
176
     1
 40
30.0
176
     1
 62
     7
420
 16777215
176
     1
 90
        1
176
     1
 90
        4
176
     1
 62
     7
176
     1
 62
   257
176
     1
 90
        7
176
     1
 90
        7
176
     1
 40
1.0
176
     1
 90
        8
176
     1
 62
     7
176
     1
 40
1.0
176
     1
 90
        1
176
     1
 90
        6
176
     1
 90
        2
176
     1
 62
     7
176
     1
 90
        5
176
     1
 90
        0
176
     1
 90
        0
176
     1
290
     0
176
     1
 90
        1
176
     1
 40
0.0
176
     1
 90
        0
176
     1
290
     0
176
     1
290
     1
176
     1
290
     1
176
     1
290
     0
176
     1
290
     0
176
     1
290
     0
176
     1
290
     0
176
     1
290
     0
176
     1
290
     0
176
     1
 90
       50
176
     1
 40
0.0
176
     1
 40
1.0
176
     1
 90
        0
176
     1
 62
    18
420
        0
176
     1
 90
       50
176
     1
 90
        3
176
     1
 62
     5
420
      255
176
     1
290
     0
176
     1
 90
       50
176
     1
 90
       50
176
     1
 90
       50
176
     1
290
     0
176
     1
 90
       50
176
     1
 62
   256
176
     0
 40
1.0
176
     0
 90
        2
176
     1
  1
strokes_ogs.tif
176
     1
290
     0
176
     1
 40
1.0
176
     1
 40
1.0
176
     1
  0
VISUALSTYLE
  5
3C
102
{ACAD_REACTORS
330
2A
102
}
330
2A
100
AcDbVisualStyle
  2
OverhangOff
 70
    21
177
     3
291
     1
 70
    58
 90
        2
176
     0
 90
        2
176
     0
 90
        0
176
     0
 90
        0
176
     0
 40
0.6
176
     0
 40
30.0
176
     0
 62
     7
420
 16777215
176
     0
 90
        1
176
     0
 90
        4
176
     0
 62
     7
176
     0
 62
   257
176
     0
 90
        1
176
     0
 90
        1
176
     0
 40
1.0
176
     0
 90
        9
176
     2
 62
     7
176
     0
 40
1.0
176
     0
 90
        1
176
     0
 90
        6
176
     0
 90
        2
176
     0
 62
     7
176
     0
 90
        5
176
     0
 90
        0
176
     0
 90
        0
176
     0
290
     0
176
     0
 90
        1
176
     0
 40
0.0
176
     0
 90
        0
176
     0
290
     0
176
     0
290
     1
176
     0
290
     1
176
     0
290
     0
176
     0
290
     0
176
     0
290
     0
176
     0
290
     0
176
     0
290
     0
176
     0
290
     0
176
     0
 90
       50
176
     0
 40
0.0
176
     0
 40
1.0
176
     0
 90
        0
176
     0
 62
    18
420
        0
176
     0
 90
       50
176
     0
 90
        3
176
     0
 62
     5
420
      255
176
     0
290
     0
176
     0
 90
       50
176
     0
 90
       50
176
     0
 90
       50
176
     0
290
     0
176
     0
 90
       50
176
     0
 62
   256
176
     0
 40
1.0
176
     0
 90
        2
176
     0
  1
strokes_ogs.tif
176
     0
290
     0
176
     0
 40
1.0
176
     0
 40
1.0
176
     0
  0
VISUALSTYLE
  5
33
102
{ACAD_REACTORS
330
2A
102
}
330
2A
100
AcDbVisualStyle
  2
Realistic
 70
     8
177
     3
291
     0
 70
    58
 90
        2
176
     1
 90
        3
176
     1
 90
        0
176
     1
 90
        2
176
     1
 40
0.6
176
     1
 40
30.0
176
     1
 62
     7
420
 16777215
176
     1
 90
        0
176
     1
 90
        0
176
     1
 62
     7
176
     1
 62
   257
176
     1
 90
        1
176
     1
 90
        1
176
     1
 40
1.0
176
     1
 90
        8
176
     1
 62
   257
176
     1
 40
1.0
176
     1
 90
        1
176
     1
 90
        6
176
     1
 90
        2
176
     1
 62
     7
176
     1
 90
        3
176
     1
 90
        0
176
     1
 90
        0
176
     1
290
     0
176
     1
 90
       13
176
     1
 40
0.0
176
     1
 90
        0
176
     1
290
     0
176
     1
290
     1
176
     1
290
     1
176
     1
290
     0
176
     1
290
     0
176
     1
290
     0
176
     1
290
     0
176
     1
290
     0
176
     1
290
     0
176
     1
 90
       50
176
     1
 40
0.0
176
     1
 40
1.0
176
     1
 90
        0
176
     1
 62
    18
420
        0
176
     1
 90
       50
176
     1
 90
        3
176
     1
 62
     5
420
      255
176
     1
290
     0
176
     1
 90
       50
176
     1
 90
       50
176
     1
 90
       50
176
     1
290
     0
176
     1
 90
       50
176
     1
 62
   256
176
     0
 40
1.0
176
     0
 90
        2
176
     1
  1
strokes_ogs.tif
176
     1
290
     0
176
     1
 40
1.0
176
     1
 40
1.0
176
     1
  0
VISUALSTYLE
  5
42
102
{ACAD_REACTORS
330
2A
102
}
330
2A
100
AcDbVisualStyle
  2
Shaded
 70
    27
177
     3
291
     0
 70
    58
 90
        2
176
     1
 90
        2
176
     1
 90
        1
176
     1
 90
        2
176
     1
 40
0.6
176
     1
 40
30.0
176
     1
 62
     7
420
 16777215
176
     1
 90
        0
176
     1
 90
        4
176
     1
 62
     7
176
     1
 62
   257
176
     1
 90
        1
176
     1
 90
        1
176
     1
 40
1.0
176
     1
 90
        8
176
     1
 62
   257
176
     1
 40
1.0
176
     1
 90
        1
176
     1
 90
        6
176
     1
 90
        2
176
     1
 62
     8
420
  7895160
176
     1
 90
        3
176
     1
 90
        0
176
     1
 90
        0
176
     1
290
     0
176
     1
 90
        5
176
     1
 40
0.0
176
     1
 90
        0
176
     1
290
     0
176
     1
290
     1
176
     1
290
     1
176
     1
290
     0
176
     1
290
     0
176
     1
290
     0
176
     1
290
     0
176
     1
290
     0
176
     1
290
     0
176
     1
 90
       50
176
     1
 40
0.0
176
     1
 40
1.0
176
     1
 90
        0
176
     1
 62
    18
420
        0
176
     1
 90
       50
176
     1
 90
        3
176
     1
 62
     5
420
      255
176
     1
290
     0
176
     1
 90
       50
176
     1
 90
       50
176
     1
 90
       50
176
     1
290
     0
176
     1
 90
       50
176
     1
 62
   256
176
     0
 40
1.0
176
     0
 90
        2
176
     1
  1
strokes_ogs.tif
176
     1
290
     0
176
     1
 40
1.0
176
     1
 40
1.0
176
     1
  0
VISUALSTYLE
  5
41
102
{ACAD_REACTORS
330
2A
102
}
330
2A
100
AcDbVisualStyle
  2
Shaded with edges
 70
    26
177
     3
291
     0
 70
    58
 90
        2
176
     1
 90
        2
176
     1
 90
        1
176
     1
 90
        2
176
     1
 40
0.6
176
     1
 40
30.0
176
     1
 62
     7
420
 16777215
176
     1
 90
        1
176
     1
 90
       10
176
     1
 62
     7
176
     1
 62
   257
176
     1
 90
        2
176
     1
 90
        1
176
     1
 40
1.0
176
     1
 90
        8
176
     1
 62
   257
176
     1
 40
1.0
176
     1
 90
        1
176
     1
 90
        6
176
     1
 90
        2
176
     1
 62
     7
176
     1
 90
        3
176
     1
 90
        0
176
     1
 90
        0
176
     1
290
     0
176
     1
 90
        5
176
     1
 40
0.0
176
     1
 90
        0
176
     1
290
     0
176
     1
290
     1
176
     1
290
     1
176
     1
290
     0
176
     1
290
     0
176
     1
290
     0
176
     1
290
     0
176
     1
290
     0
176
     1
290
     0
176
     1
 90
       50
176
     1
 40
0.0
176
     1
 40
1.0
176
     1
 90
        0
176
     1
 62
    18
420
        0
176
     1
 90
       50
176
     1
 90
        3
176
     1
 62
     5
420
      255
176
     1
290
     0
176
     1
 90
       50
176
     1
 90
       50
176
     1
 90
       50
176
     1
290
     0
176
     1
 90
       50
176
     1
 62
   256
176
     0
 40
1.0
176
     0
 90
        2
176
     1
  1
strokes_ogs.tif
176
     1
290
     0
176
     1
 40
1.0
176
     1
 40
1.0
176
     1
  0
VISUALSTYLE
  5
3E
102
{ACAD_REACTORS
330
2A
102
}
330
2A
100
AcDbVisualStyle
  2
Shades of Gray
 70
    23
177
     3
291
     0
 70
    58
 90
        2
176
     1
 90
        2
176
     1
 90
        3
176
     1
 90
        0
176
     1
 40
0.6
176
     1
 40
30.0
176
     1
 62
     7
420
 16777215
176
     1
 90
        2
176
     1
 90
        2
176
     1
 62
     7
176
     1
 62
     7
176
     1
 90
        1
176
     1
 90
        1
176
     1
 40
40.0
176
     1
 90
        8
176
     1
 62
     7
176
     1
 40
1.0
176
     1
 90
        1
176
     1
 90
        6
176
     1
 90
        2
176
     1
 62
     7
176
     1
 90
        3
176
     1
 90
        0
176
     1
 90
        0
176
     1
290
     0
176
     1
 90
        1
176
     1
 40
0.0
176
     1
 90
        0
176
     1
290
     0
176
     1
290
     1
176
     1
290
     1
176
     1
290
     0
176
     1
290
     0
176
     1
290
     0
176
     1
290
     0
176
     1
290
     0
176
     1
290
     0
176
     1
 90
       50
176
     1
 40
0.0
176
     1
 40
1.0
176
     1
 90
        0
176
     1
 62
    18
420
        0
176
     1
 90
       50
176
     1
 90
        3
176
     1
 62
     5
420
      255
176
     1
290
     0
176
     1
 90
       50
176
     1
 90
       50
176
     1
 90
       50
176
     1
290
     0
176
     1
 90
       50
176
     1
 62
   256
176
     0
 40
1.0
176
     0
 90
        2
176
     1
  1
strokes_ogs.tif
176
     1
290
     0
176
     1
 40
1.0
176
     1
 40
1.0
176
     1
  0
VISUALSTYLE
  5
3F
102
{ACAD_REACTORS
330
2A
102
}
330
2A
100
AcDbVisualStyle
  2
Sketchy
 70
    24
177
     3
291
     0
 70
    58
 90
        1
176
     1
 90
        2
176
     1
 90
        2
176
     1
 90
        0
176
     1
 40
0.6
176
     1
 40
30.0
176
     1
 62
     7
420
 16777215
176
     1
 90
        2
176
     1
 90
        2
176
     1
 62
     7
176
     1
 62
     7
176
     1
 90
        1
176
     1
 90
        1
176
     1
 40
40.0
176
     1
 90
       11
176
     1
 62
     7
176
     1
 40
1.0
176
     1
 90
        1
176
     1
 90
        6
176
     1
 90
        2
176
     1
 62
     7
176
     1
 90
        6
176
     1
 90
        0
176
     1
 90
        0
176
     1
290
     0
176
     1
 90
        1
176
     1
 40
0.0
176
     1
 90
        0
176
     1
290
     0
176
     1
290
     1
176
     1
290
     1
176
     1
290
     0
176
     1
290
     0
176
     1
290
     0
176
     1
290
     0
176
     1
290
     0
176
     1
290
     0
176
     1
 90
       50
176
     1
 40
0.0
176
     1
 40
1.0
176
     1
 90
        0
176
     1
 62
    18
420
        0
176
     1
 90
       50
176
     1
 90
        3
176
     1
 62
     5
420
      255
176
     1
290
     0
176
     1
 90
       50
176
     1
 90
       50
176
     1
 90
       50
176
     1
290
     0
176
     1
 90
       50
176
     1
 62
   256
176
     0
 40
1.0
176
     0
 90
        2
176
     1
  1
strokes_ogs.tif
176
     1
290
     0
176
     1
 40
1.0
176
     1
 40
1.0
176
     1
  0
VISUALSTYLE
  5
37
102
{ACAD_REACTORS
330
2A
102
}
330
2A
100
AcDbVisualStyle
  2
Thicken
 70
    13
177
     3
291
     1
 70
    58
 90
        2
176
     1
 90
        2
176
     1
 90
        0
176
     1
 90
        0
176
     1
 40
0.6
176
     1
 40
30.0
176
     1
 62
     7
420
 16777215
176
     1
 90
        1
176
     1
 90
        4
176
     1
 62
     7
176
     1
 62
   257
176
     1
 90
        1
176
     1
 90
        1
176
     1
 40
1.0
176
     1
 90
       12
176
     1
 62
     7
176
     1
 40
1.0
176
     1
 90
        1
176
     1
 90
        6
176
     1
 90
        2
176
     1
 62
     7
176
     1
 90
        5
176
     1
 90
        0
176
     1
 90
        0
176
     1
290
     0
176
     1
 90
        1
176
     1
 40
0.0
176
     1
 90
        0
176
     1
290
     0
176
     1
290
     1
176
     1
290
     1
176
     1
290
     0
176
     1
290
     0
176
     1
290
     0
176
     1
290
     0
176
     1
290
     0
176
     1
290
     0
176
     1
 90
       50
176
     1
 40
0.0
176
     1
 40
1.0
176
     1
 90
        0
176
     1
 62
    18
420
        0
176
     1
 90
       50
176
     1
 90
        3
176
     1
 62
     5
420
      255
176
     1
290
     0
176
     1
 90
       50
176
     1
 90
       50
176
     1
 90
       50
176
     1
290
     0
176
     1
 90
       50
176
     1
 62
   256
176
     0
 40
1.0
176
     0
 90
        2
176
     1
  1
strokes_ogs.tif
176
     1
290
     0
176
     1
 40
1.0
176
     1
 40
1.0
176
     1
  0
VISUALSTYLE
  5
30
102
{ACAD_REACTORS
330
2A
102
}
330
2A
100
AcDbVisualStyle
  2
Wireframe
 70
     5
177
     3
291
     0
 70
    58
 90
        0
176
     1
 90
        2
176
     1
 90
        0
176
     1
 90
        0
176
     1
 40
0.6
176
     1
 40
30.0
176
     1
 62
     7
420
 16777215
176
     1
 90
        1
176
     1
 90
        4
176
     1
 62
     7
176
     1
 62
   257
176
     1
 90
        1
176
     1
 90
        1
176
     1
 40
1.0
176
     1
 90
        0
176
     1
 62
   257
176
     1
 40
1.0
176
     1
 90
        1
176
     1
 90
        6
176
     1
 90
        2
176
     1
 62
     7
176
     1
 90
        3
176
     1
 90
        0
176
     1
 90
        0
176
     1
290
     0
176
     1
 90
        1
176
     1
 40
0.0
176
     1
 90
        0
176
     1
290
     0
176
     1
290
     1
176
     1
290
     1
176
     1
290
     0
176
     1
290
     0
176
     1
290
     0
176
     1
290
     0
176
     1
290
     0
176
     1
290
     0
176
     1
 90
       50
176
     1
 40
0.0
176
     1
 40
1.0
176
     1
 90
        0
176
     1
 62
    18
420
        0
176
     1
 90
       50
176
     1
 90
        3
176
     1
 62
     5
420
      255
176
     1
290
     0
176
     1
 90
       50
176
     1
 90
       50
176
     1
 90
       50
176
     1
290
     0
176
     1
 90
       50
176
     1
 62
   256
176
     0
 40
1.0
176
     0
 90
        2
176
     1
  1
strokes_ogs.tif
176
     1
290
     0
176
     1
 40
1.0
176
     1
 40
1.0
176
     1
  0
VISUALSTYLE
  5
40
102
{ACAD_REACTORS
330
2A
102
}
330
2A
100
AcDbVisualStyle
  2
X-Ray
 70
    25
177
     3
291
     0
 70
    58
 90
        2
176
     1
 90
        2
176
     1
 90
        1
176
     1
 90
        1
176
     1
 40
0.5
176
     1
 40
30.0
176
     1
 62
     7
420
 16777215
176
     1
 90
        1
176
     1
 90
        0
176
     1
 62
     7
176
     1
 62
   257
176
     1
 90
        1
176
     1
 90
        1
176
     1
 40
1.0
176
     1
 90
        8
176
     1
 62
     7
176
     1
 40
1.0
176
     1
 90
        1
176
     1
 90
        6
176
     1
 90
        2
176
     1
 62
     7
176
     1
 90
        3
176
     1
 90
        0
176
     1
 90
        0
176
     1
290
     0
176
     1
 90
       13
176
     1
 40
0.0
176
     1
 90
        0
176
     1
290
     0
176
     1
290
     1
176
     1
290
     1
176
     1
290
     0
176
     1
290
     0
176
     1
290
     0
176
     1
290
     0
176
     1
290
     0
176
     1
290
     0
176
     1
 90
       50
176
     1
 40
0.0
176
     1
 40
1.0
176
     1
 90
        0
176
     1
 62
    18
420
        0
176
     1
 90
       50
176
     1
 90
        3
176
     1
 62
     5
420
      255
176
     1
290
     0
176
     1
 90
       50
176
     1
 90
       50
176
     1
 90
       50
176
     1
290
     0
176
     1
 90
       50
176
     1
 62
   256
176
     0
 40
1.0
176
     0
 90
        2
176
     1
  1
strokes_ogs.tif
176
     1
290
     0
176
     1
 40
1.0
176
     1
 40
1.0
176
     1
  0
DICTIONARYVAR
  5
403
102
{ACAD_REACTORS
330
402
102
}
330
402
100
DictionaryVariables
280
     0
  1
1:1
  0
DICTIONARYVAR
  5
408
102
{ACAD_REACTORS
330
402
102
}
330
402
100
DictionaryVariables
280
     0
  1
Standard
  0
DICTIONARYVAR
  5
407
102
{ACAD_REACTORS
330
402
102
}
330
402
100
DictionaryVariables
280
     0
  1
Standard
  0
DICTIONARY
  5
404
330
6A
100
AcDbDictionary
280
     1
281
     1
  3
ACAD_ROUNDTRIP_2008_TABLESTYLE_CELLSTYLEMAP
360
405
  0
CELLSTYLEMAP
  5
405
102
{ACAD_REACTORS
330
404
102
}
330
404
100
AcDbCellStyleMap
 90
        3
300
CELLSTYLE
  1
TABLEFORMAT_BEGIN
 90
        5
170
     1
 91
        0
 92
    32768
 62
   257
 93
        1
300
CONTENTFORMAT
  1
CONTENTFORMAT_BEGIN
 90
        0
 91
        0
 92
        4
 93
        0
300

 40
0.0
140
1.0
 94
        5
 62
     0
340
11
144
6.0
309
CONTENTFORMAT_END
171
     1
301
MARGIN
  1
CELLMARGIN_BEGIN
 40
1.5
 40
1.5
 40
1.5
 40
1.5
 40
1.5
 40
1.5
309
CELLMARGIN_END
 94
        6
 95
        1
302
GRIDFORMAT
  1
GRIDFORMAT_BEGIN
 90
        0
 91
        1
 62
     0
 92
       -2
340
14
 93
        0
 40
0.045
309
GRIDFORMAT_END
 95
        2
302
GRIDFORMAT
  1
GRIDFORMAT_BEGIN
 90
        0
 91
        1
 62
     0
 92
       -2
340
14
 93
        0
 40
0.045
309
GRIDFORMAT_END
 95
        4
302
GRIDFORMAT
  1
GRIDFORMAT_BEGIN
 90
        0
 91
        1
 62
     0
 92
       -2
340
14
 93
        0
 40
0.045
309
GRIDFORMAT_END
 95
        8
302
GRIDFORMAT
  1
GRIDFORMAT_BEGIN
 90
        0
 91
        1
 62
     0
 92
       -2
340
14
 93
        0
 40
0.045
309
GRIDFORMAT_END
 95
       16
302
GRIDFORMAT
  1
GRIDFORMAT_BEGIN
 90
        0
 91
        1
 62
     0
 92
       -2
340
14
 93
        0
 40
0.045
309
GRIDFORMAT_END
 95
       32
302
GRIDFORMAT
  1
GRIDFORMAT_BEGIN
 90
        0
 91
        1
 62
     0
 92
       -2
340
14
 93
        0
 40
0.045
309
GRIDFORMAT_END
309
TABLEFORMAT_END
  1
CELLSTYLE_BEGIN
 90
        1
 91
        1
300
_TITLE
309
CELLSTYLE_END
300
CELLSTYLE
  1
TABLEFORMAT_BEGIN
 90
        5
170
     1
 91
        0
 92
        0
 62
   257
 93
        1
300
CONTENTFORMAT
  1
CONTENTFORMAT_BEGIN
 90
        0
 91
        0
 92
        4
 93
        0
300

 40
0.0
140
1.0
 94
        5
 62
     0
340
11
144
4.5
309
CONTENTFORMAT_END
171
     1
301
MARGIN
  1
CELLMARGIN_BEGIN
 40
1.5
 40
1.5
 40
1.5
 40
1.5
 40
1.5
 40
1.5
309
CELLMARGIN_END
 94
        6
 95
        1
302
GRIDFORMAT
  1
GRIDFORMAT_BEGIN
 90
        0
 91
        1
 62
     0
 92
       -2
340
14
 93
        0
 40
0.045
309
GRIDFORMAT_END
 95
        2
302
GRIDFORMAT
  1
GRIDFORMAT_BEGIN
 90
        0
 91
        1
 62
     0
 92
       -2
340
14
 93
        0
 40
0.045
309
GRIDFORMAT_END
 95
        4
302
GRIDFORMAT
  1
GRIDFORMAT_BEGIN
 90
        0
 91
        1
 62
     0
 92
       -2
340
14
 93
        0
 40
0.045
309
GRIDFORMAT_END
 95
        8
302
GRIDFORMAT
  1
GRIDFORMAT_BEGIN
 90
        0
 91
        1
 62
     0
 92
       -2
340
14
 93
        0
 40
0.045
309
GRIDFORMAT_END
 95
       16
302
GRIDFORMAT
  1
GRIDFORMAT_BEGIN
 90
        0
 91
        1
 62
     0
 92
       -2
340
14
 93
        0
 40
0.045
309
GRIDFORMAT_END
 95
       32
302
GRIDFORMAT
  1
GRIDFORMAT_BEGIN
 90
        0
 91
        1
 62
     0
 92
       -2
340
14
 93
        0
 40
0.045
309
GRIDFORMAT_END
309
TABLEFORMAT_END
  1
CELLSTYLE_BEGIN
 90
        2
 91
        1
300
_HEADER
309
CELLSTYLE_END
300
CELLSTYLE
  1
TABLEFORMAT_BEGIN
 90
        5
170
     1
 91
        0
 92
        0
 62
   257
 93
        1
300
CONTENTFORMAT
  1
CONTENTFORMAT_BEGIN
 90
        0
 91
        0
 92
        4
 93
        0
300

 40
0.0
140
1.0
 94
        2
 62
     0
340
11
144
4.5
309
CONTENTFORMAT_END
171
     1
301
MARGIN
  1
CELLMARGIN_BEGIN
 40
1.5
 40
1.5
 40
1.5
 40
1.5
 40
1.5
 40
1.5
309
CELLMARGIN_END
 94
        6
 95
        1
302
GRIDFORMAT
  1
GRIDFORMAT_BEGIN
 90
        0
 91
        1
 62
     0
 92
       -2
340
14
 93
        0
 40
0.045
309
GRIDFORMAT_END
 95
        2
302
GRIDFORMAT
  1
GRIDFORMAT_BEGIN
 90
        0
 91
        1
 62
     0
 92
       -2
340
14
 93
        0
 40
0.045
309
GRIDFORMAT_END
 95
        4
302
GRIDFORMAT
  1
GRIDFORMAT_BEGIN
 90
        0
 91
        1
 62
     0
 92
       -2
340
14
 93
        0
 40
0.045
309
GRIDFORMAT_END
 95
        8
302
GRIDFORMAT
  1
GRIDFORMAT_BEGIN
 90
        0
 91
        1
 62
     0
 92
       -2
340
14
 93
        0
 40
0.045
309
GRIDFORMAT_END
 95
       16
302
GRIDFORMAT
  1
GRIDFORMAT_BEGIN
 90
        0
 91
        1
 62
     0
 92
       -2
340
14
 93
        0
 40
0.045
309
GRIDFORMAT_END
 95
       32
302
GRIDFORMAT
  1
GRIDFORMAT_BEGIN
 90
        0
 91
        1
 62
     0
 92
       -2
340
14
 93
        0
 40
0.045
309
GRIDFORMAT_END
309
TABLEFORMAT_END
  1
CELLSTYLE_BEGIN
 90
        3
 91
        2
300
_DATA
309
CELLSTYLE_END
  0
ENDSEC
  0
EOF
