  0
SECTION
  2
HEADER
  9
$ACADVER
  1
AC1027
  9
$ACADMAINTVER
 70
   105
  9
$DWGCODEPAGE
  3
ANSI_1251
  9
$REQUIREDVERSIONS
160
                 0
  9
$INSBASE
 10
0.0
 20
0.0
 30
0.0
  9
$EXTMIN
 10
0.0
 20
0.0
 30
0.0
  9
$EXTMAX
 10
1420.0
 20
1297.0
 30
0.0
  9
$LIMMIN
 10
0.0
 20
0.0
  9
$LIMMAX
 10
1420.0
 20
1297.0
  9
$ORTHOMODE
 70
     0
  9
$REGENMODE
 70
     1
  9
$FILLMODE
 70
     1
  9
$QTEXTMODE
 70
     0
  9
$MIRRTEXT
 70
     1
  9
$LTSCALE
 40
1.0
  9
$ATTMODE
 70
     1
  9
$TEXTSIZE
 40
5.0
  9
$TRACEWID
 40
1.0
  9
$TEXTSTYLE
  7
Standard
  9
$CLAYER
  8
0
  9
$CELTYPE
  6
ByLayer
  9
$CECOLOR
 62
   256
  9
$CELTSCALE
 40
1.0
  9
$DISPSILH
 70
     0
  9
$DIMSCALE
 40
1.0
  9
$DIMASZ
 40
5.0
  9
$DIMEXO
 40
0.0
  9
$DIMDLI
 40
3.75
  9
$DIMRND
 40
0.0
  9
$DIMDLE
 40
0.0
  9
$DIMEXE
 40
1.0
  9
$DIMTP
 40
0.0
  9
$DIMTM
 40
0.0
  9
$DIMTXT
 40
3.5
  9
$DIMCEN
 40
2.5
  9
$DIMTSZ
 40
0.0
  9
$DIMTOL
 70
     0
  9
$DIMLIM
 70
     0
  9
$DIMTIH
 70
     1
  9
$DIMTOH
 70
     1
  9
$DIMSE1
 70
     0
  9
$DIMSE2
 70
     0
  9
$DIMTAD
 70
     1
  9
$DIMZIN
 70
     0
  9
$DIMBLK
  1

  9
$DIMASO
 70
     1
  9
$DIMSHO
 70
     1
  9
$DIMPOST
  1

  9
$DIMAPOST
  1

  9
$DIMALT
 70
     0
  9
$DIMALTD
 70
     3
  9
$DIMALTF
 40
0.0393700787
  9
$DIMLFAC
 40
1.0
  9
$DIMTOFL
 70
     1
  9
$DIMTVP
 40
0.0
  9
$DIMTIX
 70
     0
  9
$DIMSOXD
 70
     0
  9
$DIMSAH
 70
     0
  9
$DIMBLK1
  1

  9
$DIMBLK2
  1

  9
$DIMSTYLE
  2
ISO-25
  9
$DIMCLRD
 70
     0
  9
$DIMCLRE
 70
     0
  9
$DIMCLRT
 70
     0
  9
$DIMTFAC
 40
1.0
  9
$DIMGAP
 40
1.5
  9
$DIMJUST
 70
     0
  9
$DIMSD1
 70
     0
  9
$DIMSD2
 70
     0
  9
$DIMTOLJ
 70
     0
  9
$DIMTZIN
 70
     0
  9
$DIMALTZ
 70
     0
  9
$DIMALTTZ
 70
     0
  9
$DIMUPT
 70
     0
  9
$DIMDEC
 70
     1
  9
$DIMTDEC
 70
     1
  9
$DIMALTU
 70
     2
  9
$DIMALTTD
 70
     3
  9
$DIMTXSTY
  7
Standard
  9
$DIMAUNIT
 70
     0
  9
$DIMADEC
 70
     2
  9
$DIMALTRND
 40
0.0
  9
$DIMAZIN
 70
     0
  9
$DIMDSEP
 70
    44
  9
$DIMATFIT
 70
     3
  9
$DIMFRAC
 70
     0
  9
$DIMLDRBLK
  1

  9
$DIMLUNIT
 70
     2
  9
$DIMLWD
 70
    -2
  9
$DIMLWE
 70
    -2
  9
$DIMTMOVE
 70
     0
  9
$DIMFXL
 40
1.0
  9
$DIMFXLON
 70
     0
  9
$DIMJOGANG
 40
0.7853981634
  9
$DIMTFILL
 70
     0
  9
$DIMTFILLCLR
 70
     0
  9
$DIMARCSYM
 70
     0
  9
$DIMLTYPE
  6

  9
$DIMLTEX1
  6

  9
$DIMLTEX2
  6

  9
$DIMTXTDIRECTION
 70
     0
  9
$LUNITS
 70
     2
  9
$LUPREC
 70
     1
  9
$SKETCHINC
 40
1.0
  9
$FILLETRAD
 40
10.0
  9
$AUNITS
 70
     0
  9
$AUPREC
 70
     2
  9
$MENU
  1
.
  9
$ELEVATION
 40
0.0
  9
$PELEVATION
 40
0.0
  9
$THICKNESS
 40
0.0
  9
$LIMCHECK
 70
     0
  9
$CHAMFERA
 40
0.0
  9
$CHAMFERB
 40
0.0
  9
$CHAMFERC
 40
0.0
  9
$CHAMFERD
 40
0.0
  9
$SKPOLY
 70
     0
  9
$TDCREATE
 40
2459607.523752327
  9
$TDUCREATE
 40
2459607.398752327
  9
$TDUPDATE
 40
2459607.523752662
  9
$TDUUPDATE
 40
2459607.398752662
  9
$TDINDWG
 40
0.0000000116
  9
$TDUSRTIMER
 40
0.0000000116
  9
$USRTIMER
 70
     1
  9
$ANGBASE
 50
0.0
  9
$ANGDIR
 70
     0
  9
$PDMODE
 70
     0
  9
$PDSIZE
 40
-1.0
  9
$PLINEWID
 40
0.0
  9
$SPLFRAME
 70
     0
  9
$SPLINETYPE
 70
     6
  9
$SPLINESEGS
 70
     8
  9
$HANDSEED
  5
1F0
  9
$SURFTAB1
 70
     6
  9
$SURFTAB2
 70
     6
  9
$SURFTYPE
 70
     6
  9
$SURFU
 70
     6
  9
$SURFV
 70
     6
  9
$UCSBASE
  2

  9
$UCSNAME
  2

  9
$UCSORG
 10
0.0
 20
0.0
 30
0.0
  9
$UCSXDIR
 10
1.0
 20
0.0
 30
0.0
  9
$UCSYDIR
 10
0.0
 20
1.0
 30
0.0
  9
$UCSORTHOREF
  2

  9
$UCSORTHOVIEW
 70
     0
  9
$UCSORGTOP
 10
0.0
 20
0.0
 30
0.0
  9
$UCSORGBOTTOM
 10
0.0
 20
0.0
 30
0.0
  9
$UCSORGLEFT
 10
0.0
 20
0.0
 30
0.0
  9
$UCSORGRIGHT
 10
0.0
 20
0.0
 30
0.0
  9
$UCSORGFRONT
 10
0.0
 20
0.0
 30
0.0
  9
$UCSORGBACK
 10
0.0
 20
0.0
 30
0.0
  9
$PUCSBASE
  2

  9
$PUCSNAME
  2

  9
$PUCSORG
 10
0.0
 20
0.0
 30
0.0
  9
$PUCSXDIR
 10
1.0
 20
0.0
 30
0.0
  9
$PUCSYDIR
 10
0.0
 20
1.0
 30
0.0
  9
$PUCSORTHOREF
  2

  9
$PUCSORTHOVIEW
 70
     0
  9
$PUCSORGTOP
 10
0.0
 20
0.0
 30
0.0
  9
$PUCSORGBOTTOM
 10
0.0
 20
0.0
 30
0.0
  9
$PUCSORGLEFT
 10
0.0
 20
0.0
 30
0.0
  9
$PUCSORGRIGHT
 10
0.0
 20
0.0
 30
0.0
  9
$PUCSORGFRONT
 10
0.0
 20
0.0
 30
0.0
  9
$PUCSORGBACK
 10
0.0
 20
0.0
 30
0.0
  9
$USERI1
 70
     0
  9
$USERI2
 70
     0
  9
$USERI3
 70
     0
  9
$USERI4
 70
     0
  9
$USERI5
 70
     0
  9
$USERR1
 40
0.0
  9
$USERR2
 40
0.0
  9
$USERR3
 40
0.0
  9
$USERR4
 40
0.0
  9
$USERR5
 40
0.0
  9
$WORLDVIEW
 70
     1
  9
$SHADEDGE
 70
     3
  9
$SHADEDIF
 70
    70
  9
$TILEMODE
 70
     1
  9
$MAXACTVP
 70
    64
  9
$PINSBASE
 10
0.0
 20
0.0
 30
0.0
  9
$PLIMCHECK
 70
     0
  9
$PEXTMIN
 10
1.0000000000E+20
 20
1.0000000000E+20
 30
1.0000000000E+20
  9
$PEXTMAX
 10
-1.0000000000E+20
 20
-1.0000000000E+20
 30
-1.0000000000E+20
  9
$PLIMMIN
 10
0.0
 20
0.0
  9
$PLIMMAX
 10
420.0
 20
297.0
  9
$UNITMODE
 70
     0
  9
$VISRETAIN
 70
     1
  9
$PLINEGEN
 70
     0
  9
$PSLTSCALE
 70
     1
  9
$TREEDEPTH
 70
  3020
  9
$CMLSTYLE
  2
Standard
  9
$CMLJUST
 70
     0
  9
$CMLSCALE
 40
20.0
  9
$PROXYGRAPHICS
 70
     1
  9
$MEASUREMENT
 70
     1
  9
$CELWEIGHT
370
    -1
  9
$ENDCAPS
280
     0
  9
$JOINSTYLE
280
     0
  9
$LWDISPLAY
290
     1
  9
$INSUNITS
 70
     4
  9
$HYPERLINKBASE
  1

  9
$STYLESHEET
  1

  9
$XEDIT
290
     1
  9
$CEPSNTYPE
380
     0
  9
$PSTYLEMODE
290
     1
  9
$FINGERPRINTGUID
  2
{65949A9C-B057-409B-B1B0-DFCE6AF60DF3}
  9
$VERSIONGUID
  2
{FAEB1C32-E019-11D5-929B-00C0DF256EC4}
  9
$EXTNAMES
290
     1
  9
$PSVPSCALE
 40
0.0
  9
$OLESTARTUP
290
     0
  9
$SORTENTS
280
   127
  9
$INDEXCTL
280
     0
  9
$HIDETEXT
280
     1
  9
$XCLIPFRAME
280
     2
  9
$HALOGAP
280
     0
  9
$OBSCOLOR
 70
   257
  9
$OBSLTYPE
280
     0
  9
$INTERSECTIONDISPLAY
280
     0
  9
$INTERSECTIONCOLOR
 70
   257
  9
$DIMASSOC
280
     2
  9
$PROJECTNAME
  1

  9
$CAMERADISPLAY
290
     0
  9
$LENSLENGTH
 40
50.0
  9
$CAMERAHEIGHT
 40
0.0
  9
$STEPSPERSEC
 40
2.0
  9
$STEPSIZE
 40
6.0
  9
$3DDWFPREC
 40
2.0
  9
$PSOLWIDTH
 40
5.0
  9
$PSOLHEIGHT
 40
80.0
  9
$LOFTANG1
 40
1.5707963268
  9
$LOFTANG2
 40
1.5707963268
  9
$LOFTMAG1
 40
0.0
  9
$LOFTMAG2
 40
0.0
  9
$LOFTPARAM
 70
     7
  9
$LOFTNORMALS
280
     1
  9
$LATITUDE
 40
37.795
  9
$LONGITUDE
 40
-122.394
  9
$NORTHDIRECTION
 40
0.0
  9
$TIMEZONE
 70
 -8000
  9
$LIGHTGLYPHDISPLAY
280
     1
  9
$TILEMODELIGHTSYNCH
280
     1
  9
$CMATERIAL
347
44
  9
$SOLIDHIST
280
     0
  9
$SHOWHIST
280
     1
  9
$DWFFRAME
280
     2
  9
$DGNFRAME
280
     2
  9
$REALWORLDSCALE
290
     1
  9
$INTERFERECOLOR
 62
   256
  9
$CSHADOW
280
     0
  9
$SHADOWPLANELOCATION
 40
0.0
  0
ENDSEC
  0
SECTION
  2
CLASSES
  0
CLASS
  1
ACDBDICTIONARYWDFLT
  2
AcDbDictionaryWithDefault
  3
ObjectDBX Classes
 90
        0
 91
        4
280
     0
281
     0
  0
CLASS
  1
VISUALSTYLE
  2
AcDbVisualStyle
  3
ObjectDBX Classes
 90
     4095
 91
        4
280
     0
281
     0
  0
CLASS
  1
MATERIAL
  2
AcDbMaterial
  3
ObjectDBX Classes
 90
     1153
 91
        4
280
     0
281
     0
  0
CLASS
  1
SCALE
  2
AcDbScale
  3
ObjectDBX Classes
 90
     1153
 91
        4
280
     0
281
     0
  0
CLASS
  1
TABLESTYLE
  2
AcDbTableStyle
  3
ObjectDBX Classes
 90
     4095
 91
        4
280
     0
281
     0
  0
CLASS
  1
MLEADERSTYLE
  2
AcDbMLeaderStyle
  3
ACDB_MLEADERSTYLE_CLASS
 90
     4095
 91
        4
280
     0
281
     0
  0
CLASS
  1
SUN
  2
AcDbSun
  3
SCENEOE
 90
     1153
 91
        4
280
     0
281
     0
  0
CLASS
  1
DICTIONARYVAR
  2
AcDbDictionaryVar
  3
ObjectDBX Classes
 90
        0
 91
        4
280
     0
281
     0
  0
CLASS
  1
CELLSTYLEMAP
  2
AcDbCellStyleMap
  3
ObjectDBX Classes
 90
     1152
 91
        4
280
     0
281
     0
  0
ENDSEC
  0
SECTION
  2
TABLES
  0
TABLE
  2
VPORT
  5
8
330
0
100
AcDbSymbolTable
 70
     1
  0
VPORT
  5
29
330
8
100
AcDbSymbolTableRecord
100
AcDbViewportTableRecord
  2
*Active
 70
     0
 10
0.0
 20
0.0
 11
1.0
 21
1.0
 12
710.0
 22
648.5
 13
0.0
 23
0.0
 14
10.0
 24
10.0
 15
10.0
 25
10.0
 16
0.0
 26
0.0
 36
1.0
 17
0.0
 27
0.0
 37
0.0
 40
1297.0
 41
1.0948342328
 42
50.0
 43
0.0
 44
0.0
 50
0.0
 51
0.0
 71
     0
 72
  2000
 73
     1
 74
     3
 75
     0
 76
     0
 77
     0
 78
     0
281
     0
 65
     1
110
0.0
120
0.0
130
0.0
111
1.0
121
0.0
131
0.0
112
0.0
122
1.0
132
0.0
 79
     0
146
0.0
348
2F
 60
     3
 61
     5
292
     1
282
     1
141
0.0
142
0.0
 63
   250
361
6D
  0
ENDTAB
  0
TABLE
  2
LTYPE
  5
5
330
0
100
AcDbSymbolTable
 70
     8
  0
LTYPE
  5
14
330
5
100
AcDbSymbolTableRecord
100
AcDbLinetypeTableRecord
  2
ByBlock
 70
     0
  3

 72
    65
 73
     0
 40
0.0
  0
LTYPE
  5
15
330
5
100
AcDbSymbolTableRecord
100
AcDbLinetypeTableRecord
  2
ByLayer
 70
     0
  3

 72
    65
 73
     0
 40
0.0
  0
LTYPE
  5
16
330
5
100
AcDbSymbolTableRecord
100
AcDbLinetypeTableRecord
  2
Continuous
 70
     0
  3
Solid line
 72
    65
 73
     0
 40
0.0
  0
LTYPE
  5
6E
330
5
100
AcDbSymbolTableRecord
100
AcDbLinetypeTableRecord
  2
SLD-Сплошная
 70
     0
  3
SolidWorks Line Style
 72
    65
 73
     0
 40
0.0
  0
LTYPE
  5
6F
330
5
100
AcDbSymbolTableRecord
100
AcDbLinetypeTableRecord
  2
SLD-Штриховая
 70
     0
  3
SolidWorks Line Style
 72
    65
 73
     2
 40
1.905
 49
1.27
 74
     0
 49
-0.635
 74
     0
  0
LTYPE
  5
70
330
5
100
AcDbSymbolTableRecord
100
AcDbLinetypeTableRecord
  2
SLD-Штрихпункт.-с-двумя-точками
 70
     0
  3
SolidWorks Line Style
 72
    65
 73
     6
 40
12.7
 49
6.35
 74
     0
 49
-1.27
 74
     0
 49
1.27
 74
     0
 49
-1.27
 74
     0
 49
1.27
 74
     0
 49
-1.27
 74
     0
  0
LTYPE
  5
71
330
5
100
AcDbSymbolTableRecord
100
AcDbLinetypeTableRecord
  2
SLD-Штрихпункт.-утолщ.
 70
     0
  3
SolidWorks Line Style
 72
    65
 73
     4
 40
10.16
 49
6.35
 74
     0
 49
-1.27
 74
     0
 49
1.27
 74
     0
 49
-1.27
 74
     0
  0
LTYPE
  5
72
330
5
100
AcDbSymbolTableRecord
100
AcDbLinetypeTableRecord
  2
SLD-Осевая
 70
     0
  3
SolidWorks Line Style
 72
    65
 73
     4
 40
19.05
 49
15.24
 74
     0
 49
-1.27
 74
     0
 49
1.27
 74
     0
 49
-1.27
 74
     0
  0
LTYPE
  5
73
330
5
100
AcDbSymbolTableRecord
100
AcDbLinetypeTableRecord
  2
SLD-Сшитая
 70
     0
  3
SolidWorks Line Style
 72
    65
 73
     2
 40
0.635
 49
0.0
 74
     0
 49
-0.635
 74
     0
  0
LTYPE
  5
74
330
5
100
AcDbSymbolTableRecord
100
AcDbLinetypeTableRecord
  2
SLD-Тонкая-Толстая
 70
     0
  3
SolidWorks Line Style
 72
    65
 73
     2
 40
5.080508
 49
0.000508
 74
     0
 49
-5.08
 74
     0
  0
ENDTAB
  0
TABLE
  2
LAYER
  5
2
330
0
100
AcDbSymbolTable
 70
     5
  0
LAYER
  5
10
330
2
100
AcDbSymbolTableRecord
100
AcDbLayerTableRecord
  2
0
 70
     0
 62
     7
  6
Continuous
370
    -3
390
F
347
46
348
0
  0
LAYER
  5
75
330
2
100
AcDbSymbolTableRecord
100
AcDbLayerTableRecord
  2
ОСНОВНОЙ
 70
     0
 62
   236
  6
SLD-Сплошная
370
    35
390
F
347
46
348
0
  0
LAYER
  5
76
330
2
100
AcDbSymbolTableRecord
100
AcDbLayerTableRecord
  2
HELP
 70
     0
 62
   -57
  6
SLD-Сплошная
290
     0
370
    -3
390
F
347
46
348
0
  0
LAYER
  5
77
330
2
100
AcDbSymbolTableRecord
100
AcDbLayerTableRecord
  2
ТЕКСТ
 70
     0
 62
   150
  6
SLD-Сплошная
370
    -3
390
F
347
46
348
0
  0
LAYER
  5
78
330
2
100
AcDbSymbolTableRecord
100
AcDbLayerTableRecord
  2
ТОНКИЙ
 70
     0
 62
   174
  6
SLD-Сплошная
370
    -3
390
F
347
46
348
0
  0
ENDTAB
  0
TABLE
  2
STYLE
  5
3
330
0
100
AcDbSymbolTable
 70
     1
  0
STYLE
  5
11
330
3
100
AcDbSymbolTableRecord
100
AcDbTextStyleTableRecord
  2
Standard
 70
     0
 40
0.0
 41
1.0
 50
0.0
 71
     0
 42
5.0
  3
txt
  4

  0
ENDTAB
  0
TABLE
  2
VIEW
  5
6
330
0
100
AcDbSymbolTable
 70
     0
  0
ENDTAB
  0
TABLE
  2
UCS
  5
7
330
0
100
AcDbSymbolTable
 70
     0
  0
ENDTAB
  0
TABLE
  2
APPID
  5
9
330
0
100
AcDbSymbolTable
 70
     1
  0
APPID
  5
12
330
9
100
AcDbSymbolTableRecord
100
AcDbRegAppTableRecord
  2
ACAD
 70
     0
  0
ENDTAB
  0
TABLE
  2
DIMSTYLE
  5
A
330
0
100
AcDbSymbolTable
 70
     1
100
AcDbDimStyleTable
  0
DIMSTYLE
105
27
330
A
100
AcDbSymbolTableRecord
100
AcDbDimStyleTableRecord
  2
ISO-25
 70
     0
 41
2.5
 42
0.625
 43
3.75
 44
1.25
 73
     0
 74
     0
 77
     1
 78
     8
140
2.5
141
2.5
143
0.0393700787
147
0.625
171
     3
172
     1
178
     0
271
     2
272
     2
274
     3
278
    44
283
     0
284
     8
340
11
  0
ENDTAB
  0
TABLE
  2
BLOCK_RECORD
  5
1
330
0
100
AcDbSymbolTable
 70
     1
  0
BLOCK_RECORD
  5
1F
330
1
100
AcDbSymbolTableRecord
100
AcDbBlockTableRecord
  2
*Model_Space
340
22
 70
     0
280
     1
281
     0
  0
BLOCK_RECORD
  5
1B
330
1
100
AcDbSymbolTableRecord
100
AcDbBlockTableRecord
  2
*Paper_Space
340
1E
 70
     0
280
     1
281
     0
  0
BLOCK_RECORD
  5
23
330
1
100
AcDbSymbolTableRecord
100
AcDbBlockTableRecord
  2
*Paper_Space0
340
26
 70
     0
280
     1
281
     0
  0
ENDTAB
  0
ENDSEC
  0
SECTION
  2
BLOCKS
  0
BLOCK
  5
20
330
1F
100
AcDbEntity
  8
0
100
AcDbBlockBegin
  2
*Model_Space
 70
     0
 10
0.0
 20
0.0
 30
0.0
  3
*Model_Space
  1

  0
ENDBLK
  5
21
330
1F
100
AcDbEntity
  8
0
100
AcDbBlockEnd
  0
BLOCK
  5
1C
330
1B
100
AcDbEntity
 67
     1
  8
0
100
AcDbBlockBegin
  2
*Paper_Space
 70
     0
 10
0.0
 20
0.0
 30
0.0
  3
*Paper_Space
  1

  0
ENDBLK
  5
1D
330
1B
100
AcDbEntity
 67
     1
  8
0
100
AcDbBlockEnd
  0
BLOCK
  5
24
330
23
100
AcDbEntity
  8
0
100
AcDbBlockBegin
  2
*Paper_Space0
 70
     0
 10
0.0
 20
0.0
 30
0.0
  3
*Paper_Space0
  1

  0
ENDBLK
  5
25
330
23
100
AcDbEntity
  8
0
100
AcDbBlockEnd
  0
ENDSEC
  0
SECTION
  2
ENTITIES
  0
CIRCLE
  5
79
330
1F
100
AcDbEntity
  8
0
  6
SLD-Сплошная
 62
     7
370
    35
100
AcDbCircle
 10
-201.0080198035
 20
282.0695885154
 30
0.0
 40
2.050000000000011
  0
CIRCLE
  5
7A
330
1F
100
AcDbEntity
  8
0
  6
SLD-Сплошная
 62
     7
370
    35
100
AcDbCircle
 10
117.5634812842
 20
-487.0300499962
 30
0.0
 40
2.050000000000011
  0
LINE
  5
7B
330
1F
100
AcDbEntity
  8
0
  6
SLD-Сплошная
 62
     7
370
    35
100
AcDbLine
 10
154.8081124896
 20
352.2145812092
 30
0.0
 11
156.3637474082
 21
353.7702161278
 31
0.0
  0
LINE
  5
7C
330
1F
100
AcDbEntity
  8
0
  6
SLD-Сплошная
 62
     7
370
    35
100
AcDbLine
 10
24.1347793263
 20
485.9991842097
 30
0.0
 11
156.3637474082
 21
353.7702161278
 31
0.0
  0
LINE
  5
7D
330
1F
100
AcDbEntity
  8
0
  6
SLD-Сплошная
 62
     7
370
    35
100
AcDbLine
 10
24.1347793263
 20
485.9991842096
 30
0.0
 11
22.5791444077
 21
484.443549291
 31
0.0
  0
SPLINE
  5
7E
330
1F
100
AcDbEntity
  8
0
  6
SLD-Сплошная
 62
     7
370
    35
100
AcDbSpline
210
0.0
220
0.0
230
1.0
 70
    24
 71
     3
 72
    10
 73
     6
 74
     0
 42
0.000000001
 43
0.00000001
 40
0.0
 40
0.0
 40
0.0
 40
0.0
 40
0.5
 40
0.5
 40
1.0
 40
1.0
 40
1.0
 40
1.0
 10
-404.0433363346091
 20
57.82106854876656
 30
0.0
 10
-404.2701118430679
 20
57.59429304030772
 30
0.0
 10
-404.4704621559515
 20
57.39394272742426
 30
0.0
 10
-404.7731223471999
 20
57.09128253617601
 30
0.0
 10
-404.8751603511105
 20
56.98924453226534
 30
0.0
 10
-404.9163986650523
 20
56.94800621832352
 30
0.0
  0
LINE
  5
7F
330
1F
100
AcDbEntity
  8
0
  6
SLD-Сплошная
 62
     7
370
    35
100
AcDbLine
 10
-403.7638663749
 20
58.1005385085
 30
0.0
 11
-404.0433363346
 21
57.8210685488
 31
0.0
  0
SPLINE
  5
80
330
1F
100
AcDbEntity
  8
0
  6
SLD-Сплошная
 62
     7
370
    35
100
AcDbSpline
210
0.0
220
0.0
230
1.0
 70
    24
 71
     3
 72
     8
 73
     4
 74
     0
 42
0.000000001
 43
0.00000001
 40
0.0
 40
0.0
 40
0.0
 40
0.0
 40
1.0
 40
1.0
 40
1.0
 40
1.0
 10
-403.3819805791107
 20
58.48242430426509
 30
0.0
 10
-403.5105903483719
 20
58.35381453500388
 30
0.0
 10
-403.639192030391
 20
58.22521285298477
 30
0.0
 10
-403.7638663749153
 20
58.10053850846047
 30
0.0
  0
LINE
  5
81
330
1F
100
AcDbEntity
  8
0
  6
SLD-Сплошная
 62
     7
370
    35
100
AcDbLine
 10
-271.1530124972
 20
-73.7465437776
 30
0.0
 11
-272.7086474158
 21
-75.3021786962
 31
0.0
  0
LINE
  5
82
330
1F
100
AcDbEntity
  8
0
  6
SLD-Сплошная
 62
     7
370
    35
100
AcDbLine
 10
-404.9376154977
 20
56.9267893856
 30
0.0
 11
-272.7086474158
 21
-75.3021786962
 31
0.0
  0
SPLINE
  5
83
330
1F
100
AcDbEntity
  8
0
  6
SLD-Сплошная
 62
     7
370
    35
100
AcDbSpline
210
0.0
220
0.0
230
1.0
 70
    24
 71
     3
 72
     8
 73
     4
 74
     0
 42
0.000000001
 43
0.00000001
 40
0.0
 40
0.0
 40
0.0
 40
0.0
 40
1.0
 40
1.0
 40
1.0
 40
1.0
 10
-404.9323022157774
 20
56.93210266759835
 30
0.0
 10
-404.9358423859665
 20
56.9285624974093
 30
0.0
 10
-404.9376154977211
 20
56.92678938565471
 30
0.0
 10
-404.9376154977211
 20
56.92678938565471
 30
0.0
  0
LINE
  5
84
330
1F
100
AcDbEntity
  8
0
  6
SLD-Сплошная
 62
     7
370
    35
100
AcDbLine
 10
-404.916398665
 20
56.9480062183
 30
0.0
 11
-404.9323022158
 21
56.9321026676
 31
0.0
  0
LINE
  5
85
330
1F
100
AcDbEntity
  8
0
  6
SLD-Сплошная
 62
     7
370
    35
100
AcDbLine
 10
-185.8365187158
 20
-472.0300499962
 30
0.0
 11
-185.8365187158
 21
-285.0300499962
 31
0.0
  0
LINE
  5
86
330
1F
100
AcDbEntity
  8
0
  6
SLD-Сплошная
 62
     7
370
    35
100
AcDbLine
 10
-183.6365187158
 20
-285.0300499962
 30
0.0
 11
-185.8365187158
 21
-285.0300499962
 31
0.0
  0
LINE
  5
87
330
1F
100
AcDbEntity
  8
0
  6
SLD-Сплошная
 62
     7
370
    35
100
AcDbLine
 10
-183.6365187158
 20
-472.0300499962
 30
0.0
 11
-185.8365187158
 21
-472.0300499962
 31
0.0
  0
LINE
  5
88
330
1F
100
AcDbEntity
  8
0
  6
SLD-Сплошная
 62
     7
370
    35
100
AcDbLine
 10
418.7634812842
 20
-285.0300499962
 30
0.0
 11
420.9634812842
 21
-285.0300499962
 31
0.0
  0
LINE
  5
89
330
1F
100
AcDbEntity
  8
0
  6
SLD-Сплошная
 62
     7
370
    35
100
AcDbLine
 10
420.9634812842
 20
-472.0300499962
 30
0.0
 11
420.9634812842
 21
-285.0300499962
 31
0.0
  0
LINE
  5
8A
330
1F
100
AcDbEntity
  8
0
  6
SLD-Сплошная
 62
     7
370
    35
100
AcDbLine
 10
420.9634812842
 20
-472.0300499962
 30
0.0
 11
418.7634812842
 21
-472.0300499962
 31
0.0
  0
ARC
  5
8B
330
1F
100
AcDbEntity
  8
0
  6
SLD-Сплошная
 62
     7
370
    35
100
AcDbCircle
 10
-176.4365187158
 20
-497.0300499962
 30
0.0
 40
5.000000000000057
100
AcDbArc
 50
180.0
 51
270.0
  0
LINE
  5
8C
330
1F
100
AcDbEntity
  8
0
  6
SLD-Сплошная
 62
     7
370
    35
100
AcDbLine
 10
-181.4365187158
 20
-497.0300499962
 30
0.0
 11
-181.4365187158
 21
-472.0300499962
 31
0.0
  0
LINE
  5
8D
330
1F
100
AcDbEntity
  8
0
  6
SLD-Сплошная
 62
     7
370
    35
100
AcDbLine
 10
-181.4365187158
 20
-285.0300499962
 30
0.0
 11
-183.6365187158
 21
-285.0300499962
 31
0.0
  0
ARC
  5
8E
330
1F
100
AcDbEntity
  8
0
  6
SLD-Сплошная
 62
     7
370
    35
100
AcDbCircle
 10
-181.4490810081
 20
-282.2800786893
 30
0.0
 40
2.749999999999987
100
AcDbArc
 50
270.2617341224
 51
90.7852023671
  0
ARC
  5
8F
330
1F
100
AcDbEntity
  8
0
  6
SLD-Сплошная
 62
     7
370
    35
100
AcDbCircle
 10
-482.4365187158
 20
-285.0300499962
 30
0.0
 40
301.0000000000001
100
AcDbArc
 50
1.0469364894
 51
43.9530635106
  0
ARC
  5
90
330
1F
100
AcDbEntity
  8
0
  6
SLD-Сплошная
 62
     7
370
    35
100
AcDbCircle
 10
-267.6617371015
 20
-74.1443151003
 30
0.0
 40
2.750000000000033
100
AcDbArc
 50
314.2147976329
 51
134.7382658775
  0
LINE
  5
91
330
1F
100
AcDbEntity
  8
0
  6
SLD-Сплошная
 62
     7
370
    35
100
AcDbLine
 10
-271.1530124972
 20
-73.7465437776
 30
0.0
 11
-269.5973775786
 21
-72.190908859
 31
0.0
  0
LINE
  5
92
330
1F
100
AcDbEntity
  8
0
  6
SLD-Сплошная
 62
     7
370
    35
100
AcDbLine
 10
-401.8263456605
 20
60.0380592229
 30
0.0
 11
-419.5040151902
 21
77.7157287525
 31
0.0
  0
ARC
  5
93
330
1F
100
AcDbEntity
  8
0
  6
SLD-Сплошная
 62
     7
370
    35
100
AcDbCircle
 10
-415.9684812842
 20
81.2512626585
 30
0.0
 40
5.00000000000003
100
AcDbArc
 50
135.0
 51
225.0
  0
LINE
  5
94
330
1F
100
AcDbEntity
  8
0
  6
SLD-Сплошная
 62
     7
370
    35
100
AcDbLine
 10
-3.7252278525
 20
500.5655839021
 30
0.0
 11
-419.5040151902
 21
84.7867965644
 31
0.0
  0
ARC
  5
95
330
1F
100
AcDbEntity
  8
0
  6
SLD-Сплошная
 62
     7
370
    35
100
AcDbCircle
 10
-0.1896939465
 20
497.0300499962
 30
0.0
 40
5.000000000000031
100
AcDbArc
 50
45.0
 51
135.0
  0
LINE
  5
96
330
1F
100
AcDbEntity
  8
0
  6
SLD-Сплошная
 62
     7
370
    35
100
AcDbLine
 10
3.3458399594
 20
500.5655839021
 30
0.0
 11
21.0235094891
 21
482.8879143724
 31
0.0
  0
LINE
  5
97
330
1F
100
AcDbEntity
  8
0
  6
SLD-Сплошная
 62
     7
370
    35
100
AcDbLine
 10
153.2524775709
 20
350.6589462905
 30
0.0
 11
154.8081124896
 21
352.2145812092
 31
0.0
  0
ARC
  5
98
330
1F
100
AcDbEntity
  8
0
  6
SLD-Сплошная
 62
     7
370
    35
100
AcDbCircle
 10
155.1940448096
 20
348.7114307815
 30
0.0
 40
2.750000000000407
100
AcDbArc
 50
134.9123673776
 51
314.7371021328
  0
ARC
  5
99
330
1F
100
AcDbEntity
  8
0
  6
SLD-Сплошная
 62
     7
370
    35
100
AcDbCircle
 10
-482.4365187158
 20
-285.0300499962
 30
0.0
 40
898.9999999999999
100
AcDbArc
 50
0.3505304896
 51
44.6494695104
  0
ARC
  5
9A
330
1F
100
AcDbEntity
  8
0
  6
SLD-Сплошная
 62
     7
370
    35
100
AcDbCircle
 10
416.5592752219
 20
-282.2800532127
 30
0.0
 40
2.75000000000049
100
AcDbArc
 50
90.2628978672
 51
270.0876326224
  0
LINE
  5
9B
330
1F
100
AcDbEntity
  8
0
  6
SLD-Сплошная
 62
     7
370
    35
100
AcDbLine
 10
418.7634812842
 20
-285.0300499962
 30
0.0
 11
416.5634812842
 21
-285.0300499962
 31
0.0
  0
LINE
  5
9C
330
1F
100
AcDbEntity
  8
0
  6
SLD-Сплошная
 62
     7
370
    35
100
AcDbLine
 10
418.7634812842
 20
-472.0300499962
 30
0.0
 11
416.5634812842
 21
-472.0300499962
 31
0.0
  0
LINE
  5
9D
330
1F
100
AcDbEntity
  8
0
  6
SLD-Сплошная
 62
     7
370
    35
100
AcDbLine
 10
416.5634812842
 20
-472.0300499962
 30
0.0
 11
416.5634812842
 21
-497.0300499962
 31
0.0
  0
ARC
  5
9E
330
1F
100
AcDbEntity
  8
0
  6
SLD-Сплошная
 62
     7
370
    35
100
AcDbCircle
 10
411.5634812842
 20
-497.0300499962
 30
0.0
 40
5.0
100
AcDbArc
 50
270.0
 51
0.0
  0
LINE
  5
9F
330
1F
100
AcDbEntity
  8
0
  6
SLD-Сплошная
 62
     7
370
    35
100
AcDbLine
 10
-176.4365187158
 20
-502.0300499962
 30
0.0
 11
411.5634812842
 21
-502.0300499962
 31
0.0
  0
LINE
  5
A0
330
1F
100
AcDbEntity
  8
0
  6
SLD-Сплошная
 62
     7
370
    35
100
AcDbLine
 10
21.0235094891
 20
482.8879143724
 30
0.0
 11
22.5791444077
 21
484.443549291
 31
0.0
  0
LINE
  5
A1
330
1F
100
AcDbEntity
  8
0
  6
SLD-Сплошная
 62
     7
370
    35
100
AcDbLine
 10
-403.3819805791
 20
58.4824243043
 30
0.0
 11
-401.8263456605
 21
60.0380592229
 31
0.0
  0
LINE
  5
A2
330
1F
100
AcDbEntity
  8
0
  6
SLD-Сплошная
 62
     7
370
    35
100
AcDbLine
 10
-181.4365187158
 20
-472.0300499962
 30
0.0
 11
-183.6365187158
 21
-472.0300499962
 31
0.0
  0
ARC
  5
A3
330
1F
100
AcDbEntity
  8
0
  6
SLD-Сплошная
 62
     7
370
    18
100
AcDbCircle
 10
117.5634812842
 20
-487.0300499962
 30
0.0
 40
2.256500000000066
100
AcDbArc
 50
255.0
 51
195.0
  0
LINE
  5
A4
330
1F
100
AcDbEntity
  8
0
  6
SLD-Сплошная
 62
     7
370
    35
100
AcDbLine
 10
608.1645688053
 20
-72.5005995575
 30
0.0
 11
607.3160406679
 21
-73.1005995575
 31
0.0
  0
ARC
  5
A5
330
1F
100
AcDbEntity
  8
0
  6
SLD-Сплошная
 62
     7
370
    35
100
AcDbCircle
 10
591.8866486348
 20
273.3240041032
 30
0.0
 40
0.3000000000000748
100
AcDbArc
 50
0.0
 51
45.0
  0
ARC
  5
A6
330
1F
100
AcDbEntity
  8
0
  6
SLD-Сплошная
 62
     7
370
    35
100
AcDbCircle
 10
591.8866486348
 20
290.8151729277
 30
0.0
 40
0.3000000000000748
100
AcDbArc
 50
315.0
 51
0.0
  0
LINE
  5
A7
330
1F
100
AcDbEntity
  8
0
  6
SLD-Сплошная
 62
     7
370
    35
100
AcDbLine
 10
592.0987806691
 20
273.5361361375
 30
0.0
 11
591.625988463
 21
274.0089283437
 31
0.0
  0
LINE
  5
A8
330
1F
100
AcDbEntity
  8
0
  6
SLD-Сплошная
 62
     7
370
    35
100
AcDbLine
 10
591.625988463
 20
290.1302486872
 30
0.0
 11
592.0987806691
 21
290.6030408934
 31
0.0
  0
ARC
  5
A9
330
1F
100
AcDbEntity
  8
0
  6
SLD-Сплошная
 62
     7
370
    35
100
AcDbCircle
 10
592.6866486348
 20
289.0695885154
 30
0.0
 40
1.500000000000012
100
AcDbArc
 50
135.0
 51
180.0
  0
ARC
  5
AA
330
1F
100
AcDbEntity
  8
0
  6
SLD-Сплошная
 62
     7
370
    35
100
AcDbCircle
 10
592.6866486348
 20
275.0695885154
 30
0.0
 40
1.5
100
AcDbArc
 50
180.0
 51
225.0
  0
LINE
  5
AB
330
1F
100
AcDbEntity
  8
0
  6
SLD-Сплошная
 62
     7
370
    35
100
AcDbLine
 10
593.9866486347
 20
278.8195885154
 30
0.0
 11
593.3866486348
 21
278.8195885154
 31
0.0
  0
LINE
  5
AC
330
1F
100
AcDbEntity
  8
0
  6
SLD-Сплошная
 62
     7
370
    35
100
AcDbLine
 10
593.3866486348
 20
285.3195885154
 30
0.0
 11
593.9866486347
 21
285.3195885154
 31
0.0
  0
LINE
  5
AD
330
1F
100
AcDbEntity
  8
0
  6
SLD-Сплошная
 62
     7
370
    35
100
AcDbLine
 10
592.1866486348
 20
502.0300499962
 30
0.0
 11
593.3866486348
 21
502.0300499962
 31
0.0
  0
LINE
  5
AE
330
1F
100
AcDbEntity
  8
0
  6
SLD-Сплошная
 62
     7
370
    35
100
AcDbLine
 10
607.3160406679
 20
483.7976050709
 30
0.0
 11
608.1645688053
 21
483.1976050709
 31
0.0
  0
LINE
  5
AF
330
1F
100
AcDbEntity
  8
0
  6
SLD-Сплошная
 62
     7
370
    35
100
AcDbLine
 10
604.053362353
 20
468.3942053895
 30
0.0
 11
604.0984911046
 21
468.3974152223
 31
0.0
  0
ARC
  5
B0
330
1F
100
AcDbEntity
  8
0
  6
SLD-Сплошная
 62
     7
370
    35
100
AcDbCircle
 10
591.8866486347
 20
-495.7756344084
 30
0.0
 40
0.3000000000000682
100
AcDbArc
 50
0.0
 51
45.0
  0
ARC
  5
B1
330
1F
100
AcDbEntity
  8
0
  6
SLD-Сплошная
 62
     7
370
    35
100
AcDbCircle
 10
591.8866486347
 20
-478.2844655839
 30
0.0
 40
0.3000000000000682
100
AcDbArc
 50
315.0
 51
0.0
  0
LINE
  5
B2
330
1F
100
AcDbEntity
  8
0
  6
SLD-Сплошная
 62
     7
370
    35
100
AcDbLine
 10
592.0987806691
 20
-495.5635023741
 30
0.0
 11
591.625988463
 21
-495.0907101679
 31
0.0
  0
LINE
  5
B3
330
1F
100
AcDbEntity
  8
0
  6
SLD-Сплошная
 62
     7
370
    35
100
AcDbLine
 10
591.625988463
 20
-478.9693898244
 30
0.0
 11
592.0987806691
 21
-478.4965976182
 31
0.0
  0
ARC
  5
B4
330
1F
100
AcDbEntity
  8
0
  6
SLD-Сплошная
 62
     7
370
    35
100
AcDbCircle
 10
592.6866486347
 20
-480.0300499962
 30
0.0
 40
1.500000000000052
100
AcDbArc
 50
135.0
 51
180.0
  0
ARC
  5
B5
330
1F
100
AcDbEntity
  8
0
  6
SLD-Сплошная
 62
     7
370
    35
100
AcDbCircle
 10
592.6866486347
 20
-494.0300499962
 30
0.0
 40
1.500000000000093
100
AcDbArc
 50
180.0
 51
225.0
  0
LINE
  5
B6
330
1F
100
AcDbEntity
  8
0
  6
SLD-Сплошная
 62
     7
370
    35
100
AcDbLine
 10
593.3866486348
 20
-483.7800499962
 30
0.0
 11
593.9866486349
 21
-483.7800499962
 31
0.0
  0
LINE
  5
B7
330
1F
100
AcDbEntity
  8
0
  6
SLD-Сплошная
 62
     7
370
    35
100
AcDbLine
 10
593.9866486349
 20
-490.2800499962
 30
0.0
 11
593.3866486348
 21
-490.2800499962
 31
0.0
  0
LINE
  5
B8
330
1F
100
AcDbEntity
  8
0
  6
SLD-Сплошная
 62
     7
370
    35
100
AcDbLine
 10
592.1866486348
 20
84.7867965644
 30
0.0
 11
592.1866486348
 21
77.7157287525
 31
0.0
  0
LINE
  5
B9
330
1F
100
AcDbEntity
  8
0
  6
SLD-Сплошная
 62
     7
370
    35
100
AcDbLine
 10
593.3866486348
 20
77.7157287525
 30
0.0
 11
593.3866486348
 21
84.7867965644
 31
0.0
  0
LINE
  5
BA
330
1F
100
AcDbEntity
  8
0
  6
SLD-Сплошная
 62
     7
370
    35
100
AcDbLine
 10
593.3866486348
 20
60.0380592229
 30
0.0
 11
592.1866486348
 21
60.0380592229
 31
0.0
  0
LINE
  5
BB
330
1F
100
AcDbEntity
  8
0
  6
SLD-Сплошная
 62
     7
370
    35
100
AcDbLine
 10
592.1866486348
 20
60.0380592229
 30
0.0
 11
592.1866486348
 21
77.7157287525
 31
0.0
  0
LINE
  5
BC
330
1F
100
AcDbEntity
  8
0
  6
SLD-Сплошная
 62
     7
370
    35
100
AcDbLine
 10
593.3866486348
 20
60.0380592229
 30
0.0
 11
593.3866486348
 21
77.7157287525
 31
0.0
  0
LINE
  5
BD
330
1F
100
AcDbEntity
  8
0
  6
SLD-Сплошная
 62
     7
370
    35
100
AcDbLine
 10
592.1866486348
 20
500.5655839021
 30
0.0
 11
592.1866486348
 21
84.7867965644
 31
0.0
  0
LINE
  5
BE
330
1F
100
AcDbEntity
  8
0
  6
SLD-Сплошная
 62
     7
370
    35
100
AcDbLine
 10
593.3866486348
 20
500.5655839021
 30
0.0
 11
593.3866486348
 21
84.7867965644
 31
0.0
  0
SPLINE
  5
BF
330
1F
100
AcDbEntity
  8
0
  6
SLD-Сплошная
 62
     7
370
    35
100
AcDbSpline
210
0.0
220
0.0
230
1.0
 70
     8
 71
     3
 72
    10
 73
     6
 74
     0
 42
0.000000001
 43
0.00000001
 40
0.0
 40
0.0
 40
0.0
 40
0.0
 40
0.5
 40
0.5
 40
1.0
 40
1.0
 40
1.0
 40
1.0
 10
592.3953633389914
 20
57.82106854876656
 30
0.0
 10
592.5459989993262
 20
57.59429304030772
 30
0.0
 10
592.7754499883362
 20
57.39394272742426
 30
0.0
 10
593.3402287731883
 20
57.09128253617601
 30
0.0
 10
593.675049237943
 20
56.98924453226534
 30
0.0
 10
594.0245405362101
 20
56.94800621832352
 30
0.0
  0
ARC
  5
C0
330
1F
100
AcDbEntity
  8
0
  6
SLD-Сплошная
 62
     7
370
    35
100
AcDbCircle
 10
593.4711180162
 20
58.5408406741
 30
0.0
 40
1.294341546115846
100
AcDbArc
 50
199.8875142539
 51
213.7859165375
  0
SPLINE
  5
C1
330
1F
100
AcDbEntity
  8
0
  6
SLD-Сплошная
 62
     7
370
    35
100
AcDbSpline
210
0.0
220
0.0
230
1.0
 70
     8
 71
     3
 72
     8
 73
     4
 74
     0
 42
0.000000001
 43
0.00000001
 40
0.0
 40
0.0
 40
0.0
 40
0.0
 40
1.0
 40
1.0
 40
1.0
 40
1.0
 10
592.1866486348086
 20
58.48242430426509
 30
0.0
 10
592.1866486348086
 20
58.35381453500388
 30
0.0
 10
592.2093187369384
 20
58.22521285298477
 30
0.0
 10
592.2539680497407
 20
58.10053850846047
 30
0.0
  0
ARC
  5
C2
330
1F
100
AcDbEntity
  8
0
  6
SLD-Сплошная
 62
     7
370
    35
100
AcDbCircle
 10
594.1116486348
 20
-73.357635048
 30
0.0
 40
1.963892817849085
100
AcDbArc
 50
191.421753659
 51
278.0494669755
  0
SPLINE
  5
C3
330
1F
100
AcDbEntity
  8
0
  6
SLD-Сплошная
 62
     7
370
    35
100
AcDbSpline
210
0.0
220
0.0
230
1.0
 70
     8
 71
     3
 72
     8
 73
     4
 74
     0
 42
0.000000001
 43
0.00000001
 40
0.0
 40
0.0
 40
0.0
 40
0.0
 40
1.0
 40
1.0
 40
1.0
 40
1.0
 10
594.2049740747681
 20
56.93210266759835
 30
0.0
 10
594.2653942287001
 20
56.9285624974093
 30
0.0
 10
594.3260214081599
 20
56.92678938565471
 30
0.0
 10
594.3866486348086
 20
56.92678938565471
 30
0.0
  0
ARC
  5
C4
330
1F
100
AcDbEntity
  8
0
  6
SLD-Сплошная
 62
     7
370
    35
100
AcDbCircle
 10
594.3846156304
 20
60.0017287386
 30
0.0
 40
3.074878095871898
100
AcDbArc
 50
263.2751064127
 51
266.6507397126
  0
LINE
  5
C5
330
1F
100
AcDbEntity
  8
0
  6
SLD-Сплошная
 62
     7
370
    35
100
AcDbLine
 10
592.1866486348
 20
58.4824243043
 30
0.0
 11
592.1866486348
 21
-73.7465437776
 31
0.0
  0
ARC
  5
C6
330
1F
100
AcDbEntity
  8
0
  6
SLD-Сплошная
 62
     7
370
    35
100
AcDbCircle
 10
594.2616486348
 20
58.6592009996
 30
0.0
 40
0.8926785535726477
100
AcDbArc
 50
191.421753659
 51
278.0494669752
  0
LINE
  5
C7
330
1F
100
AcDbEntity
  8
0
  6
SLD-Сплошная
 62
     7
370
    35
100
AcDbLine
 10
599.7724350724
 20
57.7753175231
 30
0.0
 11
594.3866486348
 21
57.7753175231
 31
0.0
  0
LINE
  5
C8
330
1F
100
AcDbEntity
  8
0
  6
SLD-Сплошная
 62
     7
370
    35
100
AcDbLine
 10
599.7724350724
 20
56.9267893857
 30
0.0
 11
594.3866486348
 21
56.9267893857
 31
0.0
  0
LINE
  5
C9
330
1F
100
AcDbEntity
  8
0
  6
SLD-Сплошная
 62
     7
370
    35
100
AcDbLine
 10
594.3866486348
 20
-75.3021786962
 30
0.0
 11
599.7724350724
 21
-75.3021786962
 31
0.0
  0
LINE
  5
CA
330
1F
100
AcDbEntity
  8
0
  6
SLD-Сплошная
 62
     7
370
    35
100
AcDbLine
 10
599.7724350724
 20
42.8931039491
 30
0.0
 11
599.7724350724
 21
42.6762035747
 31
0.0
  0
SPLINE
  5
CB
330
1F
100
AcDbEntity
  8
0
  6
SLD-Сплошная
 62
     7
370
    35
100
AcDbSpline
210
0.0
220
0.0
230
1.0
 70
     8
 71
     3
 72
    16
 73
    12
 74
     0
 42
0.000000001
 43
0.00000001
 40
0.0
 40
0.0
 40
0.0
 40
0.0
 40
0.125
 40
0.125
 40
0.25
 40
0.25
 40
0.5
 40
0.5
 40
0.75
 40
0.75
 40
1.0
 40
1.0
 40
1.0
 40
1.0
 10
599.7724350724357
 20
42.89310394910306
 30
0.0
 10
599.788211125061
 20
42.97555352136123
 30
0.0
 10
599.804446842238
 20
43.0579265516452
 30
0.0
 10
599.8670721457428
 20
43.21844739189024
 30
0.0
 10
599.9111700811661
 20
43.29783767887735
 30
0.0
 10
600.0653189436301
 20
43.53167944219266
 30
0.0
 10
600.2003984013511
 20
43.6805490031017
 30
0.0
 10
600.5077402191033
 20
43.98596422747136
 30
0.0
 10
600.6744805400368
 20
44.13779524205258
 30
0.0
 10
601.0124355721123
 20
44.46302775117883
 30
0.0
 10
601.1773769552669
 20
44.62956509006688
 30
0.0
 10
601.3280699910458
 20
44.80864178978916
 30
0.0
  0
SPLINE
  5
CC
330
1F
100
AcDbEntity
  8
0
  6
SLD-Сплошная
 62
     7
370
    35
100
AcDbSpline
210
0.0
220
0.0
230
1.0
 70
     8
 71
     3
 72
     8
 73
     4
 74
     0
 42
0.000000001
 43
0.00000001
 40
0.0
 40
0.0
 40
0.0
 40
0.0
 40
1.0
 40
1.0
 40
1.0
 40
1.0
 10
600.7936783798154
 20
57.10455237141871
 30
0.0
 10
600.9917851692069
 20
57.17796820491871
 30
0.0
 10
601.1699148946741
 20
57.26988458549464
 30
0.0
 10
601.3280699910481
 20
57.38171712662743
 30
0.0
  0
SPLINE
  5
CD
330
1F
100
AcDbEntity
  8
0
  6
SLD-Сплошная
 62
     7
370
    35
100
AcDbSpline
210
0.0
220
0.0
230
1.0
 70
     8
 71
     3
 72
    19
 73
    15
 74
     0
 42
0.000000001
 43
0.00000001
 40
0.3853654056179034
 40
0.3853654056179034
 40
0.3853654056179034
 40
0.3853654056179034
 40
0.421052631578927
 40
0.4736842105263021
 40
0.5263157894736996
 40
0.57894736842105
 40
0.6315789473684057
 40
0.6842105263157681
 40
0.7368421052631224
 40
0.7894736842104844
 40
0.8421052631578766
 40
0.894736842105269
 40
0.9473684210526248
 40
1.0
 40
1.0
 40
1.0
 40
1.0
 10
600.7936783797899
 20
57.10455237140933
 30
0.0
 10
600.7754727659304
 20
57.0978056100157
 30
0.0
 10
600.7300865470195
 20
57.08155519634778
 30
0.0
 10
600.656416721129
 20
57.05740956944183
 30
0.0
 10
600.5723803890232
 20
57.0327958976341
 30
0.0
 10
600.4869773688334
 20
57.01065890697987
 30
0.0
 10
600.4003535637578
 20
56.99103633315772
 30
0.0
 10
600.3126569708368
 20
56.97396203397292
 30
0.0
 10
600.2240374177669
 20
56.9594639337091
 30
0.0
 10
600.1346463096914
 20
56.94757145664136
 30
0.0
 10
600.0446363697862
 20
56.93828754968094
 30
0.0
 10
599.9541613785324
 20
56.93169290445815
 30
0.0
 10
599.8633759109324
 20
56.92755683807632
 30
0.0
 10
599.8027486852678
 20
56.92704520312869
 30
0.0
 10
599.7724350724357
 20
56.92678938565476
 30
0.0
  0
ARC
  5
CE
330
1F
100
AcDbEntity
  8
0
  6
SLD-Сплошная
 62
     7
370
    35
100
AcDbCircle
 10
599.7940404853
 20
59.0122122016
 30
0.0
 40
1.23708335990409
100
AcDbArc
 50
268.9992898222
 51
303.6506100472
  0
LINE
  5
CF
330
1F
100
AcDbEntity
  8
0
  6
SLD-Сплошная
 62
     7
370
    35
100
AcDbLine
 10
601.3280699911
 20
57.3817171266
 30
0.0
 11
603.7928932189
 21
59.1246103455
 31
0.0
  0
SPLINE
  5
D0
330
1F
100
AcDbEntity
  8
0
  6
SLD-Сплошная
 62
     7
370
    35
100
AcDbSpline
210
0.0
220
0.0
230
1.0
 70
     8
 71
     3
 72
    14
 73
    10
 74
     0
 42
0.000000001
 43
0.00000001
 40
0.0
 40
0.0
 40
0.0
 40
0.0
 40
0.25
 40
0.25
 40
0.5
 40
0.5
 40
0.75
 40
0.75
 40
1.0
 40
1.0
 40
1.0
 40
1.0
 10
603.7928932188671
 20
59.12461034554567
 30
0.0
 10
603.88677382759
 20
59.19099396059996
 30
0.0
 10
603.9975083311499
 20
59.24277301308517
 30
0.0
 10
604.2410298632865
 20
59.31113682802985
 30
0.0
 10
604.3727725365276
 20
59.32688885038767
 30
0.0
 10
604.6344728260771
 20
59.31579915023022
 30
0.0
 10
604.7661355104682
 20
59.2885303511978
 30
0.0
 10
605.005506242936
 20
59.19302969951868
 30
0.0
 10
605.1155384814983
 20
59.12409603257335
 30
0.0
 10
605.207106781231
 20
59.03869648935412
 30
0.0
  0
ARC
  5
D1
330
1F
100
AcDbEntity
  8
0
  6
SLD-Сплошная
 62
     7
370
    35
100
AcDbCircle
 10
599.7250405324
 20
52.8347411469
 30
0.0
 40
8.279016381617803
100
AcDbArc
 50
5.5801962512
 51
48.5348819782
  0
ARC
  5
D2
330
1F
100
AcDbEntity
  8
0
  6
SLD-Сплошная
 62
     7
370
    35
100
AcDbCircle
 10
600.5735686699
 20
53.434741147
 30
0.0
 40
8.279016381522199
100
AcDbArc
 50
5.5801962511
 51
48.5348819786
  0
SPLINE
  5
D3
330
1F
100
AcDbEntity
  8
0
  6
SLD-Сплошная
 62
     7
370
    35
100
AcDbSpline
210
0.0
220
0.0
230
1.0
 70
     8
 71
     3
 72
    10
 73
     6
 74
     0
 42
0.000000001
 43
0.00000001
 40
0.0
 40
0.0
 40
0.0
 40
0.0
 40
0.5
 40
0.5
 40
1.0
 40
1.0
 40
1.0
 40
1.0
 10
606.0556349186476
 20
59.63869648938402
 30
0.0
 10
605.9212024003161
 20
59.76407258234312
 30
0.0
 10
605.7709908109409
 20
59.86781500502381
 30
0.0
 10
605.4383106629657
 20
60.03273544674026
 30
0.0
 10
605.2576922093515
 20
60.09226969444331
 30
0.0
 10
605.0694092874646
 20
60.1279440674366
 30
0.0
  0
ARC
  5
D4
330
1F
100
AcDbEntity
  8
0
  6
SLD-Сплошная
 62
     7
370
    35
100
AcDbCircle
 10
603.9905728336
 20
43.4182882571
 30
0.0
 40
3.003665149844703
100
AcDbArc
 50
93.7735231058
 51
152.4265286421
  0
LINE
  5
D5
330
1F
100
AcDbEntity
  8
0
  6
SLD-Сплошная
 62
     7
370
    35
100
AcDbLine
 10
602.9443650814
 20
59.7253175231
 30
0.0
 11
600.4795418536
 21
57.9824243043
 31
0.0
  0
LINE
  5
D6
330
1F
100
AcDbEntity
  8
0
  6
SLD-Сплошная
 62
     7
370
    35
100
AcDbLine
 10
592.1866486348
 20
58.4824243043
 30
0.0
 11
592.1866486348
 21
60.0380592229
 31
0.0
  0
LINE
  5
D7
330
1F
100
AcDbEntity
  8
0
  6
SLD-Сплошная
 62
     7
370
    35
100
AcDbLine
 10
593.3866486348
 20
58.4824243043
 30
0.0
 11
593.3866486348
 21
60.0380592229
 31
0.0
  0
LWPOLYLINE
  5
D8
330
1F
100
AcDbEntity
  8
0
  6
SLD-Сплошная
 62
     7
370
    35
100
AcDbPolyline
 90
        9
 70
   128
 43
0.0
 10
607.9648232279
 20
-71.5181166529
 10
607.9146781901
 20
-72.0760089379
 10
607.7656655069
 20
-72.547160081
 10
607.5220121192
 20
-72.9182052596
 10
607.1906295762
 20
-73.1786192884
 10
606.7809179803
 20
-73.3210151807
 10
606.3044993404
 20
-73.3413536893
 10
605.7748878987
 20
-73.2390578857
 10
605.2071067812
 20
-73.0170295251
  0
LINE
  5
D9
330
1F
100
AcDbEntity
  8
0
  6
SLD-Сплошная
 62
     7
370
    35
100
AcDbLine
 10
607.9648232279
 20
53.6397836172
 30
0.0
 11
607.9648232279
 21
-71.5181166529
 31
0.0
  0
SPLINE
  5
DA
330
1F
100
AcDbEntity
  8
0
  6
SLD-Сплошная
 62
     7
370
    35
100
AcDbSpline
210
0.0
220
0.0
230
1.0
 70
     8
 71
     3
 72
     8
 73
     4
 74
     0
 42
0.000000001
 43
0.00000001
 40
0.0
 40
0.0
 40
0.0
 40
0.0
 40
1.0
 40
1.0
 40
1.0
 40
1.0
 10
603.7928932188601
 20
46.41544142343862
 30
0.0
 10
603.8281904021347
 20
46.39108346954129
 30
0.0
 10
603.8662622664303
 20
46.36486043483296
 30
0.0
 10
603.902775190189
 20
46.33264549745286
 30
0.0
  0
SPLINE
  5
DB
330
1F
100
AcDbEntity
  8
0
  6
SLD-Сплошная
 62
     7
370
    35
100
AcDbSpline
210
0.0
220
0.0
230
1.0
 70
     8
 71
     3
 72
     9
 73
     5
 74
     0
 42
0.000000001
 43
0.00000001
 40
0.0
 40
0.0
 40
0.0
 40
0.0
 40
0.5177941431458849
 40
1.0
 40
1.0
 40
1.0
 40
1.0
 10
604.0104858405898
 20
46.21722902754699
 30
0.0
 10
603.9926039203652
 20
46.23896416911505
 30
0.0
 10
603.9580691144749
 20
46.28094058359527
 30
0.0
 10
603.9207639560651
 20
46.31582434391684
 30
0.0
 10
603.9027751901889
 20
46.33264549745297
 30
0.0
  0
SPLINE
  5
DC
330
1F
100
AcDbEntity
  8
0
  6
SLD-Сплошная
 62
     7
370
    35
100
AcDbSpline
210
0.0
220
0.0
230
1.0
 70
     8
 71
     3
 72
    18
 73
    14
 74
     0
 42
0.000000001
 43
0.00000001
 40
0.0
 40
0.0
 40
0.0
 40
0.0
 40
0.2499999999999843
 40
0.2499999999999843
 40
0.4999999999999687
 40
0.4999999999999687
 40
0.6249999999999765
 40
0.6249999999999765
 40
0.7499999999999843
 40
0.7499999999999843
 40
0.8749999999999921
 40
0.8749999999999921
 40
1.0
 40
1.0
 40
1.0
 40
1.0
 10
604.0104858405898
 20
46.21722902754699
 30
0.0
 10
604.1327382628325
 20
46.06351988083301
 30
0.0
 10
604.2254778886073
 20
45.86753094989049
 30
0.0
 10
604.3348599199168
 20
45.44366300149827
 30
0.0
 10
604.351548475958
 20
45.2215632316782
 30
0.0
 10
604.3205443092897
 20
44.88369600356523
 30
0.0
 10
604.3005749144735
 20
44.76939107929251
 30
0.0
 10
604.2424151715037
 20
44.54103826808203
 30
0.0
 10
604.2041833342063
 20
44.42640191595792
 30
0.0
 10
604.1103260318621
 20
44.19139589266485
 30
0.0
 10
604.0540365250534
 20
44.07002805879873
 30
0.0
 10
603.9293739602397
 20
43.81848256193626
 30
0.0
 10
603.8603192067923
 20
43.68900303030859
 30
0.0
 10
603.7928936496403
 20
43.55092325744548
 30
0.0
  0
SPLINE
  5
DD
330
1F
100
AcDbEntity
  8
0
  6
SLD-Сплошная
 62
     7
370
    35
100
AcDbSpline
210
0.0
220
0.0
230
1.0
 70
     8
 71
     3
 72
    14
 73
    10
 74
     0
 42
0.000000001
 43
0.00000001
 40
0.0
 40
0.0
 40
0.0
 40
0.0
 40
0.25
 40
0.25
 40
0.5
 40
0.5
 40
0.75
 40
0.75
 40
1.0
 40
1.0
 40
1.0
 40
1.0
 10
605.2071067812238
 20
-73.0170295250763
 30
0.0
 10
605.1155502462973
 20
-72.97293760264229
 30
0.0
 10
605.0070192271957
 20
-72.9377892133804
 30
0.0
 10
604.7662909581614
 20
-72.89132596741362
 30
0.0
 10
604.6352914196705
 20
-72.88062849171905
 30
0.0
 10
604.3735069180168
 20
-72.89025952270856
 30
0.0
 10
604.2411906674572
 20
-72.9109042210642
 30
0.0
 10
603.999022384472
 20
-72.98376058721989
 30
0.0
 10
603.8867743601687
 20
-73.03655938965554
 30
0.0
 10
603.79289321886
 20
-73.10294338130043
 30
0.0
  0
ARC
  5
DE
330
1F
100
AcDbEntity
  8
0
  6
SLD-Сплошная
 62
     7
370
    35
100
AcDbCircle
 10
604.4971999423
 20
57.3387828257
 30
0.0
 40
2.847252002699797
100
AcDbArc
 50
78.4063716781
 51
123.050648859
  0
LINE
  5
DF
330
1F
100
AcDbEntity
  8
0
  6
SLD-Сплошная
 62
     7
370
    35
100
AcDbLine
 10
608.8133513653
 20
54.2397836172
 30
0.0
 11
608.8133513653
 21
-70.9181166529
 31
0.0
  0
SPLINE
  5
E0
330
1F
100
AcDbEntity
  8
0
  6
SLD-Сплошная
 62
     7
370
    35
100
AcDbSpline
210
0.0
220
0.0
230
1.0
 70
     8
 71
     3
 72
    10
 73
     6
 74
     0
 42
0.000000001
 43
0.00000001
 40
0.0
 40
0.0
 40
0.0
 40
0.0
 40
0.2565560513089946
 40
0.5898555227488769
 40
1.0
 40
1.0
 40
1.0
 40
1.0
 10
601.0588433439405
 20
41.64286181640103
 30
0.0
 10
601.0828031536439
 20
41.6434386706811
 30
0.0
 10
601.1378898530435
 20
41.64476493323149
 30
0.0
 10
601.2291042090663
 20
41.65411202942526
 30
0.0
 10
601.2928838986727
 20
41.66559862554353
 30
0.0
 10
601.3280699910458
 20
41.67193557127913
 30
0.0
  0
LINE
  5
E1
330
1F
100
AcDbEntity
  8
0
  6
SLD-Сплошная
 62
     7
370
    35
100
AcDbLine
 10
601.3280699911
 20
41.6719355713
 30
0.0
 11
600.4795418536
 21
42.2719355713
 31
0.0
  0
SPLINE
  5
E2
330
1F
100
AcDbEntity
  8
0
  6
SLD-Сплошная
 62
     7
370
    35
100
AcDbSpline
210
0.0
220
0.0
230
1.0
 70
     8
 71
     3
 72
     9
 73
     5
 74
     0
 42
0.000000001
 43
0.00000001
 40
0.0
 40
0.0
 40
0.0
 40
0.0
 40
0.5099081270942618
 40
1.0
 40
1.0
 40
1.0
 40
1.0
 10
600.4795418536221
 20
42.27193557127917
 30
0.0
 10
600.364892490791
 20
42.33287270509173
 30
0.0
 10
600.1400493146598
 20
42.45237880937724
 30
0.0
 10
600.0167184062425
 20
42.74326092894726
 30
0.0
 10
599.9562749303491
 20
42.88581989172214
 30
0.0
  0
SPLINE
  5
E3
330
1F
100
AcDbEntity
  8
0
  6
SLD-Сплошная
 62
     7
370
    35
100
AcDbSpline
210
0.0
220
0.0
230
1.0
 70
     8
 71
     3
 72
    14
 73
    10
 74
     0
 42
0.000000001
 43
0.00000001
 40
0.0
 40
0.0
 40
0.0
 40
0.0
 40
0.25
 40
0.25
 40
0.5
 40
0.5
 40
0.75
 40
0.75
 40
1.0
 40
1.0
 40
1.0
 40
1.0
 10
599.7724350724357
 20
42.67620357474539
 30
0.0
 10
599.7887020552944
 20
42.55605904222676
 30
0.0
 10
599.825644935017
 20
42.43957220735617
 30
0.0
 10
599.943995190811
 20
42.21924102692515
 30
0.0
 10
600.0237126295983
 20
42.11675793914394
 30
0.0
 10
600.2096560514088
 20
41.93928950842857
 30
0.0
 10
600.3175757949977
 20
41.86277726010285
 30
0.0
 10
600.5444998053216
 20
41.74381606984385
 30
0.0
 10
600.664262879109
 20
41.70053650578448
 30
0.0
 10
600.7860571273669
 20
41.67374332377594
 30
0.0
  0
SPLINE
  5
E4
330
1F
100
AcDbEntity
  8
0
  6
SLD-Сплошная
 62
     7
370
    35
100
AcDbSpline
210
0.0
220
0.0
230
1.0
 70
     8
 71
     3
 72
     8
 73
     4
 74
     0
 42
0.000000001
 43
0.00000001
 40
0.0
 40
0.0
 40
0.0
 40
0.0
 40
1.0
 40
1.0
 40
1.0
 40
1.0
 10
601.0588433439405
 20
41.64286181640098
 30
0.0
 10
600.9689537523296
 20
41.64290194458587
 30
0.0
 10
600.877766279638
 20
41.65356847936563
 30
0.0
 10
600.7860571273669
 20
41.67374332377582
 30
0.0
  0
ARC
  5
E5
330
1F
100
AcDbEntity
  8
0
  6
SLD-Сплошная
 62
     7
370
    35
100
AcDbCircle
 10
599.7842114941
 20
-72.3474455611
 30
0.0
 40
2.954756603115709
100
AcDbArc
 50
269.7716424283
 51
289.9769026646
  0
SPLINE
  5
E6
330
1F
100
AcDbEntity
  8
0
  6
SLD-Сплошная
 62
     7
370
    35
100
AcDbSpline
210
0.0
220
0.0
230
1.0
 70
     8
 71
     3
 72
     8
 73
     4
 74
     0
 42
0.000000001
 43
0.00000001
 40
0.0
 40
0.0
 40
0.0
 40
0.0
 40
1.0
 40
1.0
 40
1.0
 40
1.0
 10
601.328069991053
 20
-74.84583660011882
 30
0.0
 10
601.1699148975063
 20
-74.95766913924493
 30
0.0
 10
600.9917851730484
 20
-75.05099987104822
 30
0.0
 10
600.7936783881529
 20
-75.12441570383483
 30
0.0
  0
LINE
  5
E7
330
1F
100
AcDbEntity
  8
0
  6
SLD-Сплошная
 62
     7
370
    35
100
AcDbLine
 10
603.7928932189
 20
43.5509223753
 30
0.0
 11
602.9443650814
 21
44.1509223753
 31
0.0
  0
SPLINE
  5
E8
330
1F
100
AcDbEntity
  8
0
  6
SLD-Сплошная
 62
     7
370
    35
100
AcDbSpline
210
0.0
220
0.0
230
1.0
 70
     8
 71
     3
 72
    12
 73
     8
 74
     0
 42
0.000000001
 43
0.00000001
 40
0.0
 40
0.0
 40
0.0
 40
0.0
 40
0.094036849855013
 40
0.3070743332427419
 40
0.536881238679796
 40
0.8216162182885207
 40
1.0
 40
1.0
 40
1.0
 40
1.0
 10
604.0930310065654
 20
46.23795277612619
 30
0.0
 10
604.1146716113888
 20
46.17865242728686
 30
0.0
 10
604.1853383160618
 20
45.98500902994856
 30
0.0
 10
604.0823977507426
 20
45.60236606754692
 30
0.0
 10
603.7747411513676
 20
45.10862775245072
 30
0.0
 10
603.3322495753235
 20
44.63011135545864
 30
0.0
 10
603.0522248298323
 20
44.28417132862628
 30
0.0
 10
602.9443650814362
 20
44.1509223752567
 30
0.0
  0
ARC
  5
E9
330
1F
100
AcDbEntity
  8
0
  6
SLD-Сплошная
 62
     7
370
    35
100
AcDbCircle
 10
600.6666833025
 20
45.0956816752
 30
0.0
 40
3.487043122189048
100
AcDbArc
 50
280.9335133477
 51
333.7045645422
  0
LINE
  5
EA
330
1F
100
AcDbEntity
  8
0
  6
SLD-Сплошная
 62
     7
370
    35
100
AcDbLine
 10
603.7928932189
 20
-73.1029433813
 30
0.0
 11
601.3280699911
 21
-74.8458366001
 31
0.0
  0
ARC
  5
EB
330
1F
100
AcDbEntity
  8
0
  6
SLD-Сплошная
 62
     7
370
    35
100
AcDbCircle
 10
599.8181551651
 20
45.6956816752
 30
0.0
 40
3.487043122189379
100
AcDbArc
 50
280.9335133477
 51
333.7045645422
  0
ARC
  5
EC
330
1F
100
AcDbEntity
  8
0
  6
SLD-Сплошная
 62
     7
370
    35
100
AcDbCircle
 10
606.994003141
 20
-71.0964592293
 30
0.0
 40
1.828068389248995
100
AcDbArc
 50
309.816375375
 51
5.5985627458
  0
LINE
  5
ED
330
1F
100
AcDbEntity
  8
0
  6
SLD-Сплошная
 62
     7
370
    35
100
AcDbLine
 10
592.1866486348
 20
-76.1153240543
 30
0.0
 11
593.3866486348
 21
-76.1153240543
 31
0.0
  0
LINE
  5
EE
330
1F
100
AcDbEntity
  8
0
  6
SLD-Сплошная
 62
     7
370
    35
100
AcDbLine
 10
592.1866486348
 20
-76.1153240543
 30
0.0
 11
592.1866486348
 21
-73.7465437776
 31
0.0
  0
LINE
  5
EF
330
1F
100
AcDbEntity
  8
0
  6
SLD-Сплошная
 62
     7
370
    35
100
AcDbLine
 10
593.3866486348
 20
-76.1153240543
 30
0.0
 11
593.3866486348
 21
-75.1321844237
 31
0.0
  0
LINE
  5
F0
330
1F
100
AcDbEntity
  8
0
  6
SLD-Сплошная
 62
     7
370
    35
100
AcDbLine
 10
592.1866486348
 20
-279.5303369235
 30
0.0
 11
593.3866486348
 21
-279.5303369235
 31
0.0
  0
LINE
  5
F1
330
1F
100
AcDbEntity
  8
0
  6
SLD-Сплошная
 62
     7
370
    35
100
AcDbLine
 10
592.1866486348
 20
-76.1153240543
 30
0.0
 11
592.1866486348
 21
-279.5303369235
 31
0.0
  0
LINE
  5
F2
330
1F
100
AcDbEntity
  8
0
  6
SLD-Сплошная
 62
     7
370
    35
100
AcDbLine
 10
593.3866486348
 20
-76.1153240543
 30
0.0
 11
593.3866486348
 21
-279.5303369235
 31
0.0
  0
LINE
  5
F3
330
1F
100
AcDbEntity
  8
0
  6
SLD-Сплошная
 62
     7
370
    35
100
AcDbLine
 10
591.1866486348
 20
289.0695876723
 30
0.0
 11
591.1866486348
 21
275.0695885154
 31
0.0
  0
LINE
  5
F4
330
1F
100
AcDbEntity
  8
0
  6
SLD-Сплошная
 62
     7
370
    35
100
AcDbLine
 10
593.9866486347
 20
278.8195885154
 30
0.0
 11
593.9866486347
 21
285.3195885154
 31
0.0
  0
SPLINE
  5
F5
330
1F
100
AcDbEntity
  8
0
  6
SLD-Сплошная
 62
     7
370
    35
100
AcDbSpline
210
0.0
220
0.0
230
1.0
 70
    24
 71
     3
 72
    19
 73
    15
 74
     0
 42
0.000000001
 43
0.00000001
 40
0.3853654070179406
 40
0.3853654070179406
 40
0.3853654070179406
 40
0.3853654070179406
 40
0.4210526315789303
 40
0.4736842105263119
 40
0.5263157894736592
 40
0.5789473684210253
 40
0.6315789473684204
 40
0.6842105263157978
 40
0.7368421052631278
 40
0.7894736842105051
 40
0.8421052631578846
 40
0.8947368421052674
 40
0.9473684210525971
 40
0.9999999999999999
 40
0.9999999999999999
 40
0.9999999999999999
 40
0.9999999999999999
 10
600.7936783776473
 20
-472.0300499961591
 30
0.0
 10
600.7754727644915
 20
-472.0300499961591
 30
0.0
 10
600.7300865462877
 20
-472.0300499961591
 30
0.0
 10
600.656416721129
 20
-472.0300499961592
 30
0.0
 10
600.5723803890232
 20
-472.0300499961591
 30
0.0
 10
600.4869773688334
 20
-472.0300499961591
 30
0.0
 10
600.4003535637578
 20
-472.0300499961592
 30
0.0
 10
600.3126569708367
 20
-472.0300499961591
 30
0.0
 10
600.2240374177668
 20
-472.0300499961591
 30
0.0
 10
600.1346463096913
 20
-472.0300499961592
 30
0.0
 10
600.0446363697861
 20
-472.0300499961591
 30
0.0
 10
599.9541613785323
 20
-472.0300499961592
 30
0.0
 10
599.8633759109323
 20
-472.0300499961591
 30
0.0
 10
599.8027486852677
 20
-472.0300499961591
 30
0.0
 10
599.7724350724355
 20
-472.0300499961591
 30
0.0
  0
SPLINE
  5
F6
330
1F
100
AcDbEntity
  8
0
  6
SLD-Сплошная
 62
     7
370
    35
100
AcDbSpline
210
0.0
220
0.0
230
1.0
 70
     8
 71
     3
 72
     8
 73
     4
 74
     0
 42
0.000000001
 43
0.00000001
 40
0.0
 40
0.0
 40
0.0
 40
0.0
 40
1.0
 40
1.0
 40
1.0
 40
1.0
 10
601.3280699910458
 20
-472.0290498961391
 30
0.0
 10
601.1699148939148
 20
-472.0290498961391
 30
0.0
 10
600.9917851645059
 20
-472.0300499962209
 30
0.0
 10
600.7936783743862
 20
-472.0300499961591
 30
0.0
  0
SPLINE
  5
F7
330
1F
100
AcDbEntity
  8
0
  6
SLD-Сплошная
 62
     7
370
    35
100
AcDbSpline
210
0.0
220
0.0
230
1.0
 70
     8
 71
     3
 72
    20
 73
    16
 74
     0
 42
0.000000001
 43
0.00000001
 40
0.0
 40
0.0
 40
0.0
 40
0.0
 40
0.062812759113692
 40
0.1303108571532838
 40
0.1844963557928342
 40
0.254537580366099
 40
0.3094421422092811
 40
0.3730100996045906
 40
0.4370728363250578
 40
0.4863974398432191
 40
0.5667266283591725
 40
0.5957158256756345
 40
0.6976810152265995
 40
0.7022984967006566
 40
0.7213092523393831
 40
0.7213092523393831
 40
0.7213092523393831
 40
0.7213092523393831
 10
600.7860571273551
 20
-453.8485341758606
 30
0.0
 10
600.7437969844995
 20
-453.8135079727558
 30
0.0
 10
600.6563824625958
 20
-453.7385916022943
 30
0.0
 10
600.5347482535044
 20
-453.6254389042449
 30
0.0
 10
600.4118436815583
 20
-453.5004855499686
 30
0.0
 10
600.3018041704867
 20
-453.3767080691296
 30
0.0
 10
600.1930682979172
 20
-453.2389984907572
 30
0.0
 10
600.0956260889051
 20
-453.0989035257266
 30
0.0
 10
600.0109963556147
 20
-452.956143255875
 30
0.0
 10
599.9295711596508
 20
-452.7936002886519
 30
0.0
 10
599.8745904390358
 20
-452.6549824216078
 30
0.0
 10
599.8159136009909
 20
-452.4653994698697
 30
0.0
 10
599.7898353718762
 20
-452.3402685230584
 30
0.0
 10
599.776246626524
 20
-452.2232337301724
 30
0.0
 10
599.7741344681929
 20
-452.2011720557423
 30
0.0
 10
599.7724350724355
 20
-452.1834217217005
 30
0.0
  0
SPLINE
  5
F8
330
1F
100
AcDbEntity
  8
0
  6
SLD-Сплошная
 62
     7
370
    35
100
AcDbSpline
210
0.0
220
0.0
230
1.0
 70
     8
 71
     3
 72
     8
 73
     4
 74
     0
 42
0.000000001
 43
0.00000001
 40
0.0
 40
0.0
 40
0.0
 40
0.0
 40
1.0
 40
1.0
 40
1.0
 40
1.0
 10
601.0588433439447
 20
-454.06008774366
 30
0.0
 10
600.9689537523299
 20
-453.9952387485387
 30
0.0
 10
600.8777662796341
 20
-453.9246736992615
 30
0.0
 10
600.7860571273588
 20
-453.8485341758638
 30
0.0
  0
SPLINE
  5
F9
330
1F
100
AcDbEntity
  8
0
  6
SLD-Сплошная
 62
     7
370
    35
100
AcDbSpline
210
0.0
220
0.0
230
1.0
 70
     8
 71
     3
 72
     9
 73
     5
 74
     0
 42
0.000000001
 43
0.00000001
 40
0.8577255279202609
 40
0.8577255279202609
 40
0.8577255279202609
 40
0.8577255279202609
 40
0.9673841945286347
 40
1.0
 40
1.0
 40
1.0
 40
1.0
 10
601.3280699910458
 20
-454.2480362338571
 30
0.0
 10
601.259942576246
 20
-454.201542579735
 30
0.0
 10
601.171552006904
 20
-454.1412203060846
 30
0.0
 10
601.0800360756775
 20
-454.0755168805731
 30
0.0
 10
601.0588433439447
 20
-454.06008774366
 30
0.0
  0
LINE
  5
FA
330
1F
100
AcDbEntity
  8
0
  6
SLD-Сплошная
 62
     7
370
    35
100
AcDbLine
 10
599.7724350724
 20
-285.0300499962
 30
0.0
 11
601.328069991
 21
-285.0300499962
 31
0.0
  0
SPLINE
  5
FB
330
1F
100
AcDbEntity
  8
0
  6
SLD-Сплошная
 62
     7
370
    35
100
AcDbSpline
210
0.0
220
0.0
230
1.0
 70
     8
 71
     3
 72
     9
 73
     5
 74
     0
 42
0.000000001
 43
0.00000001
 40
0.0
 40
0.0
 40
0.0
 40
0.0
 40
0.0066027594853136
 40
0.026023009485369
 40
0.026023009485369
 40
0.026023009485369
 40
0.026023009485369
 10
601.2807857249746
 20
-449.8440112523087
 30
0.0
 10
601.2848156195384
 20
-449.8412764130119
 30
0.0
 10
601.3006521937123
 20
-449.8305470519969
 30
0.0
 10
601.3163529512761
 20
-449.819962623669
 30
0.0
 10
601.3280699910458
 20
-449.8120637584611
 30
0.0
  0
SPLINE
  5
FC
330
1F
100
AcDbEntity
  8
0
  6
SLD-Сплошная
 62
     7
370
    35
100
AcDbSpline
210
0.0
220
0.0
230
1.0
 70
     8
 71
     3
 72
    16
 73
    12
 74
     0
 42
0.000000001
 43
0.00000001
 40
0.0
 40
0.0
 40
0.0
 40
0.0
 40
0.125
 40
0.125
 40
0.25
 40
0.25
 40
0.5
 40
0.5
 40
0.75
 40
0.75
 40
1.0
 40
1.0
 40
1.0
 40
1.0
 10
599.7724350724355
 20
-451.8766782706177
 30
0.0
 10
599.7877965784729
 20
-451.7631408942404
 30
0.0
 10
599.8034814781886
 20
-451.6496867084448
 30
0.0
 10
599.8631535346219
 20
-451.4300603576052
 30
0.0
 10
599.9052683143341
 20
-451.3225384311941
 30
0.0
 10
600.053009709652
 20
-451.0119651909983
 30
0.0
 10
600.1817280392413
 20
-450.8246486964946
 30
0.0
 10
600.4781803595703
 20
-450.4813132040336
 30
0.0
 10
600.6394456186861
 20
-450.3318000750239
 30
0.0
 10
600.9676476728813
 20
-450.0625139110629
 30
0.0
 10
601.130300605422
 20
-449.9457442448837
 30
0.0
 10
601.2807857249744
 20
-449.8440112523088
 30
0.0
  0
LINE
  5
FD
330
1F
100
AcDbEntity
  8
0
  6
SLD-Сплошная
 62
     7
370
    35
100
AcDbLine
 10
599.7724350724
 20
-452.1834217217
 30
0.0
 11
599.7724350724
 21
-451.8766782706
 31
0.0
  0
LINE
  5
FE
330
1F
100
AcDbEntity
  8
0
  6
SLD-Сплошная
 62
     7
370
    35
100
AcDbLine
 10
594.3866486348
 20
-285.0300499962
 30
0.0
 11
599.7724350724
 21
-285.0300499962
 31
0.0
  0
LINE
  5
FF
330
1F
100
AcDbEntity
  8
0
  6
SLD-Сплошная
 62
     7
370
    35
100
AcDbLine
 10
594.3866486348
 20
-472.0300499962
 30
0.0
 11
599.7724350724
 21
-472.0300499962
 31
0.0
  0
LINE
  5
100
330
1F
100
AcDbEntity
  8
0
  6
SLD-Сплошная
 62
     7
370
    35
100
AcDbLine
 10
592.1866486348
 20
-285.0300499962
 30
0.0
 11
594.3866486348
 21
-285.0300499962
 31
0.0
  0
LINE
  5
101
330
1F
100
AcDbEntity
  8
0
  6
SLD-Сплошная
 62
     7
370
    35
100
AcDbLine
 10
592.1866486348
 20
-472.0300499962
 30
0.0
 11
594.3866486348
 21
-472.0300499962
 31
0.0
  0
LINE
  5
102
330
1F
100
AcDbEntity
  8
0
  6
SLD-Сплошная
 62
     7
370
    35
100
AcDbLine
 10
592.1866486348
 20
-472.0300499962
 30
0.0
 11
592.1866486348
 21
-285.0300499962
 31
0.0
  0
ARC
  5
103
330
1F
100
AcDbEntity
  8
0
  6
SLD-Сплошная
 62
     7
370
    35
100
AcDbCircle
 10
603.9071389813
 20
-467.4744493201
 30
0.0
 40
4.926297871252742
100
AcDbArc
 50
295.8570855409
 51
5.1756649097
  0
ARC
  5
104
330
1F
100
AcDbEntity
  8
0
  6
SLD-Сплошная
 62
     7
370
    35
100
AcDbCircle
 10
603.0586108438
 20
-467.4744493201
 30
0.0
 40
4.926297871247603
100
AcDbArc
 50
295.8570855408
 51
5.1756649097
  0
SPLINE
  5
105
330
1F
100
AcDbEntity
  8
0
  6
SLD-Сплошная
 62
     7
370
    35
100
AcDbSpline
210
0.0
220
0.0
230
1.0
 70
     8
 71
     3
 72
    14
 73
    10
 74
     0
 42
0.000000001
 43
0.00000001
 40
0.0
 40
0.0
 40
0.0
 40
0.0
 40
0.25
 40
0.25
 40
0.5
 40
0.5
 40
0.75
 40
0.75
 40
1.0
 40
1.0
 40
1.0
 40
1.0
 10
605.2071067812298
 20
-471.907549355462
 30
0.0
 10
605.1155502463025
 20
-471.9367504956914
 30
0.0
 10
605.0070192271958
 20
-471.9601399516375
 30
0.0
 10
604.7662909581616
 20
-471.9953595923569
 30
0.0
 10
604.6352914196706
 20
-472.0069568839218
 30
0.0
 10
604.3735069180169
 20
-472.0217288639218
 30
0.0
 10
604.2411906674573
 20
-472.0251160760349
 30
0.0
 10
603.9990223844721
 20
-472.028696328881
 30
0.0
 10
603.8867743601688
 20
-472.029049896139
 30
0.0
 10
603.7928932188601
 20
-472.0290498961391
 30
0.0
  0
LINE
  5
106
330
1F
100
AcDbEntity
  8
0
  6
SLD-Сплошная
 62
     7
370
    35
100
AcDbLine
 10
603.7928932189
 20
-472.0290498961
 30
0.0
 11
601.328069991
 21
-472.0290498961
 31
0.0
  0
LINE
  5
107
330
1F
100
AcDbEntity
  8
0
  6
SLD-Сплошная
 62
     7
370
    35
100
AcDbLine
 10
601.2573593129
 20
-472.0300499962
 30
0.0
 11
603.7221825407
 21
-472.0300499962
 31
0.0
  0
LINE
  5
108
330
1F
100
AcDbEntity
  8
0
  6
SLD-Сплошная
 62
     7
370
    35
100
AcDbLine
 10
603.7221825407
 20
-472.0300499962
 30
0.0
 11
605.0694258985
 21
-472.0300499962
 31
0.0
  0
SPLINE
  5
109
330
1F
100
AcDbEntity
  8
0
  6
SLD-Сплошная
 62
     7
370
    35
100
AcDbSpline
210
0.0
220
0.0
230
1.0
 70
     8
 71
     3
 72
    10
 73
     6
 74
     0
 42
0.000000001
 43
0.00000001
 40
0.0
 40
0.0
 40
0.0
 40
0.0
 40
0.5
 40
0.5
 40
1.0
 40
1.0
 40
1.0
 40
1.0
 10
605.0694182907814
 20
-472.0300499961375
 30
0.0
 10
605.2576700240575
 20
-472.0300495000413
 30
0.0
 10
605.4349305263648
 20
-472.0215389342256
 30
0.0
 10
605.7679590161817
 20
-471.9817501767359
 30
0.0
 10
605.9211829141241
 20
-471.9504316231407
 30
0.0
 10
606.0556349186562
 20
-471.9075493554622
 30
0.0
  0
LINE
  5
10A
330
1F
100
AcDbEntity
  8
0
  6
SLD-Сплошная
 62
     7
370
    35
100
AcDbLine
 10
600.7936783777
 20
-472.0300499962
 30
0.0
 11
601.2573593129
 21
-472.0300499962
 31
0.0
  0
LINE
  5
10B
330
1F
100
AcDbEntity
  8
0
  6
SLD-Сплошная
 62
     7
370
    35
100
AcDbLine
 10
607.9648232279
 20
-467.0300499962
 30
0.0
 11
607.9648232279
 21
-290.0300499962
 31
0.0
  0
LINE
  5
10C
330
1F
100
AcDbEntity
  8
0
  6
SLD-Сплошная
 62
     7
370
    35
100
AcDbLine
 10
608.8133513653
 20
-467.0300499962
 30
0.0
 11
608.8133513653
 21
-290.0300499962
 31
0.0
  0
SPLINE
  5
10D
330
1F
100
AcDbEntity
  8
0
  6
SLD-Сплошная
 62
     7
370
    35
100
AcDbSpline
210
0.0
220
0.0
230
1.0
 70
     8
 71
     3
 72
    10
 73
     6
 74
     0
 42
0.000000001
 43
0.00000001
 40
0.0
 40
0.0
 40
0.0
 40
0.0
 40
0.5
 40
0.5
 40
1.0
 40
1.0
 40
1.0
 40
1.0
 10
606.0556349186536
 20
-285.1525506368563
 30
0.0
 10
605.9212015095509
 20
-285.1096743000242
 30
0.0
 10
605.7709888239198
 20
-285.0788769849861
 30
0.0
 10
605.43830603976
 20
-285.0388023156738
 30
0.0
 10
605.2576862429778
 20
-285.0300499961591
 30
0.0
 10
605.069401899272
 20
-285.0300499961591
 30
0.0
  0
LINE
  5
10E
330
1F
100
AcDbEntity
  8
0
  6
SLD-Сплошная
 62
     7
370
    35
100
AcDbLine
 10
605.0694018993
 20
-285.0300499962
 30
0.0
 11
603.7928932189
 21
-285.0300499962
 31
0.0
  0
SPLINE
  5
10F
330
1F
100
AcDbEntity
  8
0
  6
SLD-Сплошная
 62
     7
370
    35
100
AcDbSpline
210
0.0
220
0.0
230
1.0
 70
     8
 71
     3
 72
    14
 73
    10
 74
     0
 42
0.000000001
 43
0.00000001
 40
0.0
 40
0.0
 40
0.0
 40
0.0
 40
0.25
 40
0.25
 40
0.5
 40
0.5
 40
0.75
 40
0.75
 40
1.0
 40
1.0
 40
1.0
 40
1.0
 10
603.7928932188603
 20
-285.0310500961791
 30
0.0
 10
603.8867738275844
 20
-285.0310500961791
 30
0.0
 10
603.99750833115
 20
-285.0313880746207
 30
0.0
 10
604.2410298632868
 20
-285.0349747903435
 30
0.0
 10
604.3727725365279
 20
-285.0383457796497
 30
0.0
 10
604.6344728260772
 20
-285.0530809210686
 30
0.0
 10
604.7661355104681
 20
-285.0647516219459
 30
0.0
 10
605.0055062429356
 20
-285.0997049554997
 30
0.0
 10
605.1155384814998
 20
-285.123345744347
 30
0.0
 10
605.2071067812324
 20
-285.1525506368561
 30
0.0
  0
ARC
  5
110
330
1F
100
AcDbEntity
  8
0
  6
SLD-Сплошная
 62
     7
370
    35
100
AcDbCircle
 10
603.0586108438
 20
-289.5856506722
 30
0.0
 40
4.926297871252892
100
AcDbArc
 50
354.8243350903
 51
64.1429144591
  0
ARC
  5
111
330
1F
100
AcDbEntity
  8
0
  6
SLD-Сплошная
 62
     7
370
    35
100
AcDbCircle
 10
603.9071389813
 20
-289.5856506722
 30
0.0
 40
4.926297871247542
100
AcDbArc
 50
354.8243350903
 51
64.1429144592
  0
ARC
  5
112
330
1F
100
AcDbEntity
  8
0
  6
SLD-Сплошная
 62
     7
370
    35
100
AcDbCircle
 10
602.4874209307
 20
-453.2161462568
 30
0.0
 40
1.552060413127803
100
AcDbArc
 50
221.6709478884
 51
327.2587992148
  0
LINE
  5
113
330
1F
100
AcDbEntity
  8
0
  6
SLD-Сплошная
 62
     7
370
    35
100
AcDbLine
 10
602.9443650814
 20
-454.05557084
 30
0.0
 11
603.7928932189
 21
-454.05557084
 31
0.0
  0
ARC
  5
114
330
1F
100
AcDbEntity
  8
0
  6
SLD-Сплошная
 62
     7
370
    35
100
AcDbCircle
 10
601.4781136052
 20
-453.0029690869
 30
0.0
 40
1.80495535738006
100
AcDbArc
 50
288.5852032808
 51
324.3259541547
  0
LINE
  5
115
330
1F
100
AcDbEntity
  8
0
  6
SLD-Сплошная
 62
     7
370
    35
100
AcDbLine
 10
601.328069991
 20
-285.0300499962
 30
0.0
 11
603.7928932189
 21
-285.0300499962
 31
0.0
  0
ARC
  5
116
330
1F
100
AcDbEntity
  8
0
  6
SLD-Сплошная
 62
     7
370
    35
100
AcDbCircle
 10
602.4874209307
 20
-450.8439537355
 30
0.0
 40
1.552060413127772
100
AcDbArc
 50
32.7412007852
 51
138.3290521116
  0
ARC
  5
117
330
1F
100
AcDbEntity
  8
0
  6
SLD-Сплошная
 62
     7
370
    35
100
AcDbCircle
 10
601.4781136052
 20
-451.0571309055
 30
0.0
 40
1.804955357382336
100
AcDbArc
 50
35.6740458454
 51
71.414796719
  0
LINE
  5
118
330
1F
100
AcDbEntity
  8
0
  6
SLD-Сплошная
 62
     7
370
    35
100
AcDbLine
 10
602.9443650814
 20
-450.0045291524
 30
0.0
 11
603.7928932189
 21
-450.0045291524
 31
0.0
  0
SPLINE
  5
119
330
1F
100
AcDbEntity
  8
0
  6
SLD-Сплошная
 62
     7
370
    35
100
AcDbSpline
210
0.0
220
0.0
230
1.0
 70
     8
 71
     3
 72
    24
 73
    20
 74
     0
 42
0.000000001
 43
0.00000001
 40
0.0
 40
0.0
 40
0.0
 40
0.0
 40
0.0624999999999998
 40
0.0624999999999998
 40
0.1249999999999996
 40
0.1249999999999996
 40
0.2500000000000078
 40
0.2500000000000078
 40
0.375000000000016
 40
0.375000000000016
 40
0.5000000000000242
 40
0.5000000000000242
 40
0.7500000000000213
 40
0.7500000000000213
 40
0.8750000000000107
 40
0.8750000000000107
 40
0.9375000000000054
 40
0.9375000000000054
 40
1.0
 40
1.0
 40
1.0
 40
1.0
 10
603.79289321886
 20
-450.0045291523511
 30
0.0
 10
603.8302047111209
 20
-450.0782538047335
 30
0.0
 10
603.8704919811377
 20
-450.1516398799008
 30
0.0
 10
603.9464214973895
 20
-450.304275652565
 30
0.0
 10
603.9823249867479
 20
-450.3832124302621
 30
0.0
 10
604.0849807831123
 20
-450.6254727850495
 30
0.0
 10
604.1459595968422
 20
-450.7958967628821
 30
0.0
 10
604.2420957673568
 20
-451.1398758882341
 30
0.0
 10
604.2783865829797
 20
-451.3146005620259
 30
0.0
 10
604.327021263644
 20
-451.6690936992122
 30
0.0
 10
604.3393862974743
 20
-451.8501610384863
 30
0.0
 10
604.3394073992237
 20
-452.3892839091272
 30
0.0
 10
604.2911116394354
 20
-452.744672963618
 30
0.0
 10
604.1458191585601
 20
-453.2647772344748
 30
0.0
 10
604.0861394917356
 20
-453.4323569851241
 30
0.0
 10
603.9833755172327
 20
-453.6741862168469
 30
0.0
 10
603.9470154868333
 20
-453.7532421542361
 30
0.0
 10
603.8713166433496
 20
-453.9081653108427
 30
0.0
 10
603.83129538668
 20
-453.9827546601711
 30
0.0
 10
603.7928936580344
 20
-454.0555700072274
 30
0.0
  0
SPLINE
  5
11A
330
1F
100
AcDbEntity
  8
0
  6
SLD-Сплошная
 62
     7
370
    35
100
AcDbSpline
210
0.0
220
0.0
230
1.0
 70
     8
 71
     3
 72
    24
 73
    20
 74
     0
 42
0.000000001
 43
0.00000001
 40
0.3226325185847406
 40
0.3226325185847406
 40
0.3226325185847406
 40
0.3226325185847406
 40
0.3408359661209556
 40
0.3634031851059789
 40
0.4089555282536129
 40
0.4228752463279404
 40
0.477609375913605
 40
0.4811514453540191
 40
0.5391262538516391
 40
0.5463954727465588
 40
0.5977220700428024
 40
0.6149080216630324
 40
0.6578042743298614
 40
0.6827490245531165
 40
0.7201096726871993
 40
0.7495399669493868
 40
0.7852013938951833
 40
0.8149338077594342
 40
0.8534517169177935
 40
0.8534517169177935
 40
0.8534517169177935
 40
0.8534517169177935
 10
603.9323247110596
 20
-452.9027305314966
 30
0.0
 10
603.9460960040427
 20
-452.8751182762171
 30
0.0
 10
603.9757368961723
 20
-452.8125892470941
 30
0.0
 10
604.0323258690605
 20
-452.6771266776897
 30
0.0
 10
604.075396362328
 20
-452.5438615210774
 30
0.0
 10
604.1205701678705
 20
-452.3543507911
 30
0.0
 10
604.1379440422669
 20
-452.2319724024794
 30
0.0
 10
604.1495437156291
 20
-452.0338416892993
 30
0.0
 10
604.1461346043651
 20
-451.9160345877783
 30
0.0
 10
604.1221777504805
 20
-451.7184953534123
 30
0.0
 10
604.0961196586962
 20
-451.5915029443792
 30
0.0
 10
604.0413700495282
 20
-451.4096467885997
 30
0.0
 10
603.9891444319865
 20
-451.2744587114597
 30
0.0
 10
603.9119033843888
 20
-451.1135040760477
 30
0.0
 10
603.8354977322056
 20
-450.9784893731326
 30
0.0
 10
603.741226704409
 20
-450.8346017398152
 30
0.0
 10
603.6473562768078
 20
-450.7078206737508
 30
0.0
 10
603.5391308331757
 20
-450.5761542289477
 30
0.0
 10
603.4652690759865
 20
-450.4944310215179
 30
0.0
 10
603.4230688492698
 20
-450.4497323781291
 30
0.0
  0
SPLINE
  5
11B
330
1F
100
AcDbEntity
  8
0
  6
SLD-Сплошная
 62
     7
370
    35
100
AcDbSpline
210
0.0
220
0.0
230
1.0
 70
     8
 71
     3
 72
    18
 73
    14
 74
     0
 42
0.000000001
 43
0.00000001
 40
0.0
 40
0.0
 40
0.0
 40
0.0
 40
0.0205701374665411
 40
0.0265544759777553
 40
0.0809508065720842
 40
0.1003441519411311
 40
0.1434010481765392
 40
0.1707617406798612
 40
0.2077190758468702
 40
0.2378795944484826
 40
0.2736373449872276
 40
0.3019469741432328
 40
0.3226325185847406
 40
0.3226325185847406
 40
0.3226325185847406
 40
0.3226325185847406
 10
602.9443650814361
 20
-454.0555708399672
 30
0.0
 10
602.9659003049652
 20
-454.0373213847681
 30
0.0
 10
602.9937006333205
 20
-454.0137627323048
 30
0.0
 10
603.079466282901
 20
-453.9401453247651
 30
0.0
 10
603.1669266766357
 20
-453.8623932645457
 30
0.0
 10
603.2963754273618
 20
-453.7399946786576
 30
0.0
 10
603.3958373481511
 20
-453.6405644183599
 30
0.0
 10
603.5125835219235
 20
-453.514024973183
 30
0.0
 10
603.612483653977
 20
-453.3962949677942
 30
0.0
 10
603.7160921217653
 20
-453.260873965309
 30
0.0
 10
603.8048999135822
 20
-453.1303583408851
 30
0.0
 10
603.8779670038274
 20
-453.0074913284251
 30
0.0
 10
603.9166756592823
 20
-452.9341078039927
 30
0.0
 10
603.9323247110596
 20
-452.9027305314966
 30
0.0
  0
SPLINE
  5
11C
330
1F
100
AcDbEntity
  8
0
  6
SLD-Сплошная
 62
     7
370
    35
100
AcDbSpline
210
0.0
220
0.0
230
1.0
 70
     8
 71
     3
 72
     9
 73
     5
 74
     0
 42
0.000000001
 43
0.00000001
 40
0.9250461524477263
 40
0.9250461524477263
 40
0.9250461524477263
 40
0.9250461524477263
 40
0.9403746966207454
 40
1.0
 40
1.0
 40
1.0
 40
1.0
 10
603.1861054183755
 20
-450.2165873835339
 30
0.0
 10
603.1693401442171
 20
-450.2011944302678
 30
0.0
 10
603.0877901272027
 20
-450.1273314271789
 30
0.0
 10
603.0079095592146
 20
-450.0589367098473
 30
0.0
 10
602.9443650814361
 20
-450.0045291523511
 30
0.0
  0
SPLINE
  5
11D
330
1F
100
AcDbEntity
  8
0
  6
SLD-Сплошная
 62
     7
370
    35
100
AcDbSpline
210
0.0
220
0.0
230
1.0
 70
     8
 71
     3
 72
     8
 73
     4
 74
     0
 42
0.000000001
 43
0.00000001
 40
0.0
 40
0.0
 40
0.0
 40
0.0
 40
1.0
 40
1.0
 40
1.0
 40
1.0
 10
603.1861054183652
 20
-450.2165873835244
 30
0.0
 10
603.2654525294259
 20
-450.2887867399042
 30
0.0
 10
603.3447067366237
 20
-450.3665745826486
 30
0.0
 10
603.4230688492698
 20
-450.4497323781291
 30
0.0
  0
LINE
  5
11E
330
1F
100
AcDbEntity
  8
0
  6
SLD-Сплошная
 62
     7
370
    35
100
AcDbLine
 10
592.1866486348
 20
-285.0300499962
 30
0.0
 11
592.1866486348
 21
-279.5303369235
 31
0.0
  0
LINE
  5
11F
330
1F
100
AcDbEntity
  8
0
  6
SLD-Сплошная
 62
     7
370
    35
100
AcDbLine
 10
593.3866486348
 20
-285.0300499962
 30
0.0
 11
593.3866486348
 21
-279.5303369235
 31
0.0
  0
LINE
  5
120
330
1F
100
AcDbEntity
  8
0
  6
SLD-Сплошная
 62
     7
370
    35
100
AcDbLine
 10
592.1866486348
 20
-497.0300499962
 30
0.0
 11
592.1866486348
 21
-472.0300499962
 31
0.0
  0
LINE
  5
121
330
1F
100
AcDbEntity
  8
0
  6
SLD-Сплошная
 62
     7
370
    35
100
AcDbLine
 10
593.3866486348
 20
-497.0300499962
 30
0.0
 11
593.3866486348
 21
-472.0300499962
 31
0.0
  0
LINE
  5
122
330
1F
100
AcDbEntity
  8
0
  6
SLD-Сплошная
 62
     7
370
    35
100
AcDbLine
 10
592.1866486348
 20
-502.0300499962
 30
0.0
 11
593.3866486348
 21
-502.0300499962
 31
0.0
  0
LINE
  5
123
330
1F
100
AcDbEntity
  8
0
  6
SLD-Сплошная
 62
     7
370
    35
100
AcDbLine
 10
592.1866486348
 20
-497.0300499962
 30
0.0
 11
592.1866486348
 21
-502.0300499962
 31
0.0
  0
LINE
  5
124
330
1F
100
AcDbEntity
  8
0
  6
SLD-Сплошная
 62
     7
370
    35
100
AcDbLine
 10
593.3866486348
 20
-502.0300499962
 30
0.0
 11
593.3866486348
 21
-497.0300499962
 31
0.0
  0
LINE
  5
125
330
1F
100
AcDbEntity
  8
0
  6
SLD-Сплошная
 62
     7
370
    35
100
AcDbLine
 10
592.1866486348
 20
502.0300499962
 30
0.0
 11
592.1866486348
 21
500.5655839021
 31
0.0
  0
LINE
  5
126
330
1F
100
AcDbEntity
  8
0
  6
SLD-Сплошная
 62
     7
370
    35
100
AcDbLine
 10
593.3866486348
 20
500.5655839021
 30
0.0
 11
593.3866486348
 21
502.0300499962
 31
0.0
  0
LWPOLYLINE
  5
127
330
1F
100
AcDbEntity
  8
0
  6
SLD-Сплошная
 62
     7
370
    35
100
AcDbPolyline
 90
        9
 70
   128
 43
0.0
 10
606.0556349187
 20
483.1140350385
 10
606.6234160361
 20
483.3360633991
 10
607.1530274778
 20
483.4383592027
 10
607.6294461177
 20
483.4180206941
 10
608.0391577136
 20
483.2756248019
 10
608.3705402566
 20
483.015210773
 10
608.6141936443
 20
482.6441655944
 10
608.7632063275
 20
482.1730144513
 10
608.8133513653
 20
481.6151221663
  0
ARC
  5
128
330
1F
100
AcDbEntity
  8
0
  6
SLD-Сплошная
 62
     7
370
    35
100
AcDbCircle
 10
606.3325820658
 20
481.9638870756
 30
0.0
 40
2.080796123681421
100
AcDbArc
 50
61.7944758349
 51
122.7440317734
  0
SPLINE
  5
129
330
1F
100
AcDbEntity
  8
0
  6
SLD-Сплошная
 62
     7
370
    35
100
AcDbSpline
210
0.0
220
0.0
230
1.0
 70
     8
 71
     3
 72
    14
 73
    10
 74
     0
 42
0.000000001
 43
0.00000001
 40
0.0
 40
0.0
 40
0.0
 40
0.0
 40
0.25
 40
0.25
 40
0.5
 40
0.5
 40
0.75
 40
0.75
 40
1.0
 40
1.0
 40
1.0
 40
1.0
 10
605.2071067812228
 20
483.7140350384981
 30
0.0
 10
605.1155502462966
 20
483.669943116064
 30
0.0
 10
605.0070192271961
 20
483.6347947268016
 30
0.0
 10
604.7662909581625
 20
483.5883314808349
 30
0.0
 10
604.6352914196717
 20
483.5776340051403
 30
0.0
 10
604.3735069180187
 20
483.5872650361296
 30
0.0
 10
604.2411906674594
 20
483.6079097344848
 30
0.0
 10
603.9990223844744
 20
483.68076610064
 30
0.0
 10
603.8867743601741
 20
483.7335649030738
 30
0.0
 10
603.7928932188648
 20
483.7999488947181
 30
0.0
  0
LINE
  5
12A
330
1F
100
AcDbEntity
  8
0
  6
SLD-Сплошная
 62
     7
370
    35
100
AcDbLine
 10
603.7928932189
 20
483.7999488947
 30
0.0
 11
601.328069991
 21
485.5428421135
 31
0.0
  0
SPLINE
  5
12B
330
1F
100
AcDbEntity
  8
0
  6
SLD-Сплошная
 62
     7
370
    35
100
AcDbSpline
210
0.0
220
0.0
230
1.0
 70
     8
 71
     3
 72
     8
 73
     4
 74
     0
 42
0.000000001
 43
0.00000001
 40
0.0
 40
0.0
 40
0.0
 40
0.0
 40
1.0
 40
1.0
 40
1.0
 40
1.0
 10
601.3280699910456
 20
485.542842113535
 30
0.0
 10
601.169914893876
 20
485.6546746552228
 30
0.0
 10
600.9917851644201
 20
485.7480053889855
 30
0.0
 10
600.7936783742446
 20
485.8214212224101
 30
0.0
  0
SPLINE
  5
12C
330
1F
100
AcDbEntity
  8
0
  6
SLD-Сплошная
 62
     7
370
    35
100
AcDbSpline
210
0.0
220
0.0
230
1.0
 70
     8
 71
     3
 72
    10
 73
     6
 74
     0
 42
0.000000001
 43
0.00000001
 40
0.0
 40
0.0
 40
0.0
 40
0.0
 40
0.5
 40
0.5
 40
1.0
 40
1.0
 40
1.0
 40
1.0
 10
605.0694351907688
 20
482.7980344358957
 30
0.0
 10
605.2576836725383
 20
482.8337031519612
 30
0.0
 10
605.4349410335738
 20
482.8799136058936
 30
0.0
 10
605.7679634975846
 20
482.9879740097379
 30
0.0
 10
605.9211849505343
 20
483.0492864373074
 30
0.0
 10
606.0556349186547
 20
483.1140350384898
 30
0.0
  0
ARC
  5
12D
330
1F
100
AcDbEntity
  8
0
  6
SLD-Сплошная
 62
     7
370
    35
100
AcDbCircle
 10
604.4149599434
 20
485.4462405844
 30
0.0
 40
2.691472381186478
100
AcDbArc
 50
247.2434168304
 51
255.7688718445
  0
SPLINE
  5
12E
330
1F
100
AcDbEntity
  8
0
  6
SLD-Сплошная
 62
     7
370
    35
100
AcDbSpline
210
0.0
220
0.0
230
1.0
 70
     8
 71
     3
 72
     8
 73
     4
 74
     0
 42
0.000000001
 43
0.00000001
 40
0.0
 40
0.0
 40
0.0
 40
0.0
 40
1.0
 40
1.0
 40
1.0
 40
1.0
 10
602.9443650814363
 20
483.2006560722274
 30
0.0
 10
603.0729748506171
 20
483.109715232313
 30
0.0
 10
603.217606715482
 20
483.0301151619928
 30
0.0
 10
603.373852891752
 20
482.964281743965
 30
0.0
  0
SPLINE
  5
12F
330
1F
100
AcDbEntity
  8
0
  6
SLD-Сплошная
 62
     7
370
    35
100
AcDbSpline
210
0.0
220
0.0
230
1.0
 70
     8
 71
     3
 72
    18
 73
    14
 74
     0
 42
0.000000001
 43
0.00000001
 40
0.0
 40
0.0
 40
0.0
 40
0.0
 40
0.0205701374665381
 40
0.0265544759777065
 40
0.0809508065721028
 40
0.1003441519411095
 40
0.1434010481765325
 40
0.1707617406798301
 40
0.2077190758468674
 40
0.2378795944484585
 40
0.2736373449872447
 40
0.3019469741431991
 40
0.322632518719088
 40
0.322632518719088
 40
0.322632518719088
 40
0.322632518719088
 10
602.9443650814362
 20
470.4907799725881
 30
0.0
 10
602.9659003049654
 20
470.4631408981822
 30
0.0
 10
602.9937006333206
 20
470.4274609646597
 30
0.0
 10
603.0794662829012
 20
470.3193590589192
 30
0.0
 10
603.166926676636
 20
470.2147600364408
 30
0.0
 10
603.296375427362
 20
470.0644941475362
 30
0.0
 10
603.3958373481512
 20
469.950790995421
 30
0.0
 10
603.5125835219237
 20
469.8168568581196
 30
0.0
 10
603.6124836539773
 20
469.7004094740066
 30
0.0
 10
603.7160921217655
 20
469.5746963542233
 30
0.0
 10
603.8048999135823
 20
469.4601531477063
 30
0.0
 10
603.8779670039432
 20
469.3572964045798
 30
0.0
 10
603.9166756594947
 20
469.2977848056939
 30
0.0
 10
603.9323247113646
 20
469.2726423549119
 30
0.0
  0
SPLINE
  5
130
330
1F
100
AcDbEntity
  8
0
  6
SLD-Сплошная
 62
     7
370
    35
100
AcDbSpline
210
0.0
220
0.0
230
1.0
 70
     8
 71
     3
 72
    24
 73
    20
 74
     0
 42
0.000000001
 43
0.00000001
 40
0.322632518719088
 40
0.322632518719088
 40
0.322632518719088
 40
0.322632518719088
 40
0.3408359661209704
 40
0.3634031851059689
 40
0.4089555282536133
 40
0.4228752463279239
 40
0.4776093759136001
 40
0.4811514453539968
 40
0.5391262538515791
 40
0.5463954727465458
 40
0.5977220700427714
 40
0.614908021663061
 40
0.6578042743298382
 40
0.6827490245531134
 40
0.7201096726871775
 40
0.7495399669493958
 40
0.7852013938951501
 40
0.8149338077594375
 40
0.8534517169075824
 40
0.8534517169075824
 40
0.8534517169075824
 40
0.8534517169075824
 10
603.9323247113646
 20
469.2726423549119
 30
0.0
 10
603.9460960042383
 20
469.2505167938133
 30
0.0
 10
603.9757368962606
 20
469.2009323378205
 30
0.0
 10
604.0323258690607
 20
469.0957518658598
 30
0.0
 10
604.0753963623282
 20
468.9953671380856
 30
0.0
 10
604.1205701678707
 20
468.8554185238911
 30
0.0
 10
604.1379440422669
 20
468.7668700331675
 30
0.0
 10
604.1495437156292
 20
468.6254270072432
 30
0.0
 10
604.1461346043651
 20
468.5424966676908
 30
0.0
 10
604.1221777504807
 20
468.4056705472755
 30
0.0
 10
604.0961196586965
 20
468.3190855637278
 30
0.0
 10
604.0413700495284
 20
468.1982386690644
 30
0.0
 10
603.9891444319866
 20
468.1108170971472
 30
0.0
 10
603.911903384389
 20
468.0110986498184
 30
0.0
 10
603.8354977322057
 20
467.931494433498
 30
0.0
 10
603.7412267044091
 20
467.8524416052593
 30
0.0
 10
603.647356276808
 20
467.7887861054636
 30
0.0
 10
603.5391308331701
 20
467.7303362984106
 30
0.0
 10
603.4652690759749
 20
467.6995603487485
 30
0.0
 10
603.4230688492522
 20
467.6845607314513
 30
0.0
  0
SPLINE
  5
131
330
1F
100
AcDbEntity
  8
0
  6
SLD-Сплошная
 62
     7
370
    35
100
AcDbSpline
210
0.0
220
0.0
230
1.0
 70
     8
 71
     3
 72
     8
 73
     4
 74
     0
 42
0.000000001
 43
0.00000001
 40
0.0
 40
0.0
 40
0.0
 40
0.0
 40
1.0
 40
1.0
 40
1.0
 40
1.0
 10
603.1861054183488
 20
467.6284745856537
 30
0.0
 10
603.2654525294206
 20
467.6377500157574
 30
0.0
 10
603.3447067366292
 20
467.6568651514751
 30
0.0
 10
603.4230688492858
 20
467.6845607314629
 30
0.0
  0
SPLINE
  5
132
330
1F
100
AcDbEntity
  8
0
  6
SLD-Сплошная
 62
     7
370
    35
100
AcDbSpline
210
0.0
220
0.0
230
1.0
 70
     8
 71
     3
 72
     9
 73
     5
 74
     0
 42
0.000000001
 43
0.00000001
 40
0.9250461524350466
 40
0.9250461524350466
 40
0.9250461524350466
 40
0.9250461524350466
 40
0.9403746966207419
 40
1.0
 40
1.0
 40
1.0
 40
1.0
 10
603.1861054183655
 20
467.6284745856556
 30
0.0
 10
603.1693401442105
 20
467.6266523958502
 30
0.0
 10
603.0877901271996
 20
467.6202491433654
 30
0.0
 10
603.0079095592148
 20
467.6235974043439
 30
0.0
 10
602.9443650814363
 20
467.6262609244052
 30
0.0
  0
ARC
  5
133
330
1F
100
AcDbEntity
  8
0
  6
SLD-Сплошная
 62
     7
370
    35
100
AcDbCircle
 10
604.4971995771
 20
353.358221563
 30
0.0
 40
2.847250860788465
100
AcDbArc
 50
236.9493449578
 51
281.593488799
  0
SPLINE
  5
134
330
1F
100
AcDbEntity
  8
0
  6
SLD-Сплошная
 62
     7
370
    35
100
AcDbSpline
210
0.0
220
0.0
230
1.0
 70
     8
 71
     3
 72
    10
 73
     6
 74
     0
 42
0.000000001
 43
0.00000001
 40
0.0
 40
0.0
 40
0.0
 40
0.0
 40
0.5
 40
0.5
 40
1.0
 40
1.0
 40
1.0
 40
1.0
 10
606.0556349186467
 20
351.0583090240843
 30
0.0
 10
605.9212015095445
 20
350.9329321003639
 30
0.0
 10
605.7709888239195
 20
350.8291891305623
 30
0.0
 10
605.4383060397602
 20
350.664268167706
 30
0.0
 10
605.2576862429778
 20
350.6047340343118
 30
0.0
 10
605.069401899272
 20
350.5690600461775
 30
0.0
  0
SPLINE
  5
135
330
1F
100
AcDbEntity
  8
0
  6
SLD-Сплошная
 62
     7
370
    35
100
AcDbSpline
210
0.0
220
0.0
230
1.0
 70
     8
 71
     3
 72
     8
 73
     4
 74
     0
 42
0.000000001
 43
0.00000001
 40
0.0
 40
0.0
 40
0.0
 40
0.0
 40
1.0
 40
1.0
 40
1.0
 40
1.0
 10
603.753304418584
 20
482.8373642850876
 30
0.0
 10
604.1727743034212
 20
482.730339728428
 30
0.0
 10
604.6386909443426
 20
482.7164167724831
 30
0.0
 10
605.069435195025
 20
482.7980344367655
 30
0.0
  0
ARC
  5
136
330
1F
100
AcDbEntity
  8
0
  6
SLD-Сплошная
 62
     7
370
    35
100
AcDbCircle
 10
599.8181551651
 20
468.9460206726
 30
0.0
 40
3.487043122188618
100
AcDbArc
 50
26.2954354578
 51
79.0664866524
  0
LINE
  5
137
330
1F
100
AcDbEntity
  8
0
  6
SLD-Сплошная
 62
     7
370
    35
100
AcDbLine
 10
600.4795418536
 20
484.943549291
 30
0.0
 11
602.9443650814
 21
483.2006560722
 31
0.0
  0
ARC
  5
138
330
1F
100
AcDbEntity
  8
0
  6
SLD-Сплошная
 62
     7
370
    35
100
AcDbCircle
 10
600.5735686699
 20
357.2622643665
 30
0.0
 40
8.279016381512708
100
AcDbArc
 50
311.4651180214
 51
354.4198037489
  0
LINE
  5
139
330
1F
100
AcDbEntity
  8
0
  6
SLD-Сплошная
 62
     7
370
    35
100
AcDbLine
 10
608.8133513653
 20
481.6151221663
 30
0.0
 11
608.8133513653
 21
356.4572218963
 31
0.0
  0
ARC
  5
13A
330
1F
100
AcDbEntity
  8
0
  6
SLD-Сплошная
 62
     7
370
    35
100
AcDbCircle
 10
594.3720088386
 20
483.0590308582
 30
0.0
 40
2.940189798887588
100
AcDbArc
 50
89.7147116142
 51
109.5807411341
  0
ARC
  5
13B
330
1F
100
AcDbEntity
  8
0
  6
SLD-Сплошная
 62
     7
370
    35
100
AcDbCircle
 10
594.2616486348
 20
484.2667725957
 30
0.0
 40
0.8926785535563375
100
AcDbArc
 50
81.9505330236
 51
168.5782463411
  0
ARC
  5
13C
330
1F
100
AcDbEntity
  8
0
  6
SLD-Сплошная
 62
     7
370
    35
100
AcDbCircle
 10
594.2616486348
 20
352.0378045139
 30
0.0
 40
0.8926785535677948
100
AcDbArc
 50
81.9505330245
 51
168.578246341
  0
SPLINE
  5
13D
330
1F
100
AcDbEntity
  8
0
  6
SLD-Сплошная
 62
     7
370
    35
100
AcDbSpline
210
0.0
220
0.0
230
1.0
 70
     8
 71
     3
 72
    14
 73
    10
 74
     0
 42
0.000000001
 43
0.00000001
 40
0.0
 40
0.0
 40
0.0
 40
0.0
 40
0.25
 40
0.25
 40
0.5
 40
0.5
 40
0.75
 40
0.75
 40
1.0
 40
1.0
 40
1.0
 40
1.0
 10
599.7724350724357
 20
471.1169706356741
 30
0.0
 10
599.7797465377605
 20
471.2357584603297
 30
0.0
 10
599.7963703321635
 20
471.3538355984323
 30
0.0
 10
599.8530419050751
 20
471.5857229153708
 30
0.0
 10
599.8925362167192
 20
471.6991573295962
 30
0.0
 10
599.9922494086791
 20
471.9107373083933
 30
0.0
 10
600.0525726892873
 20
472.0095988885333
 30
0.0
 10
600.1928936323302
 20
472.1830334772804
 30
0.0
 10
600.2726260191818
 20
472.2591688403161
 30
0.0
 10
600.3571661049283
 20
472.3104914004491
 30
0.0
  0
SPLINE
  5
13E
330
1F
100
AcDbEntity
  8
0
  6
SLD-Сплошная
 62
     7
370
    35
100
AcDbSpline
210
0.0
220
0.0
230
1.0
 70
     8
 71
     3
 72
     8
 73
     4
 74
     0
 42
0.000000001
 43
0.00000001
 40
0.0
 40
0.0
 40
0.0
 40
0.0
 40
1.0
 40
1.0
 40
1.0
 40
1.0
 10
600.4795418536222
 20
472.3697667765651
 30
0.0
 10
600.4406240562644
 20
472.3537726242704
 30
0.0
 10
600.3984005093297
 20
472.3355239655421
 30
0.0
 10
600.3571661049285
 20
472.3104914004491
 30
0.0
  0
ARC
  5
13F
330
1F
100
AcDbEntity
  8
0
  6
SLD-Сплошная
 62
     7
370
    35
100
AcDbCircle
 10
599.7940404852
 20
483.9137613937
 30
0.0
 40
1.237083360013941
100
AcDbArc
 50
56.349389951
 51
91.0007101734
  0
SPLINE
  5
140
330
1F
100
AcDbEntity
  8
0
  6
SLD-Сплошная
 62
     7
370
    35
100
AcDbSpline
210
0.0
220
0.0
230
1.0
 70
     8
 71
     3
 72
    19
 73
    15
 74
     0
 42
0.000000001
 43
0.00000001
 40
0.0
 40
0.0
 40
0.0
 40
0.0
 40
0.0526315789473638
 40
0.1052631578947223
 40
0.1578947368421467
 40
0.2105263157894989
 40
0.2631578947368537
 40
0.3157894736842121
 40
0.3684210526315672
 40
0.4210526315789728
 40
0.4736842105263364
 40
0.5263157894737159
 40
0.5789473684210363
 40
0.6146345928894142
 40
0.6146345928894142
 40
0.6146345928894142
 40
0.6146345928894142
 10
599.7724350724357
 20
485.9991842096515
 30
0.0
 10
599.8027486852678
 20
485.9989283921776
 30
0.0
 10
599.8633759109324
 20
485.9984167572299
 30
0.0
 10
599.9541613785324
 20
485.994280690848
 30
0.0
 10
600.0446363697862
 20
485.987686045625
 30
0.0
 10
600.1346463096916
 20
485.9784021386652
 30
0.0
 10
600.2240374177669
 20
485.9665096615968
 30
0.0
 10
600.3126569708368
 20
485.9520115613333
 30
0.0
 10
600.4003535637579
 20
485.9349372621487
 30
0.0
 10
600.4869773688335
 20
485.9153146883261
 30
0.0
 10
600.5723803890234
 20
485.8931776976722
 30
0.0
 10
600.6564167211291
 20
485.868564025864
 30
0.0
 10
600.7300865462394
 20
485.8444183992144
 30
0.0
 10
600.7754727643963
 20
485.8281679858401
 30
0.0
 10
600.7936783775057
 20
485.8214212247437
 30
0.0
  0
LINE
  5
141
330
1F
100
AcDbEntity
  8
0
  6
SLD-Сплошная
 62
     7
370
    35
100
AcDbLine
 10
594.3866486348
 20
485.9991842097
 30
0.0
 11
599.7724350724
 21
485.9991842097
 31
0.0
  0
LINE
  5
142
330
1F
100
AcDbEntity
  8
0
  6
SLD-Сплошная
 62
     7
370
    35
100
AcDbLine
 10
594.3866486348
 20
485.1506560722
 30
0.0
 11
599.7724350724
 21
485.1506560722
 31
0.0
  0
LINE
  5
143
330
1F
100
AcDbEntity
  8
0
  6
SLD-Сплошная
 62
     7
370
    35
100
AcDbLine
 10
594.3866486348
 20
352.9216879903
 30
0.0
 11
599.7724350724
 21
352.9216879903
 31
0.0
  0
LINE
  5
144
330
1F
100
AcDbEntity
  8
0
  6
SLD-Сплошная
 62
     7
370
    35
100
AcDbLine
 10
599.7724350724
 20
471.1169706357
 30
0.0
 11
599.7724350724
 21
470.9000702613
 31
0.0
  0
LINE
  5
145
330
1F
100
AcDbEntity
  8
0
  6
SLD-Сплошная
 62
     7
370
    35
100
AcDbLine
 10
602.9443650814
 20
467.6262609244
 30
0.0
 11
603.7928932189
 21
468.2262609244
 31
0.0
  0
LINE
  5
146
330
1F
100
AcDbEntity
  8
0
  6
SLD-Сплошная
 62
     7
370
    35
100
AcDbLine
 10
603.7928932189
 20
468.2262609244
 30
0.0
 11
604.071966216
 21
468.5283463748
 31
0.0
  0
LINE
  5
147
330
1F
100
AcDbEntity
  8
0
  6
SLD-Сплошная
 62
     7
370
    35
100
AcDbLine
 10
600.4795418536
 20
352.7145812092
 30
0.0
 11
602.9443650814
 21
350.9716879903
 31
0.0
  0
ARC
  5
148
330
1F
100
AcDbEntity
  8
0
  6
SLD-Сплошная
 62
     7
370
    35
100
AcDbCircle
 10
603.1420446962
 20
470.6234140907
 30
0.0
 40
3.003665149846175
100
AcDbArc
 50
207.5734713579
 51
266.2264768942
  0
ARC
  5
149
330
1F
100
AcDbEntity
  8
0
  6
SLD-Сплошная
 62
     7
370
    35
100
AcDbCircle
 10
603.9905728336
 20
471.2234140907
 30
0.0
 40
3.003665149846233
100
AcDbArc
 50
207.5734713579
 51
266.2264768942
  0
LINE
  5
14A
330
1F
100
AcDbEntity
  8
0
  6
SLD-Сплошная
 62
     7
370
    35
100
AcDbLine
 10
600.4795418536
 20
469.2330605581
 30
0.0
 11
601.328069991
 21
469.8330605581
 31
0.0
  0
ARC
  5
14B
330
1F
100
AcDbEntity
  8
0
  6
SLD-Сплошная
 62
     7
370
    35
100
AcDbCircle
 10
599.7940404851
 20
351.6847933114
 30
0.0
 40
1.237083360397381
100
AcDbArc
 50
56.3493899587
 51
91.0007101706
  0
SPLINE
  5
14C
330
1F
100
AcDbEntity
  8
0
  6
SLD-Сплошная
 62
     7
370
    35
100
AcDbSpline
210
0.0
220
0.0
230
1.0
 70
     8
 71
     3
 72
    16
 73
    12
 74
     0
 42
0.000000001
 43
0.00000001
 40
0.0
 40
0.0
 40
0.0
 40
0.0
 40
0.1249999999999998
 40
0.1249999999999998
 40
0.2499999999999997
 40
0.2499999999999997
 40
0.4999999999999996
 40
0.4999999999999996
 40
0.7499999999999998
 40
0.7499999999999998
 40
1.0
 40
1.0
 40
1.0
 40
1.0
 10
599.7724350724357
 20
470.90007026132
 30
0.0
 10
599.7781754586296
 20
470.8335365247385
 30
0.0
 10
599.7839187329569
 20
470.7669910708039
 30
0.0
 10
599.8036953827506
 20
470.6343671264978
 30
0.0
 10
599.8179308498776
 20
470.568282680235
 30
0.0
 10
599.8707592625885
 20
470.3695119351785
 30
0.0
 10
599.9193132014142
 20
470.2374311607305
 30
0.0
 10
600.0428923805704
 20
469.9709374180788
 30
0.0
 10
600.1178236173865
 20
469.8359818610332
 30
0.0
 10
600.2902715609235
 20
469.5472492217666
 30
0.0
 10
600.3870944380153
 20
469.396323597175
 30
0.0
 10
600.4795418536222
 20
469.2330605580552
 30
0.0
  0
SPLINE
  5
14D
330
1F
100
AcDbEntity
  8
0
  6
SLD-Сплошная
 62
     7
370
    35
100
AcDbSpline
210
0.0
220
0.0
230
1.0
 70
     8
 71
     3
 72
     9
 73
     5
 74
     0
 42
0.000000001
 43
0.00000001
 40
0.0
 40
0.0
 40
0.0
 40
0.0
 40
0.0066027594840514
 40
0.0260230094822603
 40
0.0260230094822603
 40
0.0260230094822603
 40
0.0260230094822603
 10
601.2807857249869
 20
469.8880991486068
 30
0.0
 10
601.2848156195478
 20
469.8834593052589
 30
0.0
 10
601.3006521937176
 20
469.8651499607295
 30
0.0
 10
601.3163529512774
 20
469.8467740158789
 30
0.0
 10
601.328069991046
 20
469.8330605580551
 30
0.0
  0
SPLINE
  5
14E
330
1F
100
AcDbEntity
  8
0
  6
SLD-Сплошная
 62
     7
370
    35
100
AcDbSpline
210
0.0
220
0.0
230
1.0
 70
     8
 71
     3
 72
    10
 73
     6
 74
     0
 42
0.000000001
 43
0.00000001
 40
0.0
 40
0.0
 40
0.0
 40
0.0
 40
0.3420053214041232
 40
0.7051683617934006
 40
1.0
 40
1.0
 40
1.0
 40
1.0
 10
599.9358814758758
 20
471.3125239431362
 30
0.0
 10
600.0541571014368
 20
471.1553566562195
 30
0.0
 10
600.2980253218916
 20
470.8312991304838
 30
0.0
 10
600.8246851515689
 20
470.3767009807769
 30
0.0
 10
601.1396551990175
 20
470.0392864910106
 30
0.0
 10
601.2807857249868
 20
469.888099148607
 30
0.0
  0
LINE
  5
14F
330
1F
100
AcDbEntity
  8
0
  6
SLD-Сплошная
 62
     7
370
    35
100
AcDbLine
 10
591.1866486347
 20
-480.0300508393
 30
0.0
 11
591.1866486347
 21
-494.0300499962
 31
0.0
  0
LINE
  5
150
330
1F
100
AcDbEntity
  8
0
  6
SLD-Сплошная
 62
     7
370
    35
100
AcDbLine
 10
593.9866486349
 20
-490.2800499962
 30
0.0
 11
593.9866486349
 21
-483.7800499962
 31
0.0
  0
LINE
  5
151
330
1F
100
AcDbEntity
  8
0
  6
SLD-Сплошная
 62
     7
370
    35
100
AcDbLine
 10
603.8432165152
 20
-453.0294543401
 30
0.0
 11
603.9620922677
 21
-452.8067590788
 31
0.0
  0
SPLINE
  5
152
330
1F
100
AcDbEntity
  8
0
  6
SLD-Сплошная
 62
     7
370
    35
100
AcDbSpline
210
0.0
220
0.0
230
1.0
 70
     8
 71
     3
 72
     9
 73
     5
 74
     0
 42
0.000000001
 43
0.00000001
 40
0.0
 40
0.0
 40
0.0
 40
0.0
 40
0.5456155108563273
 40
1.0
 40
1.0
 40
1.0
 40
1.0
 10
603.6505888480641
 20
-450.7414054536566
 30
0.0
 10
603.5248212862689
 20
-450.5841487416696
 30
0.0
 10
603.2943154459974
 20
-450.2959298240287
 30
0.0
 10
603.0536979427351
 20
-450.095569689654
 30
0.0
 10
602.9443650814361
 20
-450.0045291523514
 30
0.0
  0
LINE
  5
153
330
1F
100
AcDbEntity
  8
0
  6
SLD-Сплошная
 62
     7
370
    35
100
AcDbLine
 10
154.1621682694
 20
-607.3160406679
 30
0.0
 11
153.5621682694
 21
-608.1645688053
 31
0.0
  0
ARC
  5
154
330
1F
100
AcDbEntity
  8
0
  6
SLD-Сплошная
 62
     7
370
    35
100
AcDbCircle
 10
-209.7536042158
 20
-591.8866486348
 30
0.0
 40
0.2999999999999944
100
AcDbArc
 50
270.0
 51
315.0
  0
ARC
  5
155
330
1F
100
AcDbEntity
  8
0
  6
SLD-Сплошная
 62
     7
370
    35
100
AcDbCircle
 10
-192.2624353912
 20
-591.8866486348
 30
0.0
 40
0.2999999999999944
100
AcDbArc
 50
225.0
 51
270.0
  0
LINE
  5
156
330
1F
100
AcDbEntity
  8
0
  6
SLD-Сплошная
 62
     7
370
    35
100
AcDbLine
 10
-209.5414721814
 20
-592.0987806691
 30
0.0
 11
-209.0686799753
 21
-591.625988463
 31
0.0
  0
LINE
  5
157
330
1F
100
AcDbEntity
  8
0
  6
SLD-Сплошная
 62
     7
370
    35
100
AcDbLine
 10
-192.9473596317
 20
-591.625988463
 30
0.0
 11
-192.4745674256
 21
-592.0987806691
 31
0.0
  0
ARC
  5
158
330
1F
100
AcDbEntity
  8
0
  6
SLD-Сплошная
 62
     7
370
    35
100
AcDbCircle
 10
-194.0080198035
 20
-592.6866486348
 30
0.0
 40
1.5
100
AcDbArc
 50
45.0
 51
90.0
  0
ARC
  5
159
330
1F
100
AcDbEntity
  8
0
  6
SLD-Сплошная
 62
     7
370
    35
100
AcDbCircle
 10
-208.0080198035
 20
-592.6866486348
 30
0.0
 40
1.5
100
AcDbArc
 50
90.0
 51
135.0
  0
LINE
  5
15A
330
1F
100
AcDbEntity
  8
0
  6
SLD-Сплошная
 62
     7
370
    35
100
AcDbLine
 10
-204.2580198035
 20
-593.9866486347
 30
0.0
 11
-204.2580198035
 21
-593.3866486348
 31
0.0
  0
LINE
  5
15B
330
1F
100
AcDbEntity
  8
0
  6
SLD-Сплошная
 62
     7
370
    35
100
AcDbLine
 10
-197.7580198035
 20
-593.3866486348
 30
0.0
 11
-197.7580198035
 21
-593.9866486347
 31
0.0
  0
LINE
  5
15C
330
1F
100
AcDbEntity
  8
0
  6
SLD-Сплошная
 62
     7
370
    35
100
AcDbLine
 10
-420.9684812842
 20
-593.3866486348
 30
0.0
 11
-420.9684812842
 21
-592.1866486348
 31
0.0
  0
LINE
  5
15D
330
1F
100
AcDbEntity
  8
0
  6
SLD-Сплошная
 62
     7
370
    35
100
AcDbLine
 10
-402.1360363591
 20
-608.1645688053
 30
0.0
 11
-402.736036359
 21
-607.3160406678
 31
0.0
  0
ARC
  5
15E
330
1F
100
AcDbEntity
  8
0
  6
SLD-Сплошная
 62
     7
370
    35
100
AcDbCircle
 10
108.817896872
 20
-591.8866486347
 30
0.0
 40
0.2999999999999944
100
AcDbArc
 50
270.0
 51
315.0
  0
ARC
  5
15F
330
1F
100
AcDbEntity
  8
0
  6
SLD-Сплошная
 62
     7
370
    35
100
AcDbCircle
 10
126.3090656965
 20
-591.8866486347
 30
0.0
 40
0.2999999999999944
100
AcDbArc
 50
225.0
 51
270.0
  0
LINE
  5
160
330
1F
100
AcDbEntity
  8
0
  6
SLD-Сплошная
 62
     7
370
    35
100
AcDbLine
 10
109.0300289063
 20
-592.0987806691
 30
0.0
 11
109.5028211125
 21
-591.625988463
 31
0.0
  0
LINE
  5
161
330
1F
100
AcDbEntity
  8
0
  6
SLD-Сплошная
 62
     7
370
    35
100
AcDbLine
 10
125.624141456
 20
-591.625988463
 30
0.0
 11
126.0969336621
 21
-592.0987806691
 31
0.0
  0
ARC
  5
162
330
1F
100
AcDbEntity
  8
0
  6
SLD-Сплошная
 62
     7
370
    35
100
AcDbCircle
 10
124.5634812842
 20
-592.6866486347
 30
0.0
 40
1.5
100
AcDbArc
 50
45.0
 51
90.0
  0
ARC
  5
163
330
1F
100
AcDbEntity
  8
0
  6
SLD-Сплошная
 62
     7
370
    35
100
AcDbCircle
 10
110.5634812842
 20
-592.6866486347
 30
0.0
 40
1.5
100
AcDbArc
 50
90.0
 51
135.0
  0
LINE
  5
164
330
1F
100
AcDbEntity
  8
0
  6
SLD-Сплошная
 62
     7
370
    35
100
AcDbLine
 10
-3.7252278525
 20
-593.3866486348
 30
0.0
 11
3.3458399594
 21
-593.3866486348
 31
0.0
  0
LINE
  5
165
330
1F
100
AcDbEntity
  8
0
  6
SLD-Сплошная
 62
     7
370
    35
100
AcDbLine
 10
3.3458399594
 20
-592.1866486348
 30
0.0
 11
-3.7252278525
 21
-592.1866486348
 31
0.0
  0
LINE
  5
166
330
1F
100
AcDbEntity
  8
0
  6
SLD-Сплошная
 62
     7
370
    35
100
AcDbLine
 10
21.0235094891
 20
-593.3866486348
 30
0.0
 11
21.0235094891
 21
-592.1866486348
 31
0.0
  0
LINE
  5
167
330
1F
100
AcDbEntity
  8
0
  6
SLD-Сплошная
 62
     7
370
    35
100
AcDbLine
 10
3.3458399594
 20
-593.3866486348
 30
0.0
 11
21.0235094891
 21
-593.3866486348
 31
0.0
  0
LINE
  5
168
330
1F
100
AcDbEntity
  8
0
  6
SLD-Сплошная
 62
     7
370
    35
100
AcDbLine
 10
3.3458399594
 20
-592.1866486348
 30
0.0
 11
21.0235094891
 21
-592.1866486348
 31
0.0
  0
LINE
  5
169
330
1F
100
AcDbEntity
  8
0
  6
SLD-Сплошная
 62
     7
370
    35
100
AcDbLine
 10
-3.7252278525
 20
-593.3866486348
 30
0.0
 11
-419.5040151902
 21
-593.3866486348
 31
0.0
  0
LINE
  5
16A
330
1F
100
AcDbEntity
  8
0
  6
SLD-Сплошная
 62
     7
370
    35
100
AcDbLine
 10
-3.7252278525
 20
-592.1866486348
 30
0.0
 11
-419.5040151902
 21
-592.1866486348
 31
0.0
  0
ARC
  5
16B
330
1F
100
AcDbEntity
  8
0
  6
SLD-Сплошная
 62
     7
370
    35
100
AcDbCircle
 10
154.4192037599
 20
-594.1116486348
 30
0.0
 40
1.963892817849601
100
AcDbArc
 50
351.9505330245
 51
78.578246341
  0
ARC
  5
16C
330
1F
100
AcDbEntity
  8
0
  6
SLD-Сплошная
 62
     7
370
    35
100
AcDbCircle
 10
22.190235678
 20
-594.1116486348
 30
0.0
 40
1.963892817874604
100
AcDbArc
 50
351.9505330253
 51
78.578246341
  0
LINE
  5
16D
330
1F
100
AcDbEntity
  8
0
  6
SLD-Сплошная
 62
     7
370
    35
100
AcDbLine
 10
22.5791444077
 20
-592.1866486348
 30
0.0
 11
154.8081124896
 21
-592.1866486348
 31
0.0
  0
ARC
  5
16E
330
1F
100
AcDbEntity
  8
0
  6
SLD-Сплошная
 62
     7
370
    35
100
AcDbCircle
 10
22.4023677124
 20
-594.2616486348
 30
0.0
 40
0.8926785535792068
100
AcDbArc
 50
351.9505330253
 51
78.578246341
  0
LINE
  5
16F
330
1F
100
AcDbEntity
  8
0
  6
SLD-Сплошная
 62
     7
370
    35
100
AcDbLine
 10
24.1347793263
 20
-594.3866486348
 30
0.0
 11
24.1347793263
 21
-599.7724350724
 31
0.0
  0
LINE
  5
170
330
1F
100
AcDbEntity
  8
0
  6
SLD-Сплошная
 62
     7
370
    35
100
AcDbLine
 10
23.2862511889
 20
-594.3866486348
 30
0.0
 11
23.2862511889
 21
-599.7724350724
 31
0.0
  0
LINE
  5
171
330
1F
100
AcDbEntity
  8
0
  6
SLD-Сплошная
 62
     7
370
    35
100
AcDbLine
 10
38.1684647628
 20
-599.7724350724
 30
0.0
 11
38.3853651372
 21
-599.7724350724
 31
0.0
  0
LINE
  5
172
330
1F
100
AcDbEntity
  8
0
  6
SLD-Сплошная
 62
     7
370
    35
100
AcDbLine
 10
156.3637474082
 20
-594.3866486348
 30
0.0
 11
156.3637474082
 21
-599.7724350724
 31
0.0
  0
SPLINE
  5
173
330
1F
100
AcDbEntity
  8
0
  6
SLD-Сплошная
 62
     7
370
    35
100
AcDbSpline
210
0.0
220
0.0
230
1.0
 70
     8
 71
     3
 72
     9
 73
     5
 74
     0
 42
0.000000001
 43
0.00000001
 40
0.857725527920025
 40
0.857725527920025
 40
0.857725527920025
 40
0.857725527920025
 40
0.967384194528695
 40
1.0
 40
1.0
 40
1.0
 40
1.0
 10
36.25292692214127
 20
-601.3280699910443
 30
0.0
 10
36.32954519149317
 20
-601.2599425762444
 30
0.0
 10
36.42895205244295
 20
-601.171552006904
 30
0.0
 10
36.5257787946604
 20
-601.080036075679
 30
0.0
 10
36.54779998087915
 20
-601.0588433439478
 30
0.0
  0
SPLINE
  5
174
330
1F
100
AcDbEntity
  8
0
  6
SLD-Сплошная
 62
     7
370
    35
100
AcDbSpline
210
0.0
220
0.0
230
1.0
 70
     8
 71
     3
 72
     8
 73
     4
 74
     0
 42
0.000000001
 43
0.00000001
 40
0.0
 40
0.0
 40
0.0
 40
0.0
 40
1.0
 40
1.0
 40
1.0
 40
1.0
 10
36.54779998087881
 20
-601.0588433439478
 30
0.0
 10
36.63947018109731
 20
-600.9689537523373
 30
0.0
 10
36.72859769603048
 20
-600.8777662796455
 30
0.0
 10
36.81610039823696
 20
-600.7860571273743
 30
0.0
  0
SPLINE
  5
175
330
1F
100
AcDbEntity
  8
0
  6
SLD-Сплошная
 62
     7
370
    35
100
AcDbSpline
210
0.0
220
0.0
230
1.0
 70
     8
 71
     3
 72
    20
 73
    16
 74
     0
 42
0.000000001
 43
0.00000001
 40
0.0
 40
0.0
 40
0.0
 40
0.0
 40
0.0628127591225397
 40
0.1303108571619698
 40
0.1844963558020286
 40
0.2545375803750505
 40
0.3094421422187726
 40
0.3730100996137277
 40
0.4370728363349066
 40
0.4863974398525762
 40
0.5667266283693259
 40
0.5957158256851285
 40
0.6976810152372523
 40
0.7022984967104223
 40
0.7213092523472688
 40
0.7213092523472688
 40
0.7213092523472688
 40
0.7213092523472688
 10
36.81610039825662
 20
-600.7860571273535
 30
0.0
 10
36.85623766828655
 20
-600.7437969844975
 30
0.0
 10
36.93868947379048
 20
-600.656382462594
 30
0.0
 10
37.05336769024642
 20
-600.5347482535022
 30
0.0
 10
37.17089624709718
 20
-600.4118436815562
 30
0.0
 10
37.27969935142134
 20
-600.3018041704844
 30
0.0
 10
37.39390498231415
 20
-600.1930682979153
 30
0.0
 10
37.50476944419018
 20
-600.0956260889029
 30
0.0
 10
37.6132064464601
 20
-600.0109963556126
 30
0.0
 10
37.73335854525922
 20
-599.9295711596483
 30
0.0
 10
37.83347532386122
 20
-599.8745904390336
 30
0.0
 10
37.96893334561274
 20
-599.8159136009886
 30
0.0
 10
38.05753403118545
 20
-599.7898353718739
 30
0.0
 10
38.14031129271706
 20
-599.776246626522
 30
0.0
 10
38.15591243206023
 20
-599.7741344681912
 30
0.0
 10
38.16846476283003
 20
-599.772435072434
 30
0.0
  0
SPLINE
  5
176
330
1F
100
AcDbEntity
  8
0
  6
SLD-Сплошная
 62
     7
370
    35
100
AcDbSpline
210
0.0
220
0.0
230
1.0
 70
     8
 71
     3
 72
    19
 73
    15
 74
     0
 42
0.000000001
 43
0.00000001
 40
0.0
 40
0.0
 40
0.0
 40
0.0
 40
0.0526315789473638
 40
0.1052631578947223
 40
0.1578947368421467
 40
0.2105263157894989
 40
0.2631578947368537
 40
0.3157894736842121
 40
0.3684210526315672
 40
0.4210526315789728
 40
0.4736842105263364
 40
0.5263157894737159
 40
0.5789473684210363
 40
0.6146345928894142
 40
0.6146345928894142
 40
0.6146345928894142
 40
0.6146345928894142
 10
24.13477932627611
 20
-599.772435072434
 30
0.0
 10
24.13452350880213
 20
-599.8027486852661
 30
0.0
 10
24.13401187385406
 20
-599.8633759109307
 30
0.0
 10
24.12987580747244
 20
-599.9541613785308
 30
0.0
 10
24.12328116224965
 20
-600.0446363697846
 30
0.0
 10
24.11399725528945
 20
-600.1346463096899
 30
0.0
 10
24.10210477822145
 20
-600.2240374177652
 30
0.0
 10
24.08760667795756
 20
-600.3126569708352
 30
0.0
 10
24.07053237877316
 20
-600.4003535637561
 30
0.0
 10
24.05090980495078
 20
-600.4869773688318
 30
0.0
 10
24.02877281429644
 20
-600.5723803890218
 30
0.0
 10
24.00415914248871
 20
-600.6564167211274
 30
0.0
 10
23.98001351583862
 20
-600.7300865462378
 30
0.0
 10
23.96376310246412
 20
-600.7754727643946
 30
0.0
 10
23.95701634136788
 20
-600.793678377504
 30
0.0
  0
SPLINE
  5
177
330
1F
100
AcDbEntity
  8
0
  6
SLD-Сплошная
 62
     7
370
    35
100
AcDbSpline
210
0.0
220
0.0
230
1.0
 70
     8
 71
     3
 72
     8
 73
     4
 74
     0
 42
0.000000001
 43
0.00000001
 40
0.0
 40
0.0
 40
0.0
 40
0.0
 40
1.0
 40
1.0
 40
1.0
 40
1.0
 10
23.67985158517155
 20
-601.3280699910439
 30
0.0
 10
23.79168412685934
 20
-601.1699148938743
 30
0.0
 10
23.88360050552179
 20
-600.9917851644183
 30
0.0
 10
23.95701633903474
 20
-600.7936783742429
 30
0.0
  0
ARC
  5
178
330
1F
100
AcDbEntity
  8
0
  6
SLD-Сплошная
 62
     7
370
    35
100
AcDbCircle
 10
22.0493565103
 20
-599.7940404852
 30
0.0
 40
1.237083360134558
100
AcDbArc
 50
326.3493899547
 51
1.0007101733
  0
ARC
  5
179
330
1F
100
AcDbEntity
  8
0
  6
SLD-Сплошная
 62
     7
370
    35
100
AcDbCircle
 10
27.626827565
 20
-600.5735686698
 30
0.0
 40
8.279016381618655
100
AcDbArc
 50
221.4651180218
 51
264.4198037488
  0
ARC
  5
17A
330
1F
100
AcDbEntity
  8
0
  6
SLD-Сплошная
 62
     7
370
    35
100
AcDbCircle
 10
28.226827565
 20
-599.7250405325
 30
0.0
 40
8.279016381511575
100
AcDbArc
 50
221.4651180214
 51
264.4198037489
  0
SPLINE
  5
17B
330
1F
100
AcDbEntity
  8
0
  6
SLD-Сплошная
 62
     7
370
    35
100
AcDbSpline
210
0.0
220
0.0
230
1.0
 70
     8
 71
     3
 72
    14
 73
    10
 74
     0
 42
0.000000001
 43
0.00000001
 40
0.0
 40
0.0
 40
0.0
 40
0.0
 40
0.25
 40
0.25
 40
0.5
 40
0.5
 40
0.75
 40
0.75
 40
1.0
 40
1.0
 40
1.0
 40
1.0
 10
22.02287222259586
 20
-605.2071067812211
 30
0.0
 10
21.93748365161336
 20
-605.1155502462949
 30
0.0
 10
21.86925757653485
 20
-605.0070192271945
 30
0.0
 10
21.77298623700069
 20
-604.7662909581608
 30
0.0
 10
21.74588771428848
 20
-604.6352914196701
 30
0.0
 10
21.73462801081855
 20
-604.373506918017
 30
0.0
 10
21.75048246786476
 20
-604.2411906674577
 30
0.0
 10
21.81827559188815
 20
-603.9990223844728
 30
0.0
 10
21.87057437471035
 20
-603.8867743601724
 30
0.0
 10
21.93695836635473
 20
-603.7928932188632
 30
0.0
  0
LINE
  5
17C
330
1F
100
AcDbEntity
  8
0
  6
SLD-Сплошная
 62
     7
370
    35
100
AcDbLine
 10
21.9369583664
 20
-603.7928932189
 30
0.0
 11
23.6798515852
 21
-601.328069991
 31
0.0
  0
SPLINE
  5
17D
330
1F
100
AcDbEntity
  8
0
  6
SLD-Сплошная
 62
     7
370
    35
100
AcDbSpline
210
0.0
220
0.0
230
1.0
 70
     8
 71
     3
 72
    10
 73
     6
 74
     0
 42
0.000000001
 43
0.00000001
 40
0.0
 40
0.0
 40
0.0
 40
0.0
 40
0.5
 40
0.5
 40
1.0
 40
1.0
 40
1.0
 40
1.0
 10
20.93362955264616
 20
-605.0694351907672
 30
0.0
 10
20.96929969363709
 20
-605.2576836725366
 30
0.0
 10
21.0275464162491
 20
-605.434941033572
 30
0.0
 10
21.19187668409556
 20
-605.7679634975829
 30
0.0
 10
21.29747985539338
 20
-605.9211849505327
 30
0.0
 10
21.42287222258671
 20
-606.0556349186531
 30
0.0
  0
ARC
  5
17E
330
1F
100
AcDbEntity
  8
0
  6
SLD-Сплошная
 62
     7
370
    35
100
AcDbCircle
 10
37.6432804548
 20
-603.9905728336
 30
0.0
 40
3.003665149847236
100
AcDbArc
 50
117.5734713579
 51
176.2264768941
  0
LINE
  5
17F
330
1F
100
AcDbEntity
  8
0
  6
SLD-Сплошная
 62
     7
370
    35
100
AcDbLine
 10
23.0791444077
 20
-600.4795418536
 30
0.0
 11
21.3362511889
 21
-602.9443650814
 31
0.0
  0
LINE
  5
180
330
1F
100
AcDbEntity
  8
0
  6
SLD-Сплошная
 62
     7
370
    35
100
AcDbLine
 10
21.0235094891
 20
-593.3866486348
 30
0.0
 11
22.5791444077
 21
-593.3866486348
 31
0.0
  0
LINE
  5
181
330
1F
100
AcDbEntity
  8
0
  6
SLD-Сплошная
 62
     7
370
    35
100
AcDbLine
 10
21.0235094891
 20
-592.1866486348
 30
0.0
 11
22.5791444077
 21
-592.1866486348
 31
0.0
  0
LWPOLYLINE
  5
182
330
1F
100
AcDbEntity
  8
0
  6
SLD-Сплошная
 62
     7
370
    35
100
AcDbPolyline
 90
        9
 70
   128
 43
0.0
 10
154.078598237
 20
-605.2071067812
 10
154.3006265976
 20
-605.7748878987
 10
154.4029224012
 20
-606.3044993404
 10
154.3825838926
 20
-606.7809179803
 10
154.2401880004
 20
-607.1906295762
 10
153.9797739715
 20
-607.5220121192
 10
153.608728793
 20
-607.7656655069
 10
153.1375776498
 20
-607.9146781901
 10
152.5796853648
 20
-607.9648232279
  0
LINE
  5
183
330
1F
100
AcDbEntity
  8
0
  6
SLD-Сплошная
 62
     7
370
    35
100
AcDbLine
 10
27.4217850948
 20
-607.9648232279
 30
0.0
 11
152.5796853648
 21
-607.9648232279
 31
0.0
  0
SPLINE
  5
184
330
1F
100
AcDbEntity
  8
0
  6
SLD-Сплошная
 62
     7
370
    35
100
AcDbSpline
210
0.0
220
0.0
230
1.0
 70
     8
 71
     3
 72
    14
 73
    10
 74
     0
 42
0.000000001
 43
0.00000001
 40
0.0
 40
0.0
 40
0.0
 40
0.0
 40
0.25
 40
0.25
 40
0.5
 40
0.5
 40
0.75
 40
0.75
 40
1.0
 40
1.0
 40
1.0
 40
1.0
 10
154.1645120932461
 20
-603.7928932188789
 30
0.0
 10
154.0981284781974
 20
-603.8867738276001
 30
0.0
 10
154.0458714520103
 20
-603.9975083311481
 30
0.0
 10
153.9724352550532
 20
-604.2410298632847
 30
0.0
 10
153.9519159339038
 20
-604.3727725365255
 30
0.0
 10
153.9421669972291
 20
-604.6344728260747
 30
0.0
 10
153.9529309328009
 20
-604.7661355104656
 30
0.0
 10
153.9990001061208
 20
-605.0055062429329
 30
0.0
 10
154.0345006488548
 20
-605.1155384814963
 30
0.0
 10
154.0785982370001
 20
-605.2071067812291
 30
0.0
  0
SPLINE
  5
185
330
1F
100
AcDbEntity
  8
0
  6
SLD-Сплошная
 62
     7
370
    35
100
AcDbSpline
210
0.0
220
0.0
230
1.0
 70
     8
 71
     3
 72
    24
 73
    20
 74
     0
 42
0.000000001
 43
0.00000001
 40
0.0
 40
0.0
 40
0.0
 40
0.0
 40
0.0625000000000146
 40
0.0625000000000146
 40
0.1250000000000293
 40
0.1250000000000293
 40
0.2499999999999973
 40
0.2499999999999973
 40
0.3749999999999654
 40
0.3749999999999654
 40
0.4999999999999334
 40
0.4999999999999334
 40
0.7499999999999242
 40
0.7499999999999242
 40
0.8749999999999432
 40
0.8749999999999432
 40
0.9374999999999716
 40
0.9374999999999716
 40
1.0
 40
1.0
 40
1.0
 40
1.0
 10
37.51064633667417
 20
-603.7928932188585
 30
0.0
 10
37.43213192584022
 20
-603.8302047111194
 30
0.0
 10
37.35619768438509
 20
-603.8704919811362
 30
0.0
 10
37.20887663299038
 20
-603.946421497388
 30
0.0
 10
37.13726116569577
 20
-603.9823249867467
 30
0.0
 10
36.92586733056496
 20
-604.0849807831102
 30
0.0
 10
36.7887943737723
 20
-604.1459595968406
 30
0.0
 10
36.52371706127438
 20
-604.2420957673548
 30
0.0
 10
36.39453862242409
 20
-604.2783865829782
 30
0.0
 10
36.13695308620185
 20
-604.3270212636421
 30
0.0
 10
36.00766085687928
 20
-604.3393862974726
 30
0.0
 10
35.62644099119555
 20
-604.3394073992222
 30
0.0
 10
35.37783277126666
 20
-604.2911116394339
 30
0.0
 10
35.04305536438495
 20
-604.1458191585594
 30
0.0
 10
34.94072698697109
 20
-604.0861394917348
 30
0.0
 10
34.80974244861573
 20
-603.9833755172324
 30
0.0
 10
34.76981740117452
 20
-603.9470154868332
 30
0.0
 10
34.69946940888396
 20
-603.8713166433497
 30
0.0
 10
34.67046170345872
 20
-603.8312953866799
 30
0.0
 10
34.64612756678525
 20
-603.7928936580341
 30
0.0
  0
SPLINE
  5
186
330
1F
100
AcDbEntity
  8
0
  6
SLD-Сплошная
 62
     7
370
    35
100
AcDbSpline
210
0.0
220
0.0
230
1.0
 70
     8
 71
     3
 72
     8
 73
     4
 74
     0
 42
0.000000001
 43
0.00000001
 40
0.0
 40
0.0
 40
0.0
 40
0.0
 40
1.0
 40
1.0
 40
1.0
 40
1.0
 10
21.33625118885202
 20
-602.9443650814345
 30
0.0
 10
21.24531034893734
 20
-603.0729748506154
 30
0.0
 10
21.16571027861697
 20
-603.2176067154803
 30
0.0
 10
21.09987686058895
 20
-603.3738528917503
 30
0.0
  0
ARC
  5
187
330
1F
100
AcDbEntity
  8
0
  6
SLD-Сплошная
 62
     7
370
    35
100
AcDbCircle
 10
23.581835701
 20
-604.4149599434
 30
0.0
 40
2.691472381175042
100
AcDbArc
 50
157.2434168304
 51
165.7688718445
  0
SPLINE
  5
188
330
1F
100
AcDbEntity
  8
0
  6
SLD-Сплошная
 62
     7
370
    35
100
AcDbSpline
210
0.0
220
0.0
230
1.0
 70
     8
 71
     3
 72
     8
 73
     4
 74
     0
 42
0.000000001
 43
0.00000001
 40
0.0
 40
0.0
 40
0.0
 40
0.0
 40
1.0
 40
1.0
 40
1.0
 40
1.0
 10
20.97295940171157
 20
-603.7533044185822
 30
0.0
 10
20.86593484505189
 20
-604.1727743034195
 30
0.0
 10
20.85201188910685
 20
-604.6386909443409
 30
0.0
 10
20.93362955338923
 20
-605.0694351950233
 30
0.0
  0
LINE
  5
189
330
1F
100
AcDbEntity
  8
0
  6
SLD-Сплошная
 62
     7
370
    35
100
AcDbLine
 10
26.8217850948
 20
-608.8133513653
 30
0.0
 11
151.9796853648
 21
-608.8133513653
 31
0.0
  0
LINE
  5
18A
330
1F
100
AcDbEntity
  8
0
  6
SLD-Сплошная
 62
     7
370
    35
100
AcDbLine
 10
38.7896331407
 20
-600.4795418536
 30
0.0
 11
39.3896331407
 21
-601.328069991
 31
0.0
  0
SPLINE
  5
18B
330
1F
100
AcDbEntity
  8
0
  6
SLD-Сплошная
 62
     7
370
    35
100
AcDbSpline
210
0.0
220
0.0
230
1.0
 70
     8
 71
     3
 72
     9
 73
     5
 74
     0
 42
0.000000001
 43
0.00000001
 40
0.0
 40
0.0
 40
0.0
 40
0.0
 40
0.0066027594840514
 40
0.0260230094822603
 40
0.0260230094822603
 40
0.0260230094822603
 40
0.0260230094822603
 10
39.39949115213154
 20
-601.2807857249852
 30
0.0
 10
39.39871895560526
 20
-601.2848156195461
 30
0.0
 10
39.39558321893472
 20
-601.300652193716
 30
0.0
 10
39.39217591617178
 20
-601.3163529512757
 30
0.0
 10
39.38963314065119
 20
-601.3280699910443
 30
0.0
  0
SPLINE
  5
18C
330
1F
100
AcDbEntity
  8
0
  6
SLD-Сплошная
 62
     7
370
    35
100
AcDbSpline
210
0.0
220
0.0
230
1.0
 70
     8
 71
     3
 72
    16
 73
    12
 74
     0
 42
0.000000001
 43
0.00000001
 40
0.0
 40
0.0
 40
0.0
 40
0.0
 40
0.1249999999999722
 40
0.1249999999999722
 40
0.2499999999999444
 40
0.2499999999999444
 40
0.4999999999999629
 40
0.4999999999999629
 40
0.7499999999999815
 40
0.7499999999999815
 40
1.0
 40
1.0
 40
1.0
 40
1.0
 10
38.38536513718444
 20
-599.772435072434
 30
0.0
 10
38.46564818593917
 20
-599.7877965784719
 30
0.0
 10
38.54586067712046
 20
-599.8034814781884
 30
0.0
 10
38.69999182773104
 20
-599.8631535346227
 30
0.0
 10
38.77475609338627
 20
-599.9052683143356
 30
0.0
 10
38.9856885245276
 20
-600.0530097096558
 30
0.0
 10
39.10593913069199
 20
-600.1817280392464
 30
0.0
 10
39.29379908521885
 20
-600.4781803595783
 30
0.0
 10
39.35788215099772
 20
-600.6394456186952
 30
0.0
 10
39.42516464374174
 20
-600.9676476728923
 30
0.0
 10
39.42777346968268
 20
-601.1303006054326
 30
0.0
 10
39.39949115213154
 20
-601.2807857249851
 30
0.0
  0
SPLINE
  5
18D
330
1F
100
AcDbEntity
  8
0
  6
SLD-Сплошная
 62
     7
370
    35
100
AcDbSpline
210
0.0
220
0.0
230
1.0
 70
     8
 71
     3
 72
     9
 73
     5
 74
     0
 42
0.000000001
 43
0.00000001
 40
0.0
 40
0.0
 40
0.0
 40
0.0
 40
0.6152343009260857
 40
1.0
 40
1.0
 40
1.0
 40
1.0
 10
38.18493546917662
 20
-599.9659948335577
 30
0.0
 10
38.35947333882278
 20
-600.0463251158711
 30
0.0
 10
38.64316667221362
 20
-600.176893717447
 30
0.0
 10
38.74893652810724
 20
-600.3954492004258
 30
0.0
 10
38.78963314065103
 20
-600.4795418536205
 30
0.0
  0
ARC
  5
18E
330
1F
100
AcDbEntity
  8
0
  6
SLD-Сплошная
 62
     7
370
    35
100
AcDbCircle
 10
153.6425791153
 20
-599.8199669805
 30
0.0
 40
2.721583392163308
100
AcDbArc
 50
326.3493899529
 51
1.0007101734
  0
LINE
  5
18F
330
1F
100
AcDbEntity
  8
0
  6
SLD-Сплошная
 62
     7
370
    35
100
AcDbLine
 10
36.9106463367
 20
-602.9443650814
 30
0.0
 11
37.5106463367
 21
-603.7928932189
 31
0.0
  0
SPLINE
  5
190
330
1F
100
AcDbEntity
  8
0
  6
SLD-Сплошная
 62
     7
370
    35
100
AcDbSpline
210
0.0
220
0.0
230
1.0
 70
     8
 71
     3
 72
    11
 73
     7
 74
     0
 42
0.000000001
 43
0.00000001
 40
0.0
 40
0.0
 40
0.0
 40
0.0
 40
0.0446010546195509
 40
0.3626864874023499
 40
0.6811641852258536
 40
1.0
 40
1.0
 40
1.0
 40
1.0
 10
34.82374114574077
 20
-604.1042110556768
 30
0.0
 10
34.84340192247465
 20
-604.1141649294614
 30
0.0
 10
35.00327926425589
 20
-604.1951077580507
 30
0.0
 10
35.37265527494809
 20
-604.1169562865467
 30
0.0
 10
35.84805451616785
 20
-603.8528123418819
 30
0.0
 10
36.17551263988678
 20
-603.5663703323096
 30
0.0
 10
36.33933370380055
 20
-603.4230688492839
 30
0.0
  0
SPLINE
  5
191
330
1F
100
AcDbEntity
  8
0
  6
SLD-Сплошная
 62
     7
370
    35
100
AcDbSpline
210
0.0
220
0.0
230
1.0
 70
     8
 71
     3
 72
     8
 73
     4
 74
     0
 42
0.000000001
 43
0.00000001
 40
0.0
 40
0.0
 40
0.0
 40
0.0
 40
1.0
 40
1.0
 40
1.0
 40
1.0
 10
36.61296437140543
 20
-603.1861054183472
 30
0.0
 10
36.52013449250963
 20
-603.2654525294189
 30
0.0
 10
36.42924100601558
 20
-603.3447067366276
 30
0.0
 10
36.33933370380055
 20
-603.423068849284
 30
0.0
  0
SPLINE
  5
192
330
1F
100
AcDbEntity
  8
0
  6
SLD-Сплошная
 62
     7
370
    35
100
AcDbSpline
210
0.0
220
0.0
230
1.0
 70
     8
 71
     3
 72
     9
 73
     5
 74
     0
 42
0.000000001
 43
0.00000001
 40
0.9250461524350466
 40
0.9250461524350466
 40
0.9250461524350466
 40
0.9250461524350466
 40
0.9403746966207419
 40
1.0
 40
1.0
 40
1.0
 40
1.0
 10
36.61296437138567
 20
-603.1861054183638
 30
0.0
 10
36.63291110484984
 20
-603.1693401442088
 30
0.0
 10
36.7309659130865
 20
-603.0877901271979
 30
0.0
 10
36.83103891090595
 20
-603.0079095592131
 30
0.0
 10
36.91064633667413
 20
-602.9443650814345
 30
0.0
  0
LINE
  5
193
330
1F
100
AcDbEntity
  8
0
  6
SLD-Сплошная
 62
     7
370
    35
100
AcDbLine
 10
155.9081124896
 20
-601.328069991
 30
0.0
 11
154.1652192707
 21
-603.7928932189
 31
0.0
  0
ARC
  5
194
330
1F
100
AcDbEntity
  8
0
  6
SLD-Сплошная
 62
     7
370
    35
100
AcDbCircle
 10
35.9658870367
 20
-600.6666833025
 30
0.0
 40
3.487043122188983
100
AcDbArc
 50
296.2954354578
 51
349.0664866524
  0
ARC
  5
195
330
1F
100
AcDbEntity
  8
0
  6
SLD-Сплошная
 62
     7
370
    35
100
AcDbCircle
 10
35.3658870367
 20
-599.8181551651
 30
0.0
 40
3.487043122189156
100
AcDbArc
 50
296.2954354578
 51
349.0664866524
  0
ARC
  5
196
330
1F
100
AcDbEntity
  8
0
  6
SLD-Сплошная
 62
     7
370
    35
100
AcDbCircle
 10
152.1580279412
 20
-606.994003141
 30
0.0
 40
1.828068389249031
100
AcDbArc
 50
264.4014372542
 51
320.183624625
  0
LINE
  5
197
330
1F
100
AcDbEntity
  8
0
  6
SLD-Сплошная
 62
     7
370
    35
100
AcDbLine
 10
157.1296456103
 20
-593.3866486348
 30
0.0
 11
157.1296456103
 21
-592.1866486348
 31
0.0
  0
LINE
  5
198
330
1F
100
AcDbEntity
  8
0
  6
SLD-Сплошная
 62
     7
370
    35
100
AcDbLine
 10
156.1937531356
 20
-593.3866486348
 30
0.0
 11
157.1296456103
 21
-593.3866486348
 31
0.0
  0
LINE
  5
199
330
1F
100
AcDbEntity
  8
0
  6
SLD-Сплошная
 62
     7
370
    35
100
AcDbLine
 10
154.8081124896
 20
-592.1866486348
 30
0.0
 11
157.1296456103
 21
-592.1866486348
 31
0.0
  0
LINE
  5
19A
330
1F
100
AcDbEntity
  8
0
  6
SLD-Сплошная
 62
     7
370
    35
100
AcDbLine
 10
416.5466570744
 20
-593.3866486348
 30
0.0
 11
416.5466570744
 21
-592.1866486348
 31
0.0
  0
LINE
  5
19B
330
1F
100
AcDbEntity
  8
0
  6
SLD-Сплошная
 62
     7
370
    35
100
AcDbLine
 10
416.5466570744
 20
-593.3866486348
 30
0.0
 11
157.1296456103
 21
-593.3866486348
 31
0.0
  0
LINE
  5
19C
330
1F
100
AcDbEntity
  8
0
  6
SLD-Сплошная
 62
     7
370
    35
100
AcDbLine
 10
416.5466570744
 20
-592.1866486348
 30
0.0
 11
157.1296456103
 21
-592.1866486348
 31
0.0
  0
LINE
  5
19D
330
1F
100
AcDbEntity
  8
0
  6
SLD-Сплошная
 62
     7
370
    35
100
AcDbLine
 10
-194.0080198035
 20
-591.1866486348
 30
0.0
 11
-208.0080198035
 21
-591.1866486348
 31
0.0
  0
LINE
  5
19E
330
1F
100
AcDbEntity
  8
0
  6
SLD-Сплошная
 62
     7
370
    35
100
AcDbLine
 10
-204.2580198035
 20
-593.9866486347
 30
0.0
 11
-197.7580198035
 21
-593.9866486347
 31
0.0
  0
LINE
  5
19F
330
1F
100
AcDbEntity
  8
0
  6
SLD-Сплошная
 62
     7
370
    35
100
AcDbLine
 10
-420.9684812842
 20
-593.3866486348
 30
0.0
 11
-419.5040151902
 21
-593.3866486348
 31
0.0
  0
LINE
  5
1A0
330
1F
100
AcDbEntity
  8
0
  6
SLD-Сплошная
 62
     7
370
    35
100
AcDbLine
 10
-419.5040151902
 20
-592.1866486348
 30
0.0
 11
-420.9684812842
 21
-592.1866486348
 31
0.0
  0
SPLINE
  5
1A1
330
1F
100
AcDbEntity
  8
0
  6
SLD-Сплошная
 62
     7
370
    35
100
AcDbSpline
210
0.0
220
0.0
230
1.0
 70
     8
 71
     3
 72
     8
 73
     4
 74
     0
 42
0.000000001
 43
0.00000001
 40
0.0
 40
0.0
 40
0.0
 40
0.0
 40
1.0
 40
1.0
 40
1.0
 40
1.0
 10
-404.7598525119571
 20
-600.7936783798136
 30
0.0
 10
-404.6864366784569
 20
-600.9917851692053
 30
0.0
 10
-404.5931059425884
 20
-601.1699148946724
 30
0.0
 10
-404.4812734014699
 20
-601.3280699910464
 30
0.0
  0
LINE
  5
1A2
330
1F
100
AcDbEntity
  8
0
  6
SLD-Сплошная
 62
     7
370
    35
100
AcDbLine
 10
-404.4812734015
 20
-601.3280699911
 30
0.0
 11
-402.7383801828
 21
-603.7928932189
 31
0.0
  0
SPLINE
  5
1A3
330
1F
100
AcDbEntity
  8
0
  6
SLD-Сплошная
 62
     7
370
    35
100
AcDbSpline
210
0.0
220
0.0
230
1.0
 70
     8
 71
     3
 72
    14
 73
    10
 74
     0
 42
0.000000001
 43
0.00000001
 40
0.0
 40
0.0
 40
0.0
 40
0.0
 40
0.25
 40
0.25
 40
0.5
 40
0.5
 40
0.75
 40
0.75
 40
1.0
 40
1.0
 40
1.0
 40
1.0
 10
-402.7383801827742
 20
-603.7928932188654
 30
0.0
 10
-402.6719965677285
 20
-603.8867738275884
 30
0.0
 10
-402.619739541556
 20
-603.9975083311482
 30
0.0
 10
-402.5463033446072
 20
-604.2410298632849
 30
0.0
 10
-402.5257840234611
 20
-604.3727725365259
 30
0.0
 10
-402.5160350867922
 20
-604.6344728260754
 30
0.0
 10
-402.5267990223666
 20
-604.7661355104665
 30
0.0
 10
-402.5728681956899
 20
-605.0055062429343
 30
0.0
 10
-402.6083687384243
 20
-605.1155384814966
 30
0.0
 10
-402.6524663265697
 20
-605.2071067812293
 30
0.0
  0
ARC
  5
1A4
330
1F
100
AcDbEntity
  8
0
  6
SLD-Сплошная
 62
     7
370
    35
100
AcDbCircle
 10
-400.9800485404
 20
-606.3295018776
 30
0.0
 40
2.014138029963829
100
AcDbArc
 50
146.1335991327
 51
209.3278932573
  0
LWPOLYLINE
  5
1A5
330
1F
100
AcDbEntity
  8
0
  6
SLD-Сплошная
 62
     7
370
    35
100
AcDbPolyline
 90
        9
 70
   128
 43
0.0
 10
-400.5535534544
 20
-608.8133513653
 10
-401.1114457394
 20
-608.7632063275
 10
-401.5825968826
 20
-608.6141936443
 10
-401.9536420611
 20
-608.3705402566
 10
-402.21405609
 20
-608.0391577136
 10
-402.3564519822
 20
-607.6294461177
 10
-402.3767904908
 20
-607.1530274778
 10
-402.2744946872
 20
-606.6234160361
 10
-402.0524663266
 20
-606.0556349186
  0
SPLINE
  5
1A6
330
1F
100
AcDbEntity
  8
0
  6
SLD-Сплошная
 62
     7
370
    35
100
AcDbSpline
210
0.0
220
0.0
230
1.0
 70
     8
 71
     3
 72
    10
 73
     6
 74
     0
 42
0.000000001
 43
0.00000001
 40
0.0
 40
0.0
 40
0.0
 40
0.0
 40
0.5
 40
0.5
 40
1.0
 40
1.0
 40
1.0
 40
1.0
 10
-402.0524663266156
 20
-606.0556349186459
 30
0.0
 10
-401.9877261289263
 20
-605.9212024003143
 30
0.0
 10
-401.927537510856
 20
-605.7709908109392
 30
0.0
 10
-401.8192912394584
 20
-605.438310662964
 30
0.0
 10
-401.7721348727323
 20
-605.2576922093498
 30
0.0
 10
-401.7364608160112
 20
-605.0694092874629
 30
0.0
  0
SPLINE
  5
1A7
330
1F
100
AcDbEntity
  8
0
  6
SLD-Сплошная
 62
     7
370
    35
100
AcDbSpline
210
0.0
220
0.0
230
1.0
 70
     8
 71
     3
 72
    10
 73
     6
 74
     0
 42
0.000000001
 43
0.00000001
 40
0.0
 40
0.0
 40
0.0
 40
0.0
 40
0.5
 40
0.5
 40
1.0
 40
1.0
 40
1.0
 40
1.0
 10
-269.5074913342506
 20
-605.0694018992705
 30
0.0
 10
-269.5431597412515
 20
-605.2576567862184
 30
0.0
 10
-269.6014060431038
 20
-605.4349203352875
 30
0.0
 10
-269.7657386667673
 20
-605.7679546696295
 30
0.0
 10
-269.8713442036536
 20
-605.9211809389822
 30
0.0
 10
-269.9967403121483
 20
-606.0556349186533
 30
0.0
  0
ARC
  5
1A8
330
1F
100
AcDbEntity
  8
0
  6
SLD-Сплошная
 62
     7
370
    35
100
AcDbCircle
 10
-272.2966528511
 20
-604.4971995771
 30
0.0
 40
2.847250860836428
100
AcDbArc
 50
348.4065112016
 51
33.0506550419
  0
SPLINE
  5
1A9
330
1F
100
AcDbEntity
  8
0
  6
SLD-Сплошная
 62
     7
370
    35
100
AcDbSpline
210
0.0
220
0.0
230
1.0
 70
     8
 71
     3
 72
    26
 73
    22
 74
     0
 42
0.000000001
 43
0.00000001
 40
0.0
 40
0.0
 40
0.0
 40
0.0
 40
0.0624999999999999
 40
0.0624999999999999
 40
0.1249999999999998
 40
0.1249999999999998
 40
0.2499999999999981
 40
0.2499999999999981
 40
0.3749999999999964
 40
0.3749999999999964
 40
0.4999999999999947
 40
0.4999999999999947
 40
0.624999999999993
 40
0.624999999999993
 40
0.7499999999999915
 40
0.7499999999999915
 40
0.8749999999999898
 40
0.8749999999999898
 40
0.9374999999999949
 40
0.9374999999999949
 40
1.0
 40
1.0
 40
1.0
 40
1.0
 10
-386.5646922124753
 20
-602.9443650814345
 30
0.0
 10
-386.5584292094894
 20
-603.0082540304358
 30
0.0
 10
-386.5564077817231
 20
-603.0755072605034
 30
0.0
 10
-386.5681424961274
 20
-603.2118992525782
 30
0.0
 10
-386.5809455022523
 20
-603.2820382014723
 30
0.0
 10
-386.6389979269897
 20
-603.4890631819301
 30
0.0
 10
-386.7038667137407
 20
-603.6230295470851
 30
0.0
 10
-386.8852913485435
 20
-603.8625613923429
 30
0.0
 10
-386.9994138316104
 20
-603.964377628269
 30
0.0
 10
-387.2623494942561
 20
-604.1072548025431
 30
0.0
 10
-387.4079909157476
 20
-604.146364421607
 30
0.0
 10
-387.7113595226784
 20
-604.1469441544689
 30
0.0
 10
-387.8644461405295
 20
-604.1086716805007
 30
0.0
 10
-388.1719684987351
 20
-603.9662862745037
 30
0.0
 10
-388.3220649093421
 20
-603.8649437949988
 30
0.0
 10
-388.6286112540174
 20
-603.6250608449001
 30
0.0
 10
-388.7805227562806
 20
-603.4903334105073
 30
0.0
 10
-389.0184899281139
 20
-603.2832232545233
 30
0.0
 10
-389.0994573179352
 20
-603.2130555089735
 30
0.0
 10
-389.2618632649693
 20
-603.0755157536356
 30
0.0
 10
-389.3440208517972
 20
-603.0079754672537
 30
0.0
 10
-389.4292129085136
 20
-602.9443638510045
 30
0.0
  0
ARC
  5
1AA
330
1F
100
AcDbEntity
  8
0
  6
SLD-Сплошная
 62
     7
370
    35
100
AcDbCircle
 10
-404.5256220578
 20
-604.4971999422
 30
0.0
 40
2.847252002793237
100
AcDbArc
 50
348.4063716761
 51
33.0506488549
  0
LINE
  5
1AB
330
1F
100
AcDbEntity
  8
0
  6
SLD-Сплошная
 62
     7
370
    35
100
AcDbLine
 10
-402.1390873603
 20
-602.9443650814
 30
0.0
 11
-403.8819805791
 21
-600.4795418536
 31
0.0
  0
ARC
  5
1AC
330
1F
100
AcDbEntity
  8
0
  6
SLD-Сплошная
 62
     7
370
    35
100
AcDbCircle
 10
-387.8844519607
 20
-599.8181551651
 30
0.0
 40
3.487043122189127
100
AcDbArc
 50
190.9335133477
 51
243.7045645422
  0
ARC
  5
1AD
330
1F
100
AcDbEntity
  8
0
  6
SLD-Сплошная
 62
     7
370
    35
100
AcDbCircle
 10
-276.2006956546
 20
-600.5735686698
 30
0.0
 40
8.279016381616124
100
AcDbArc
 50
275.5801962512
 51
318.5348819782
  0
LINE
  5
1AE
330
1F
100
AcDbEntity
  8
0
  6
SLD-Сплошная
 62
     7
370
    35
100
AcDbLine
 10
-400.5535534544
 20
-608.8133513653
 30
0.0
 11
-275.3956531843
 21
-608.8133513653
 31
0.0
  0
ARC
  5
1AF
330
1F
100
AcDbEntity
  8
0
  6
SLD-Сплошная
 62
     7
370
    35
100
AcDbCircle
 10
-270.9762358019
 20
-594.2616486348
 30
0.0
 40
0.8926785535678352
100
AcDbArc
 50
101.421753659
 51
188.0494669755
  0
ARC
  5
1B0
330
1F
100
AcDbEntity
  8
0
  6
SLD-Сплошная
 62
     7
370
    35
100
AcDbCircle
 10
-403.2052038838
 20
-594.2616486348
 30
0.0
 40
0.8926785535628914
100
AcDbArc
 50
101.4217536589
 51
188.0494669759
  0
SPLINE
  5
1B1
330
1F
100
AcDbEntity
  8
0
  6
SLD-Сплошная
 62
     7
370
    35
100
AcDbSpline
210
0.0
220
0.0
230
1.0
 70
     8
 71
     3
 72
     9
 73
     5
 74
     0
 42
0.000000001
 43
0.00000001
 40
0.0
 40
0.0
 40
0.0
 40
0.0
 40
0.220076224369942
 40
1.0
 40
1.0
 40
1.0
 40
1.0
 10
-404.7573098434451
 20
-593.3866486348068
 30
0.0
 10
-404.775925950642
 20
-593.429210207387
 30
0.0
 10
-404.8605153116707
 20
-593.6226048946231
 30
0.0
 10
-404.8919117985017
 20
-593.8484211048949
 30
0.0
 10
-404.9163986650523
 20
-594.0245405362084
 30
0.0
  0
SPLINE
  5
1B2
330
1F
100
AcDbEntity
  8
0
  6
SLD-Сплошная
 62
     7
370
    35
100
AcDbSpline
210
0.0
220
0.0
230
1.0
 70
     8
 71
     3
 72
     8
 73
     4
 74
     0
 42
0.000000001
 43
0.00000001
 40
0.0
 40
0.0
 40
0.0
 40
0.0
 40
1.0
 40
1.0
 40
1.0
 40
1.0
 10
-404.9323022157774
 20
-594.2049740747663
 30
0.0
 10
-404.9358423859665
 20
-594.2653942286984
 30
0.0
 10
-404.9376154977211
 20
-594.3260214081581
 30
0.0
 10
-404.9376154977211
 20
-594.386648634807
 30
0.0
  0
ARC
  5
1B3
330
1F
100
AcDbEntity
  8
0
  6
SLD-Сплошная
 62
     7
370
    35
100
AcDbCircle
 10
-401.8626761448
 20
-594.3846156303
 30
0.0
 40
3.074878095784453
100
AcDbArc
 50
173.2751064132
 51
176.6507397132
  0
ARC
  5
1B4
330
1F
100
AcDbEntity
  8
0
  6
SLD-Сплошная
 62
     7
370
    35
100
AcDbCircle
 10
-402.8521926817
 20
-599.7940404851
 30
0.0
 40
1.237083360243738
100
AcDbArc
 50
178.9992898311
 51
213.6506100471
  0
SPLINE
  5
1B5
330
1F
100
AcDbEntity
  8
0
  6
SLD-Сплошная
 62
     7
370
    35
100
AcDbSpline
210
0.0
220
0.0
230
1.0
 70
     8
 71
     3
 72
    16
 73
    12
 74
     0
 42
0.000000001
 43
0.00000001
 40
0.0
 40
0.0
 40
0.0
 40
0.0
 40
0.1250000000000047
 40
0.1250000000000047
 40
0.2500000000000093
 40
0.2500000000000093
 40
0.5000000000000062
 40
0.5000000000000062
 40
0.7500000000000031
 40
0.7500000000000031
 40
1.0
 40
1.0
 40
1.0
 40
1.0
 10
-390.0554019237449
 20
-599.7724350724338
 30
0.0
 10
-390.1219356603262
 20
-599.7781754586279
 30
0.0
 10
-390.1884570364989
 20
-599.7839187329552
 30
0.0
 10
-390.3204831038729
 20
-599.803695382749
 30
0.0
 10
-390.3859454874319
 20
-599.817930849876
 30
0.0
 10
-390.5799921822671
 20
-599.8707592625871
 30
0.0
 10
-390.7055538364844
 20
-599.9193131576362
 30
0.0
 10
-390.9347582891917
 20
-600.0428922310507
 30
0.0
 10
-391.0393254855646
 20
-600.1178233985376
 30
0.0
 10
-391.2113685303642
 20
-600.290271180818
 30
0.0
 10
-391.2756754351703
 20
-600.3870944968429
 30
0.0
 10
-391.3081980646348
 20
-600.4795418536203
 30
0.0
  0
SPLINE
  5
1B6
330
1F
100
AcDbEntity
  8
0
  6
SLD-Сплошная
 62
     7
370
    35
100
AcDbSpline
210
0.0
220
0.0
230
1.0
 70
     8
 71
     3
 72
    19
 73
    15
 74
     0
 42
0.000000001
 43
0.00000001
 40
0.3853654056179034
 40
0.3853654056179034
 40
0.3853654056179034
 40
0.3853654056179034
 40
0.421052631578927
 40
0.4736842105263021
 40
0.5263157894736996
 40
0.57894736842105
 40
0.6315789473684057
 40
0.6842105263157681
 40
0.7368421052631224
 40
0.7894736842104844
 40
0.8421052631578766
 40
0.894736842105269
 40
0.9473684210526248
 40
1.0
 40
1.0
 40
1.0
 40
1.0
 10
-404.7598525119665
 20
-600.7936783797883
 30
0.0
 10
-404.7665992733601
 20
-600.7754727659287
 30
0.0
 10
-404.7828496870281
 20
-600.7300865470178
 30
0.0
 10
-404.8069953139342
 20
-600.6564167211272
 30
0.0
 10
-404.8316089857418
 20
-600.5723803890216
 30
0.0
 10
-404.853745976396
 20
-600.4869773688317
 30
0.0
 10
-404.8733685502183
 20
-600.4003535637561
 30
0.0
 10
-404.890442849403
 20
-600.3126569708352
 30
0.0
 10
-404.9049409496669
 20
-600.2240374177652
 30
0.0
 10
-404.9168334267346
 20
-600.1346463096899
 30
0.0
 10
-404.9261173336951
 20
-600.0446363697846
 30
0.0
 10
-404.9327119789177
 20
-599.9541613785307
 30
0.0
 10
-404.9368480452995
 20
-599.8633759109307
 30
0.0
 10
-404.9373596802473
 20
-599.8027486852661
 30
0.0
 10
-404.9376154977211
 20
-599.7724350724338
 30
0.0
  0
LINE
  5
1B7
330
1F
100
AcDbEntity
  8
0
  6
SLD-Сплошная
 62
     7
370
    35
100
AcDbLine
 10
-390.0554019237
 20
-599.7724350724
 30
0.0
 11
-389.8385015494
 21
-599.7724350724
 31
0.0
  0
LINE
  5
1B8
330
1F
100
AcDbEntity
  8
0
  6
SLD-Сплошная
 62
     7
370
    35
100
AcDbLine
 10
-271.8601192784
 20
-594.3866486348
 30
0.0
 11
-271.8601192784
 21
-599.7724350724
 31
0.0
  0
LINE
  5
1B9
330
1F
100
AcDbEntity
  8
0
  6
SLD-Сплошная
 62
     7
370
    35
100
AcDbLine
 10
-404.0890873603
 20
-599.7724350724
 30
0.0
 11
-404.0890873603
 21
-594.3866486348
 31
0.0
  0
LINE
  5
1BA
330
1F
100
AcDbEntity
  8
0
  6
SLD-Сплошная
 62
     7
370
    35
100
AcDbLine
 10
-404.9376154977
 20
-599.7724350724
 30
0.0
 11
-404.9376154977
 21
-594.3866486348
 31
0.0
  0
LINE
  5
1BB
330
1F
100
AcDbEntity
  8
0
  6
SLD-Сплошная
 62
     7
370
    35
100
AcDbLine
 10
-387.1646922125
 20
-603.7928932189
 30
0.0
 11
-386.5646922125
 21
-602.9443650814
 31
0.0
  0
SPLINE
  5
1BC
330
1F
100
AcDbEntity
  8
0
  6
SLD-Сплошная
 62
     7
370
    35
100
AcDbSpline
210
0.0
220
0.0
230
1.0
 70
     8
 71
     3
 72
     9
 73
     5
 74
     0
 42
0.000000001
 43
0.00000001
 40
0.0
 40
0.0
 40
0.0
 40
0.0
 40
0.2088673298123177
 40
1.0
 40
1.0
 40
1.0
 40
1.0
 10
-387.4957321386725
 20
-604.0773139883399
 30
0.0
 10
-387.4621021534628
 20
-604.0650446426677
 30
0.0
 10
-387.3010909257137
 20
-604.0063023506904
 30
0.0
 10
-387.2249387145968
 20
-603.8871547658218
 30
0.0
 10
-387.1646922124754
 20
-603.7928932188584
 30
0.0
  0
ARC
  5
1BD
330
1F
100
AcDbEntity
  8
0
  6
SLD-Сплошная
 62
     7
370
    35
100
AcDbCircle
 10
-389.5618453788
 20
-603.1420446962
 30
0.0
 40
3.003665149844441
100
AcDbArc
 50
3.7735231058
 51
62.4265286421
  0
LINE
  5
1BE
330
1F
100
AcDbEntity
  8
0
  6
SLD-Сплошная
 62
     7
370
    35
100
AcDbLine
 10
-388.7714918461
 20
-601.3280699911
 30
0.0
 11
-388.1714918461
 21
-600.4795418536
 31
0.0
  0
ARC
  5
1BF
330
1F
100
AcDbEntity
  8
0
  6
SLD-Сплошная
 62
     7
370
    35
100
AcDbCircle
 10
-390.1618453788
 20
-603.9905728336
 30
0.0
 40
3.003665149844441
100
AcDbArc
 50
3.7735231058
 51
62.4265286421
  0
LINE
  5
1C0
330
1F
100
AcDbEntity
  8
0
  6
SLD-Сплошная
 62
     7
370
    35
100
AcDbLine
 10
-271.6530124972
 20
-600.4795418536
 30
0.0
 11
-269.9101192784
 21
-602.9443650814
 31
0.0
  0
SPLINE
  5
1C1
330
1F
100
AcDbEntity
  8
0
  6
SLD-Сплошная
 62
     7
370
    35
100
AcDbSpline
210
0.0
220
0.0
230
1.0
 70
     8
 71
     3
 72
    10
 73
     6
 74
     0
 42
0.000000001
 43
0.00000001
 40
0.0
 40
0.0
 40
0.0
 40
0.0
 40
0.2565560513089946
 40
0.5898555227488769
 40
1.0
 40
1.0
 40
1.0
 40
1.0
 10
-389.0663649048716
 20
-601.0588433439386
 30
0.0
 10
-389.0418705165945
 20
-601.0828031536422
 30
0.0
 10
-388.985554751958
 20
-601.1378898530419
 30
0.0
 10
-388.8882744454861
 20
-601.2291042090648
 30
0.0
 10
-388.8130124934285
 20
-601.2928838986711
 30
0.0
 10
-388.7714918461249
 20
-601.3280699910441
 30
0.0
  0
SPLINE
  5
1C2
330
1F
100
AcDbEntity
  8
0
  6
SLD-Сплошная
 62
     7
370
    35
100
AcDbSpline
210
0.0
220
0.0
230
1.0
 70
     8
 71
     3
 72
    16
 73
    12
 74
     0
 42
0.000000001
 43
0.00000001
 40
0.0
 40
0.0
 40
0.0
 40
0.0
 40
0.1249999999999942
 40
0.1249999999999942
 40
0.2499999999999885
 40
0.2499999999999885
 40
0.499999999999992
 40
0.499999999999992
 40
0.749999999999996
 40
0.749999999999996
 40
1.0
 40
1.0
 40
1.0
 40
1.0
 10
-388.1714918461249
 20
-600.4795418536203
 30
0.0
 10
-388.2530725267986
 20
-600.4348446726732
 30
0.0
 10
-388.3308593920462
 20
-600.38608603476
 30
0.0
 10
-388.4818033100512
 20
-600.2934595511267
 30
0.0
 10
-388.5551076415616
 20
-600.2488425318182
 30
0.0
 10
-388.7713669287679
 20
-600.1197512899
 30
0.0
 10
-388.9086085894032
 20
-600.0432449430205
 30
0.0
 10
-389.1759155127421
 20
-599.9193050229889
 30
0.0
 10
-389.30758059478
 20
-599.8705327328216
 30
0.0
 10
-389.572919338679
 20
-599.8007635409796
 30
0.0
 10
-389.7051333637262
 20
-599.7806439681498
 30
0.0
 10
-389.8385015493872
 20
-599.7724350724338
 30
0.0
  0
SPLINE
  5
1C3
330
1F
100
AcDbEntity
  8
0
  6
SLD-Сплошная
 62
     7
370
    35
100
AcDbSpline
210
0.0
220
0.0
230
1.0
 70
     8
 71
     3
 72
     9
 73
     5
 74
     0
 42
0.000000001
 43
0.00000001
 40
0.0
 40
0.0
 40
0.0
 40
0.0
 40
0.5441314721405478
 40
1.0
 40
1.0
 40
1.0
 40
1.0
 10
-389.3346653222289
 20
-600.7860571273652
 30
0.0
 10
-389.5016200246846
 20
-600.602186403529
 30
0.0
 10
-389.8084478981008
 20
-600.2642704158491
 30
0.0
 10
-390.1111608423494
 20
-600.0391795838518
 30
0.0
 10
-390.2491581466081
 20
-599.9365677576345
 30
0.0
  0
SPLINE
  5
1C4
330
1F
100
AcDbEntity
  8
0
  6
SLD-Сплошная
 62
     7
370
    35
100
AcDbSpline
210
0.0
220
0.0
230
1.0
 70
     8
 71
     3
 72
     8
 73
     4
 74
     0
 42
0.000000001
 43
0.00000001
 40
0.0
 40
0.0
 40
0.0
 40
0.0
 40
1.0
 40
1.0
 40
1.0
 40
1.0
 10
-389.0663649048716
 20
-601.0588433439387
 30
0.0
 10
-389.1580351050898
 20
-600.9689537523279
 30
0.0
 10
-389.2471626200227
 20
-600.8777662796363
 30
0.0
 10
-389.3346653222289
 20
-600.7860571273652
 30
0.0
  0
ARC
  5
1C5
330
1F
100
AcDbEntity
  8
0
  6
SLD-Сплошная
 62
     7
370
    35
100
AcDbCircle
 10
-270.6232245997
 20
-599.7940404852
 30
0.0
 40
1.237083360187529
100
AcDbArc
 50
178.9992898276
 51
213.6506100451
  0
LINE
  5
1C6
330
1F
100
AcDbEntity
  8
0
  6
SLD-Сплошная
 62
     7
370
    35
100
AcDbLine
 10
416.5634812842
 20
-593.3866486348
 30
0.0
 11
416.5634812842
 21
-592.1866486348
 31
0.0
  0
SPLINE
  5
1C7
330
1F
100
AcDbEntity
  8
0
  6
SLD-Сплошная
 62
     7
370
    35
100
AcDbSpline
210
0.0
220
0.0
230
1.0
 70
     8
 71
     3
 72
    10
 73
     6
 74
     0
 42
0.000000001
 43
0.00000001
 40
0.0
 40
0.0
 40
0.0
 40
0.0
 40
0.5
 40
0.5
 40
1.0
 40
1.0
 40
1.0
 40
1.0
 10
-181.8788022691442
 20
-606.0556349186519
 30
0.0
 10
-181.7443688600414
 20
-605.9212015095492
 30
0.0
 10
-181.6284514601928
 20
-605.7709888239181
 30
0.0
 10
-181.4352926671144
 20
-605.4383060397583
 30
0.0
 10
-181.3598510077586
 20
-605.2576862429762
 30
0.0
 10
-181.3094003699152
 20
-605.0694018992702
 30
0.0
  0
SPLINE
  5
1C8
330
1F
100
AcDbEntity
  8
0
  6
SLD-Сплошная
 62
     7
370
    35
100
AcDbSpline
210
0.0
220
0.0
230
1.0
 70
     8
 71
     3
 72
    14
 73
    10
 74
     0
 42
0.000000001
 43
0.00000001
 40
0.0
 40
0.0
 40
0.0
 40
0.0
 40
0.25
 40
0.25
 40
0.5
 40
0.5
 40
0.75
 40
0.75
 40
1.0
 40
1.0
 40
1.0
 40
1.0
 10
-182.7273304065649
 20
-603.7928932188587
 30
0.0
 10
-182.6334497978409
 20
-603.8867738275827
 30
0.0
 10
-182.5598851811416
 20
-603.9975083311484
 30
0.0
 10
-182.4596174311593
 20
-604.2410298632852
 30
0.0
 10
-182.4339697182051
 20
-604.3727725365262
 30
0.0
 10
-182.4349177811598
 20
-604.6344728260755
 30
0.0
 10
-182.4618109857073
 20
-604.7661355104665
 30
0.0
 10
-182.5619159689779
 20
-605.005506242934
 30
0.0
 10
-182.6357621068315
 20
-605.1155384814981
 30
0.0
 10
-182.7273304065639
 20
-605.2071067812307
 30
0.0
  0
LINE
  5
1C9
330
1F
100
AcDbEntity
  8
0
  6
SLD-Сплошная
 62
     7
370
    35
100
AcDbLine
 10
-182.7273304066
 20
-605.2071067812
 30
0.0
 11
-185.4850468532
 21
-607.9648232279
 31
0.0
  0
LINE
  5
1CA
330
1F
100
AcDbEntity
  8
0
  6
SLD-Сплошная
 62
     7
370
    35
100
AcDbLine
 10
-185.4850468532
 20
-607.9648232279
 30
0.0
 11
-184.6365187158
 21
-608.8133513653
 31
0.0
  0
LINE
  5
1CB
330
1F
100
AcDbEntity
  8
0
  6
SLD-Сплошная
 62
     7
370
    35
100
AcDbLine
 10
-184.6365187158
 20
-608.8133513653
 30
0.0
 11
-181.8788022691
 21
-606.0556349187
 31
0.0
  0
LINE
  5
1CC
330
1F
100
AcDbEntity
  8
0
  6
SLD-Сплошная
 62
     7
370
    35
100
AcDbLine
 10
417.0057648376
 20
-606.0556349187
 30
0.0
 11
419.7634812842
 21
-608.8133513653
 31
0.0
  0
LINE
  5
1CD
330
1F
100
AcDbEntity
  8
0
  6
SLD-Сплошная
 62
     7
370
    35
100
AcDbLine
 10
419.7634812842
 20
-608.8133513653
 30
0.0
 11
420.6120094217
 21
-607.9648232279
 31
0.0
  0
LINE
  5
1CE
330
1F
100
AcDbEntity
  8
0
  6
SLD-Сплошная
 62
     7
370
    35
100
AcDbLine
 10
420.6120094217
 20
-607.9648232279
 30
0.0
 11
417.8542929749
 21
-605.2071067813
 31
0.0
  0
SPLINE
  5
1CF
330
1F
100
AcDbEntity
  8
0
  6
SLD-Сплошная
 62
     7
370
    35
100
AcDbSpline
210
0.0
220
0.0
230
1.0
 70
     8
 71
     3
 72
    14
 73
    10
 74
     0
 42
0.000000001
 43
0.00000001
 40
0.0
 40
0.0
 40
0.0
 40
0.0
 40
0.25
 40
0.25
 40
0.5
 40
0.5
 40
0.75
 40
0.75
 40
1.0
 40
1.0
 40
1.0
 40
1.0
 10
417.8542929749441
 20
-605.2071067813157
 30
0.0
 10
417.7627364400058
 20
-605.1155502463774
 30
0.0
 10
417.6896396553749
 20
-605.0070192271942
 30
0.0
 10
417.588711062057
 20
-604.7662909581599
 30
0.0
 10
417.561985255282
 20
-604.6352914196689
 30
0.0
 10
417.5608336099269
 20
-604.3735069180153
 30
0.0
 10
417.5866424102192
 20
-604.2411906674556
 30
0.0
 10
417.6860966184957
 20
-603.9990223844704
 30
0.0
 10
417.7604118337192
 20
-603.886774360167
 30
0.0
 10
417.8542929750278
 20
-603.7928932188584
 30
0.0
  0
LINE
  5
1D0
330
1F
100
AcDbEntity
  8
0
  6
SLD-Сплошная
 62
     7
370
    35
100
AcDbLine
 10
417.854292975
 20
-603.7928932189
 30
0.0
 11
420.3191162028
 21
-601.328069991
 31
0.0
  0
SPLINE
  5
1D1
330
1F
100
AcDbEntity
  8
0
  6
SLD-Сплошная
 62
     7
370
    35
100
AcDbSpline
210
0.0
220
0.0
230
1.0
 70
     8
 71
     3
 72
     8
 73
     4
 74
     0
 42
0.000000001
 43
0.00000001
 40
0.0
 40
0.0
 40
0.0
 40
0.0
 40
1.0
 40
1.0
 40
1.0
 40
1.0
 10
420.3191162027894
 20
-601.3280699909917
 30
0.0
 10
420.4772712963297
 20
-601.1699148974515
 30
0.0
 10
420.6082607830773
 20
-600.9917851730478
 30
0.0
 10
420.712086449497
 20
-600.7936783881529
 30
0.0
  0
SPLINE
  5
1D2
330
1F
100
AcDbEntity
  8
0
  6
SLD-Сплошная
 62
     7
370
    35
100
AcDbSpline
210
0.0
220
0.0
230
1.0
 70
     8
 71
     3
 72
    10
 73
     6
 74
     0
 42
0.000000001
 43
0.00000001
 40
0.0
 40
0.0
 40
0.0
 40
0.0
 40
0.5
 40
0.5
 40
1.0
 40
1.0
 40
1.0
 40
1.0
 10
416.4363629383785
 20
-605.0694018992702
 30
0.0
 10
416.4868056833075
 20
-605.2576567862184
 30
0.0
 10
416.5606681780554
 20
-605.4349203352876
 30
0.0
 10
416.753280889278
 20
-605.7679546696297
 30
0.0
 10
416.871310857949
 20
-605.9211809390033
 30
0.0
 10
417.0057648376214
 20
-606.0556349186726
 30
0.0
  0
ARC
  5
1D3
330
1F
100
AcDbEntity
  8
0
  6
SLD-Сплошная
 62
     7
370
    35
100
AcDbCircle
 10
-183.4344371878
 20
-604.5
 30
0.0
 40
2.200000000000006
100
AcDbArc
 50
345.0
 51
45.0
  0
LINE
  5
1D4
330
1F
100
AcDbEntity
  8
0
  6
SLD-Сплошная
 62
     7
370
    35
100
AcDbLine
 10
-185.1921536344
 20
-601.328069991
 30
0.0
 11
-182.7273304066
 21
-603.7928932189
 31
0.0
  0
LINE
  5
1D5
330
1F
100
AcDbEntity
  8
0
  6
SLD-Сплошная
 62
     7
370
    35
100
AcDbLine
 10
-184.343625497
 20
-600.4795418536
 30
0.0
 11
-181.8788022691
 21
-602.9443650814
 31
0.0
  0
LINE
  5
1D6
330
1F
100
AcDbEntity
  8
0
  6
SLD-Сплошная
 62
     7
370
    35
100
AcDbLine
 10
418.7634812842
 20
-593.3866486348
 30
0.0
 11
416.5634812842
 21
-593.3866486348
 31
0.0
  0
LINE
  5
1D7
330
1F
100
AcDbEntity
  8
0
  6
SLD-Сплошная
 62
     7
370
    35
100
AcDbLine
 10
418.7634812842
 20
-592.1866486348
 30
0.0
 11
416.5634812842
 21
-592.1866486348
 31
0.0
  0
ARC
  5
1D8
330
1F
100
AcDbEntity
  8
0
  6
SLD-Сплошная
 62
     7
370
    35
100
AcDbCircle
 10
-183.6365187158
 20
-599.7724350724
 30
0.0
 40
1.00000000000035
100
AcDbArc
 50
180.0
 51
225.0
  0
ARC
  5
1D9
330
1F
100
AcDbEntity
  8
0
  6
SLD-Сплошная
 62
     7
370
    35
100
AcDbCircle
 10
-183.6365187158
 20
-599.7724350724
 30
0.0
 40
2.199999999999989
100
AcDbArc
 50
180.0
 51
225.0
  0
LINE
  5
1DA
330
1F
100
AcDbEntity
  8
0
  6
SLD-Сплошная
 62
     7
370
    35
100
AcDbLine
 10
-184.6365187158
 20
-594.3866486348
 30
0.0
 11
-184.6365187158
 21
-599.7724350724
 31
0.0
  0
LINE
  5
1DB
330
1F
100
AcDbEntity
  8
0
  6
SLD-Сплошная
 62
     7
370
    35
100
AcDbLine
 10
-185.8365187158
 20
-594.3866486348
 30
0.0
 11
-185.8365187158
 21
-599.7724350724
 31
0.0
  0
ARC
  5
1DC
330
1F
100
AcDbEntity
  8
0
  6
SLD-Сплошная
 62
     7
370
    35
100
AcDbCircle
 10
418.5613997562
 20
-604.5
 30
0.0
 40
2.200000000074627
100
AcDbArc
 50
135.0
 51
195.0
  0
LINE
  5
1DD
330
1F
100
AcDbEntity
  8
0
  6
SLD-Сплошная
 62
     7
370
    35
100
AcDbLine
 10
419.4705880654
 20
-600.4795418536
 30
0.0
 11
417.0057648376
 21
-602.9443650814
 31
0.0
  0
ARC
  5
1DE
330
1F
100
AcDbEntity
  8
0
  6
SLD-Сплошная
 62
     7
370
    35
100
AcDbCircle
 10
-183.6365187158
 20
-594.3866486348
 30
0.0
 40
1.000000000000028
100
AcDbArc
 50
90.0
 51
180.0
  0
ARC
  5
1DF
330
1F
100
AcDbEntity
  8
0
  6
SLD-Сплошная
 62
     7
370
    35
100
AcDbCircle
 10
-183.6365187158
 20
-594.3866486348
 30
0.0
 40
2.200000000000005
100
AcDbArc
 50
152.9643082105
 51
180.0
  0
ARC
  5
1E0
330
1F
100
AcDbEntity
  8
0
  6
SLD-Сплошная
 62
     7
370
    35
100
AcDbCircle
 10
418.7634812842
 20
-599.7724350724
 30
0.0
 40
1.000000000000114
100
AcDbArc
 50
315.0
 51
360.0
  0
ARC
  5
1E1
330
1F
100
AcDbEntity
  8
0
  6
SLD-Сплошная
 62
     7
370
    35
100
AcDbCircle
 10
418.7634812842
 20
-599.7724350724
 30
0.0
 40
2.200000000000026
100
AcDbArc
 50
332.3414428027
 51
360.0
  0
LINE
  5
1E2
330
1F
100
AcDbEntity
  8
0
  6
SLD-Сплошная
 62
     7
370
    35
100
AcDbLine
 10
420.9634812842
 20
-594.3866486348
 30
0.0
 11
420.9634812842
 21
-599.7724350724
 31
0.0
  0
LINE
  5
1E3
330
1F
100
AcDbEntity
  8
0
  6
SLD-Сплошная
 62
     7
370
    35
100
AcDbLine
 10
419.7634812842
 20
-594.3866486348
 30
0.0
 11
419.7634812842
 21
-599.7724350724
 31
0.0
  0
ARC
  5
1E4
330
1F
100
AcDbEntity
  8
0
  6
SLD-Сплошная
 62
     7
370
    35
100
AcDbCircle
 10
418.7634812842
 20
-594.3866486348
 30
0.0
 40
1.0
100
AcDbArc
 50
360.0
 51
90.0
  0
ARC
  5
1E5
330
1F
100
AcDbEntity
  8
0
  6
SLD-Сплошная
 62
     7
370
    35
100
AcDbCircle
 10
418.7634812842
 20
-594.3866486348
 30
0.0
 40
2.200000000000045
100
AcDbArc
 50
0.0
 51
90.0
  0
LINE
  5
1E6
330
1F
100
AcDbEntity
  8
0
  6
SLD-Сплошная
 62
     7
370
    35
100
AcDbLine
 10
124.5634812842
 20
-591.1866486347
 30
0.0
 11
110.5634812842
 21
-591.1866486347
 31
0.0
  0
ENDSEC
  0
SECTION
  2
OBJECTS
  0
DICTIONARY
  5
C
330
0
100
AcDbDictionary
281
     1
  3
ACAD_DETAILVIEWSTYLE
350
1EE
  3
ACAD_GROUP
350
D
  3
ACAD_LAYOUT
350
1A
  3
ACAD_MATERIAL
350
43
  3
ACAD_MLEADERSTYLE
350
6B
  3
ACAD_MLINESTYLE
350
17
  3
ACAD_PLOTSETTINGS
350
19
  3
ACAD_PLOTSTYLENAME
350
E
  3
ACAD_SCALELIST
350
47
  3
ACAD_SECTIONVIEWSTYLE
350
1EF
  3
ACAD_TABLESTYLE
350
69
  3
ACAD_VISUALSTYLE
350
2A
  3
ACDB_RECOMPOSE_DATA
350
1EB
  3
AcDbVariableDictionary
350
1E7
  0
SUN
  5
6D
330
29
100
AcDbSun
 90
        1
290
     0
 63
     7
421
 16777215
 40
1.0
291
     1
 91
  2455826
 92
 54000000
292
     0
 70
     2
 71
   256
280
     1
  0
DICTIONARY
  5
1EE
102
{ACAD_REACTORS
330
C
102
}
330
C
100
AcDbDictionary
281
     1
  0
DICTIONARY
  5
D
102
{ACAD_REACTORS
330
C
102
}
330
C
100
AcDbDictionary
281
     1
  0
DICTIONARY
  5
1A
102
{ACAD_REACTORS
330
C
102
}
330
C
100
AcDbDictionary
281
     1
  3
Layout1
350
1E
  3
Layout2
350
26
  3
Model
350
22
  0
DICTIONARY
  5
43
102
{ACAD_REACTORS
330
C
102
}
330
C
100
AcDbDictionary
281
     1
  3
ByBlock
350
45
  3
ByLayer
350
44
  3
Global
350
46
  0
DICTIONARY
  5
6B
102
{ACAD_REACTORS
330
C
102
}
330
C
100
AcDbDictionary
281
     1
  3
Standard
350
6C
  0
DICTIONARY
  5
17
102
{ACAD_REACTORS
330
C
102
}
330
C
100
AcDbDictionary
281
     1
  3
Standard
350
18
  0
DICTIONARY
  5
19
102
{ACAD_REACTORS
330
C
102
}
330
C
100
AcDbDictionary
281
     1
  0
ACDBDICTIONARYWDFLT
  5
E
102
{ACAD_REACTORS
330
C
102
}
330
C
100
AcDbDictionary
281
     1
  3
Normal
350
F
100
AcDbDictionaryWithDefault
340
F
  0
DICTIONARY
  5
47
102
{ACAD_REACTORS
330
C
102
}
330
C
100
AcDbDictionary
281
     1
  3
A0
350
48
  3
A1
350
49
  3
A2
350
4A
  3
A3
350
4B
  3
A4
350
4C
  3
A5
350
4D
  3
A6
350
4E
  3
A7
350
4F
  3
A8
350
50
  3
A9
350
51
  3
B0
350
52
  3
B1
350
53
  3
B2
350
54
  3
B3
350
55
  3
B4
350
56
  3
B5
350
57
  3
B6
350
58
  3
B7
350
59
  3
B8
350
5A
  3
B9
350
5B
  3
C0
350
5C
  3
C1
350
5D
  3
C2
350
5E
  3
C3
350
5F
  3
C4
350
60
  3
C5
350
61
  3
C6
350
62
  3
C7
350
63
  3
C8
350
64
  3
C9
350
65
  3
D0
350
66
  3
D1
350
67
  3
D2
350
68
  0
DICTIONARY
  5
1EF
102
{ACAD_REACTORS
330
C
102
}
330
C
100
AcDbDictionary
281
     1
  0
DICTIONARY
  5
69
102
{ACAD_REACTORS
330
C
102
}
330
C
100
AcDbDictionary
281
     1
  3
Standard
350
6A
  0
DICTIONARY
  5
2A
102
{ACAD_REACTORS
330
C
102
}
330
C
100
AcDbDictionary
281
     1
  3
2dWireframe
350
2F
  3
Basic
350
32
  3
Brighten
350
36
  3
ColorChange
350
3A
  3
Conceptual
350
34
  3
Dim
350
35
  3
EdgeColorOff
350
3D
  3
Facepattern
350
39
  3
Flat
350
2B
  3
FlatWithEdges
350
2C
  3
Gouraud
350
2D
  3
GouraudWithEdges
350
2E
  3
Hidden
350
31
  3
JitterOff
350
3B
  3
Linepattern
350
38
  3
OverhangOff
350
3C
  3
Realistic
350
33
  3
Shaded
350
42
  3
Shaded with edges
350
41
  3
Shades of Gray
350
3E
  3
Sketchy
350
3F
  3
Thicken
350
37
  3
Wireframe
350
30
  3
X-Ray
350
40
  0
XRECORD
  5
1EB
102
{ACAD_REACTORS
330
C
102
}
330
C
100
AcDbXrecord
280
     1
 90
        1
330
6A
  0
DICTIONARY
  5
1E7
102
{ACAD_REACTORS
330
C
102
}
330
C
100
AcDbDictionary
281
     1
  3
CANNOSCALE
350
1E8
  3
CMLEADERSTYLE
350
1ED
  3
CTABLESTYLE
350
1EC
  0
LAYOUT
  5
1E
102
{ACAD_REACTORS
330
1A
102
}
330
1A
100
AcDbPlotSettings
  1

  2
none_device
  4

  6

 40
0.0
 41
0.0
 42
0.0
 43
0.0
 44
0.0
 45
0.0
 46
0.0
 47
0.0
 48
0.0
 49
0.0
140
0.0
141
0.0
142
1.0
143
1.0
 70
   688
 72
     1
 73
     0
 74
     5
  7

 75
    16
 76
     0
 77
     2
 78
   300
147
1.0
148
0.0
149
0.0
100
AcDbLayout
  1
Layout1
 70
     1
 71
     1
 10
0.0
 20
0.0
 11
420.0
 21
297.0
 12
0.0
 22
0.0
 32
0.0
 14
1.0000000000E+20
 24
1.0000000000E+20
 34
1.0000000000E+20
 15
-1.0000000000E+20
 25
-1.0000000000E+20
 35
-1.0000000000E+20
146
0.0
 13
0.0
 23
0.0
 33
0.0
 16
1.0
 26
0.0
 36
0.0
 17
0.0
 27
1.0
 37
0.0
 76
     0
330
1B
  0
LAYOUT
  5
26
102
{ACAD_REACTORS
330
1A
102
}
330
1A
100
AcDbPlotSettings
  1

  2
none_device
  4

  6

 40
0.0
 41
0.0
 42
0.0
 43
0.0
 44
0.0
 45
0.0
 46
0.0
 47
0.0
 48
0.0
 49
0.0
140
0.0
141
0.0
142
1.0
143
1.0
 70
   688
 72
     1
 73
     0
 74
     5
  7

 75
    16
 76
     0
 77
     2
 78
   300
147
1.0
148
0.0
149
0.0
100
AcDbLayout
  1
Layout2
 70
     1
 71
     2
 10
0.0
 20
0.0
 11
0.0
 21
0.0
 12
0.0
 22
0.0
 32
0.0
 14
0.0
 24
0.0
 34
0.0
 15
0.0
 25
0.0
 35
0.0
146
0.0
 13
0.0
 23
0.0
 33
0.0
 16
1.0
 26
0.0
 36
0.0
 17
0.0
 27
1.0
 37
0.0
 76
     0
330
23
  0
LAYOUT
  5
22
102
{ACAD_REACTORS
330
1A
102
}
330
1A
100
AcDbPlotSettings
  1

  2
none_device
  4
Letter_(8.50_x_11.00_Inches)
  6

 40
6.35
 41
6.35
 42
6.35000508
 43
6.35000508
 44
215.9
 45
279.4
 46
0.0
 47
0.0
 48
0.0
 49
0.0
140
0.0
141
0.0
142
1.0
143
1.0
 70
  1712
 72
     1
 73
     0
 74
     0
  7

 75
     0
 76
     0
 77
     2
 78
   300
147
1.0
148
0.0
149
0.0
100
AcDbLayout
  1
Model
 70
     1
 71
     0
 10
0.0
 20
0.0
 11
1420.0
 21
1297.0
 12
0.0
 22
0.0
 32
0.0
 14
0.0
 24
0.0
 34
0.0
 15
1420.0
 25
1297.0
 35
0.0
146
0.0
 13
0.0
 23
0.0
 33
0.0
 16
1.0
 26
0.0
 36
0.0
 17
0.0
 27
1.0
 37
0.0
 76
     0
330
1F
331
29
  0
MATERIAL
  5
45
102
{ACAD_REACTORS
330
43
102
}
330
43
100
AcDbMaterial
  1
ByBlock
 72
     1
 94
      127
  0
MATERIAL
  5
44
102
{ACAD_REACTORS
330
43
102
}
330
43
100
AcDbMaterial
  1
ByLayer
 72
     1
 94
      127
  0
MATERIAL
  5
46
102
{ACAD_REACTORS
330
43
102
}
330
43
100
AcDbMaterial
  1
Global
 72
     1
 94
      127
  0
MLEADERSTYLE
  5
6C
102
{ACAD_REACTORS
330
6B
102
}
330
6B
100
AcDbMLeaderStyle
179
     2
170
     2
171
     1
172
     0
 90
        2
 40
0.0
 41
0.0
173
     1
 91
-1056964608
340
14
 92
       -2
290
     1
 42
2.0
291
     1
 43
8.0
  3
Standard
341
0
 44
4.0
300

342
11
174
     1
178
     6
175
     1
176
     0
 93
-1056964608
 45
4.0
292
     0
297
     0
 46
4.0
343
0
 94
-1056964608
 47
1.0
 49
1.0
140
1.0
293
     1
141
0.0
294
     1
177
     0
142
1.0
295
     0
296
     0
143
3.75
271
     0
272
     9
273
     9
298
     0
  0
MLINESTYLE
  5
18
102
{ACAD_REACTORS
330
17
102
}
330
17
100
AcDbMlineStyle
  2
Standard
 70
     0
  3

 62
   256
 51
90.0
 52
90.0
 71
     2
 49
0.5
 62
   256
  6
BYLAYER
 49
-0.5
 62
   256
  6
BYLAYER
  0
ACDBPLACEHOLDER
  5
F
102
{ACAD_REACTORS
330
E
102
}
330
E
  0
SCALE
  5
48
102
{ACAD_REACTORS
330
47
102
}
330
47
100
AcDbScale
 70
     0
300
1:1
140
1.0
141
1.0
290
     1
  0
SCALE
  5
49
102
{ACAD_REACTORS
330
47
102
}
330
47
100
AcDbScale
 70
     0
300
1:2
140
1.0
141
2.0
290
     0
  0
SCALE
  5
4A
102
{ACAD_REACTORS
330
47
102
}
330
47
100
AcDbScale
 70
     0
300
1:4
140
1.0
141
4.0
290
     0
  0
SCALE
  5
4B
102
{ACAD_REACTORS
330
47
102
}
330
47
100
AcDbScale
 70
     0
300
1:5
140
1.0
141
5.0
290
     0
  0
SCALE
  5
4C
102
{ACAD_REACTORS
330
47
102
}
330
47
100
AcDbScale
 70
     0
300
1:8
140
1.0
141
8.0
290
     0
  0
SCALE
  5
4D
102
{ACAD_REACTORS
330
47
102
}
330
47
100
AcDbScale
 70
     0
300
1:10
140
1.0
141
10.0
290
     0
  0
SCALE
  5
4E
102
{ACAD_REACTORS
330
47
102
}
330
47
100
AcDbScale
 70
     0
300
1:16
140
1.0
141
16.0
290
     0
  0
SCALE
  5
4F
102
{ACAD_REACTORS
330
47
102
}
330
47
100
AcDbScale
 70
     0
300
1:20
140
1.0
141
20.0
290
     0
  0
SCALE
  5
50
102
{ACAD_REACTORS
330
47
102
}
330
47
100
AcDbScale
 70
     0
300
1:30
140
1.0
141
30.0
290
     0
  0
SCALE
  5
51
102
{ACAD_REACTORS
330
47
102
}
330
47
100
AcDbScale
 70
     0
300
1:40
140
1.0
141
40.0
290
     0
  0
SCALE
  5
52
102
{ACAD_REACTORS
330
47
102
}
330
47
100
AcDbScale
 70
     0
300
1:50
140
1.0
141
50.0
290
     0
  0
SCALE
  5
53
102
{ACAD_REACTORS
330
47
102
}
330
47
100
AcDbScale
 70
     0
300
1:100
140
1.0
141
100.0
290
     0
  0
SCALE
  5
54
102
{ACAD_REACTORS
330
47
102
}
330
47
100
AcDbScale
 70
     0
300
2:1
140
2.0
141
1.0
290
     0
  0
SCALE
  5
55
102
{ACAD_REACTORS
330
47
102
}
330
47
100
AcDbScale
 70
     0
300
4:1
140
4.0
141
1.0
290
     0
  0
SCALE
  5
56
102
{ACAD_REACTORS
330
47
102
}
330
47
100
AcDbScale
 70
     0
300
8:1
140
8.0
141
1.0
290
     0
  0
SCALE
  5
57
102
{ACAD_REACTORS
330
47
102
}
330
47
100
AcDbScale
 70
     0
300
10:1
140
10.0
141
1.0
290
     0
  0
SCALE
  5
58
102
{ACAD_REACTORS
330
47
102
}
330
47
100
AcDbScale
 70
     0
300
100:1
140
100.0
141
1.0
290
     0
  0
SCALE
  5
59
102
{ACAD_REACTORS
330
47
102
}
330
47
100
AcDbScale
 70
     0
300
1/128" = 1'-0"
140
0.0078125
141
12.0
290
     0
  0
SCALE
  5
5A
102
{ACAD_REACTORS
330
47
102
}
330
47
100
AcDbScale
 70
     0
300
1/64" = 1'-0"
140
0.015625
141
12.0
290
     0
  0
SCALE
  5
5B
102
{ACAD_REACTORS
330
47
102
}
330
47
100
AcDbScale
 70
     0
300
1/32" = 1'-0"
140
0.03125
141
12.0
290
     0
  0
SCALE
  5
5C
102
{ACAD_REACTORS
330
47
102
}
330
47
100
AcDbScale
 70
     0
300
1/16" = 1'-0"
140
0.0625
141
12.0
290
     0
  0
SCALE
  5
5D
102
{ACAD_REACTORS
330
47
102
}
330
47
100
AcDbScale
 70
     0
300
3/32" = 1'-0"
140
0.09375
141
12.0
290
     0
  0
SCALE
  5
5E
102
{ACAD_REACTORS
330
47
102
}
330
47
100
AcDbScale
 70
     0
300
1/8" = 1'-0"
140
0.125
141
12.0
290
     0
  0
SCALE
  5
5F
102
{ACAD_REACTORS
330
47
102
}
330
47
100
AcDbScale
 70
     0
300
3/16" = 1'-0"
140
0.1875
141
12.0
290
     0
  0
SCALE
  5
60
102
{ACAD_REACTORS
330
47
102
}
330
47
100
AcDbScale
 70
     0
300
1/4" = 1'-0"
140
0.25
141
12.0
290
     0
  0
SCALE
  5
61
102
{ACAD_REACTORS
330
47
102
}
330
47
100
AcDbScale
 70
     0
300
3/8" = 1'-0"
140
0.375
141
12.0
290
     0
  0
SCALE
  5
62
102
{ACAD_REACTORS
330
47
102
}
330
47
100
AcDbScale
 70
     0
300
1/2" = 1'-0"
140
0.5
141
12.0
290
     0
  0
SCALE
  5
63
102
{ACAD_REACTORS
330
47
102
}
330
47
100
AcDbScale
 70
     0
300
3/4" = 1'-0"
140
0.75
141
12.0
290
     0
  0
SCALE
  5
64
102
{ACAD_REACTORS
330
47
102
}
330
47
100
AcDbScale
 70
     0
300
1" = 1'-0"
140
1.0
141
12.0
290
     0
  0
SCALE
  5
65
102
{ACAD_REACTORS
330
47
102
}
330
47
100
AcDbScale
 70
     0
300
1-1/2" = 1'-0"
140
1.5
141
12.0
290
     0
  0
SCALE
  5
66
102
{ACAD_REACTORS
330
47
102
}
330
47
100
AcDbScale
 70
     0
300
3" = 1'-0"
140
3.0
141
12.0
290
     0
  0
SCALE
  5
67
102
{ACAD_REACTORS
330
47
102
}
330
47
100
AcDbScale
 70
     0
300
6" = 1'-0"
140
6.0
141
12.0
290
     0
  0
SCALE
  5
68
102
{ACAD_REACTORS
330
47
102
}
330
47
100
AcDbScale
 70
     0
300
1'-0" = 1'-0"
140
12.0
141
12.0
290
     0
  0
TABLESTYLE
  5
6A
102
{ACAD_REACTORS
330
69
102
}
102
{ACAD_XDICTIONARY
360
1E9
102
}
330
69
100
AcDbTableStyle
  3
Standard
 70
     0
 71
     0
 40
0.06
 41
0.06
280
     0
281
     0
  7
Standard
140
4.5
170
     2
 62
     0
 63
   257
283
     0
 90
        4
 91
        0
  1

274
    -2
284
     1
 64
     0
275
    -2
285
     1
 65
     0
276
    -2
286
     1
 66
     0
277
    -2
287
     1
 67
     0
278
    -2
288
     1
 68
     0
279
    -2
289
     1
 69
     0
  7
Standard
140
6.0
170
     5
 62
     0
 63
   257
283
     0
 90
        4
 91
        0
  1

274
    -2
284
     1
 64
     0
275
    -2
285
     1
 65
     0
276
    -2
286
     1
 66
     0
277
    -2
287
     1
 67
     0
278
    -2
288
     1
 68
     0
279
    -2
289
     1
 69
     0
  7
Standard
140
4.5
170
     5
 62
     0
 63
   257
283
     0
 90
        4
 91
        0
  1

274
    -2
284
     1
 64
     0
275
    -2
285
     1
 65
     0
276
    -2
286
     1
 66
     0
277
    -2
287
     1
 67
     0
278
    -2
288
     1
 68
     0
279
    -2
289
     1
 69
     0
  0
VISUALSTYLE
  5
2F
102
{ACAD_REACTORS
330
2A
102
}
330
2A
100
AcDbVisualStyle
  2
2dWireframe
 70
     4
177
     3
291
     0
 70
    58
 90
        0
176
     1
 90
        2
176
     1
 90
        0
176
     1
 90
        0
176
     1
 40
0.6
176
     1
 40
30.0
176
     1
 62
     7
420
 16777215
176
     1
 90
        1
176
     1
 90
        4
176
     1
 62
     7
176
     1
 62
   257
176
     1
 90
        1
176
     1
 90
        1
176
     1
 40
1.0
176
     1
 90
        0
176
     1
 62
   257
176
     1
 40
1.0
176
     1
 90
        1
176
     1
 90
        6
176
     1
 90
        2
176
     1
 62
     7
176
     1
 90
        5
176
     1
 90
        0
176
     1
 90
        0
176
     1
290
     0
176
     1
 90
        1
176
     1
 40
0.0
176
     1
 90
        0
176
     1
290
     1
176
     1
290
     1
176
     1
290
     0
176
     1
290
     0
176
     1
290
     0
176
     1
290
     0
176
     1
290
     0
176
     1
290
     0
176
     1
290
     0
176
     1
 90
       50
176
     1
 40
0.0
176
     1
 40
1.0
176
     1
 90
        0
176
     1
 62
    18
420
        0
176
     1
 90
       50
176
     1
 90
        3
176
     1
 62
     5
420
      255
176
     1
290
     0
176
     1
 90
       50
176
     1
 90
       50
176
     1
 90
       50
176
     1
290
     0
176
     1
 90
       50
176
     1
 62
   256
176
     0
 40
1.0
176
     0
 90
        2
176
     1
  1
strokes_ogs.tif
176
     1
290
     0
176
     1
 40
1.0
176
     1
 40
1.0
176
     1
  0
VISUALSTYLE
  5
32
102
{ACAD_REACTORS
330
2A
102
}
330
2A
100
AcDbVisualStyle
  2
Basic
 70
     7
177
     3
291
     1
 70
    58
 90
        1
176
     1
 90
        0
176
     1
 90
        1
176
     1
 90
        0
176
     1
 40
0.6
176
     1
 40
30.0
176
     1
 62
     7
420
 16777215
176
     1
 90
        0
176
     1
 90
        4
176
     1
 62
     7
176
     1
 62
   257
176
     1
 90
        1
176
     1
 90
        1
176
     1
 40
1.0
176
     1
 90
        8
176
     1
 62
     7
176
     1
 40
1.0
176
     1
 90
        1
176
     1
 90
        6
176
     1
 90
        2
176
     1
 62
     7
176
     1
 90
        5
176
     1
 90
        0
176
     1
 90
        0
176
     1
290
     0
176
     1
 90
        1
176
     1
 40
0.0
176
     1
 90
        0
176
     1
290
     0
176
     1
290
     1
176
     1
290
     1
176
     1
290
     0
176
     1
290
     0
176
     1
290
     0
176
     1
290
     0
176
     1
290
     0
176
     1
290
     0
176
     1
 90
       50
176
     1
 40
0.0
176
     1
 40
1.0
176
     1
 90
        0
176
     1
 62
    18
420
        0
176
     1
 90
       50
176
     1
 90
        3
176
     1
 62
     5
420
      255
176
     1
290
     0
176
     1
 90
       50
176
     1
 90
       50
176
     1
 90
       50
176
     1
290
     0
176
     1
 90
       50
176
     1
 62
   256
176
     0
 40
1.0
176
     0
 90
        2
176
     1
  1
strokes_ogs.tif
176
     1
290
     0
176
     1
 40
1.0
176
     1
 40
1.0
176
     1
  0
VISUALSTYLE
  5
36
102
{ACAD_REACTORS
330
2A
102
}
330
2A
100
AcDbVisualStyle
  2
Brighten
 70
    12
177
     3
291
     1
 70
    58
 90
        2
176
     1
 90
        2
176
     1
 90
        0
176
     1
 90
        0
176
     1
 40
0.6
176
     1
 40
30.0
176
     1
 62
     7
420
 16777215
176
     1
 90
        1
176
     1
 90
        4
176
     1
 62
     7
176
     1
 62
   257
176
     1
 90
        1
176
     1
 90
        1
176
     1
 40
1.0
176
     1
 90
        8
176
     1
 62
     7
176
     1
 40
1.0
176
     1
 90
        1
176
     1
 90
        6
176
     1
 90
        2
176
     1
 62
     7
176
     1
 90
        5
176
     1
 90
        0
176
     1
 90
        0
176
     1
290
     0
176
     1
 90
        1
176
     1
 40
50.0
176
     1
 90
        0
176
     1
290
     0
176
     1
290
     1
176
     1
290
     1
176
     1
290
     0
176
     1
290
     0
176
     1
290
     0
176
     1
290
     0
176
     1
290
     0
176
     1
290
     0
176
     1
 90
       50
176
     1
 40
0.0
176
     1
 40
1.0
176
     1
 90
        0
176
     1
 62
    18
420
        0
176
     1
 90
       50
176
     1
 90
        3
176
     1
 62
     5
420
      255
176
     1
290
     0
176
     1
 90
       50
176
     1
 90
       50
176
     1
 90
       50
176
     1
290
     0
176
     1
 90
       50
176
     1
 62
   256
176
     0
 40
1.0
176
     0
 90
        2
176
     1
  1
strokes_ogs.tif
176
     1
290
     0
176
     1
 40
1.0
176
     1
 40
1.0
176
     1
  0
VISUALSTYLE
  5
3A
102
{ACAD_REACTORS
330
2A
102
}
330
2A
100
AcDbVisualStyle
  2
ColorChange
 70
    16
177
     3
291
     1
 70
    58
 90
        2
176
     1
 90
        2
176
     1
 90
        3
176
     1
 90
        0
176
     1
 40
0.6
176
     1
 40
30.0
176
     1
 62
     8
420
  8421504
176
     1
 90
        1
176
     1
 90
        4
176
     1
 62
     7
176
     1
 62
   257
176
     1
 90
        1
176
     1
 90
        1
176
     1
 40
1.0
176
     1
 90
        8
176
     1
 62
     8
420
  8421504
176
     1
 40
1.0
176
     1
 90
        1
176
     1
 90
        6
176
     1
 90
        2
176
     1
 62
     7
176
     1
 90
        5
176
     1
 90
        0
176
     1
 90
        0
176
     1
290
     0
176
     1
 90
        1
176
     1
 40
0.0
176
     1
 90
        0
176
     1
290
     0
176
     1
290
     1
176
     1
290
     1
176
     1
290
     0
176
     1
290
     0
176
     1
290
     0
176
     1
290
     0
176
     1
290
     0
176
     1
290
     0
176
     1
 90
       50
176
     1
 40
0.0
176
     1
 40
1.0
176
     1
 90
        0
176
     1
 62
    18
420
        0
176
     1
 90
       50
176
     1
 90
        3
176
     1
 62
     5
420
      255
176
     1
290
     0
176
     1
 90
       50
176
     1
 90
       50
176
     1
 90
       50
176
     1
290
     0
176
     1
 90
       50
176
     1
 62
   256
176
     0
 40
1.0
176
     0
 90
        2
176
     1
  1
strokes_ogs.tif
176
     1
290
     0
176
     1
 40
1.0
176
     1
 40
1.0
176
     1
  0
VISUALSTYLE
  5
34
102
{ACAD_REACTORS
330
2A
102
}
330
2A
100
AcDbVisualStyle
  2
Conceptual
 70
     9
177
     3
291
     0
 70
    58
 90
        3
176
     1
 90
        2
176
     1
 90
        0
176
     1
 90
        0
176
     1
 40
0.6
176
     1
 40
30.0
176
     1
 62
     7
420
 16777215
176
     1
 90
        2
176
     1
 90
        2
176
     1
 62
     7
176
     1
 62
   257
176
     1
 90
        1
176
     1
 90
        1
176
     1
 40
179.0
176
     1
 90
        8
176
     1
 62
     7
176
     1
 40
1.0
176
     1
 90
        1
176
     1
 90
        6
176
     1
 90
        2
176
     1
 62
     7
176
     1
 90
        3
176
     1
 90
        0
176
     1
 90
        0
176
     1
290
     0
176
     1
 90
        1
176
     1
 40
0.0
176
     1
 90
        0
176
     1
290
     0
176
     1
290
     1
176
     1
290
     1
176
     1
290
     0
176
     1
290
     0
176
     1
290
     0
176
     1
290
     0
176
     1
290
     0
176
     1
290
     0
176
     1
 90
       50
176
     1
 40
0.0
176
     1
 40
1.0
176
     1
 90
        0
176
     1
 62
    18
420
        0
176
     1
 90
       50
176
     1
 90
        3
176
     1
 62
     5
420
      255
176
     1
290
     0
176
     1
 90
       50
176
     1
 90
       50
176
     1
 90
       50
176
     1
290
     0
176
     1
 90
       50
176
     1
 62
   256
176
     0
 40
1.0
176
     0
 90
        2
176
     1
  1
strokes_ogs.tif
176
     1
290
     0
176
     1
 40
1.0
176
     1
 40
1.0
176
     1
  0
VISUALSTYLE
  5
35
102
{ACAD_REACTORS
330
2A
102
}
330
2A
100
AcDbVisualStyle
  2
Dim
 70
    11
177
     3
291
     1
 70
    58
 90
        2
176
     1
 90
        2
176
     1
 90
        0
176
     1
 90
        0
176
     1
 40
0.6
176
     1
 40
30.0
176
     1
 62
     7
420
 16777215
176
     1
 90
        1
176
     1
 90
        4
176
     1
 62
     7
176
     1
 62
   257
176
     1
 90
        1
176
     1
 90
        1
176
     1
 40
1.0
176
     1
 90
        8
176
     1
 62
     7
176
     1
 40
1.0
176
     1
 90
        1
176
     1
 90
        6
176
     1
 90
        2
176
     1
 62
     7
176
     1
 90
        5
176
     1
 90
        0
176
     1
 90
        0
176
     1
290
     0
176
     1
 90
        1
176
     1
 40
-50.0
176
     1
 90
        0
176
     1
290
     0
176
     1
290
     1
176
     1
290
     1
176
     1
290
     0
176
     1
290
     0
176
     1
290
     0
176
     1
290
     0
176
     1
290
     0
176
     1
290
     0
176
     1
 90
       50
176
     1
 40
0.0
176
     1
 40
1.0
176
     1
 90
        0
176
     1
 62
    18
420
        0
176
     1
 90
       50
176
     1
 90
        3
176
     1
 62
     5
420
      255
176
     1
290
     0
176
     1
 90
       50
176
     1
 90
       50
176
     1
 90
       50
176
     1
290
     0
176
     1
 90
       50
176
     1
 62
   256
176
     0
 40
1.0
176
     0
 90
        2
176
     1
  1
strokes_ogs.tif
176
     1
290
     0
176
     1
 40
1.0
176
     1
 40
1.0
176
     1
  0
VISUALSTYLE
  5
3D
102
{ACAD_REACTORS
330
2A
102
}
330
2A
100
AcDbVisualStyle
  2
EdgeColorOff
 70
    22
177
     3
291
     1
 70
    58
 90
        2
176
     0
 90
        2
176
     0
 90
        0
176
     0
 90
        0
176
     0
 40
0.6
176
     0
 40
30.0
176
     0
 62
     7
420
 16777215
176
     0
 90
        1
176
     0
 90
        4
176
     0
 62
     7
176
     0
 62
   257
176
     0
 90
        1
176
     0
 90
        1
176
     0
 40
1.0
176
     0
 90
        8
176
     2
 62
     7
176
     0
 40
1.0
176
     0
 90
        1
176
     0
 90
        6
176
     0
 90
        2
176
     0
 62
     7
176
     0
 90
        5
176
     0
 90
        0
176
     0
 90
        0
176
     0
290
     0
176
     0
 90
        1
176
     0
 40
0.0
176
     0
 90
        0
176
     0
290
     0
176
     0
290
     1
176
     0
290
     1
176
     0
290
     0
176
     0
290
     0
176
     0
290
     0
176
     0
290
     0
176
     0
290
     0
176
     0
290
     0
176
     0
 90
       50
176
     0
 40
0.0
176
     0
 40
1.0
176
     0
 90
        0
176
     0
 62
    18
420
        0
176
     0
 90
       50
176
     0
 90
        3
176
     0
 62
     5
420
      255
176
     0
290
     0
176
     0
 90
       50
176
     0
 90
       50
176
     0
 90
       50
176
     0
290
     0
176
     0
 90
       50
176
     0
 62
   256
176
     0
 40
1.0
176
     0
 90
        2
176
     0
  1
strokes_ogs.tif
176
     0
290
     0
176
     0
 40
1.0
176
     0
 40
1.0
176
     0
  0
VISUALSTYLE
  5
39
102
{ACAD_REACTORS
330
2A
102
}
330
2A
100
AcDbVisualStyle
  2
Facepattern
 70
    15
177
     3
291
     1
 70
    58
 90
        2
176
     1
 90
        2
176
     1
 90
        0
176
     1
 90
        0
176
     1
 40
0.6
176
     1
 40
30.0
176
     1
 62
     7
420
 16777215
176
     1
 90
        1
176
     1
 90
        4
176
     1
 62
     7
176
     1
 62
   257
176
     1
 90
        1
176
     1
 90
        1
176
     1
 40
1.0
176
     1
 90
        8
176
     1
 62
     7
176
     1
 40
1.0
176
     1
 90
        1
176
     1
 90
        6
176
     1
 90
        2
176
     1
 62
     7
176
     1
 90
        5
176
     1
 90
        0
176
     1
 90
        0
176
     1
290
     0
176
     1
 90
        1
176
     1
 40
0.0
176
     1
 90
        0
176
     1
290
     0
176
     1
290
     1
176
     1
290
     1
176
     1
290
     0
176
     1
290
     0
176
     1
290
     0
176
     1
290
     0
176
     1
290
     0
176
     1
290
     0
176
     1
 90
       50
176
     1
 40
0.0
176
     1
 40
1.0
176
     1
 90
        0
176
     1
 62
    18
420
        0
176
     1
 90
       50
176
     1
 90
        3
176
     1
 62
     5
420
      255
176
     1
290
     0
176
     1
 90
       50
176
     1
 90
       50
176
     1
 90
       50
176
     1
290
     0
176
     1
 90
       50
176
     1
 62
   256
176
     0
 40
1.0
176
     0
 90
        2
176
     1
  1
strokes_ogs.tif
176
     1
290
     0
176
     1
 40
1.0
176
     1
 40
1.0
176
     1
  0
VISUALSTYLE
  5
2B
102
{ACAD_REACTORS
330
2A
102
}
330
2A
100
AcDbVisualStyle
  2
Flat
 70
     0
177
     3
291
     1
 70
    58
 90
        2
176
     1
 90
        1
176
     1
 90
        1
176
     1
 90
        2
176
     1
 40
0.6
176
     1
 40
30.0
176
     1
 62
     7
420
 16777215
176
     1
 90
        0
176
     1
 90
        0
176
     1
 62
     7
176
     1
 62
   257
176
     1
 90
        1
176
     1
 90
        1
176
     1
 40
1.0
176
     1
 90
        8
176
     1
 62
     7
176
     1
 40
1.0
176
     1
 90
        1
176
     1
 90
        6
176
     1
 90
        2
176
     1
 62
     7
176
     1
 90
        5
176
     1
 90
        0
176
     1
 90
        0
176
     1
290
     0
176
     1
 90
       13
176
     1
 40
0.0
176
     1
 90
        0
176
     1
290
     0
176
     1
290
     1
176
     1
290
     1
176
     1
290
     0
176
     1
290
     0
176
     1
290
     0
176
     1
290
     0
176
     1
290
     0
176
     1
290
     0
176
     1
 90
       50
176
     1
 40
0.0
176
     1
 40
1.0
176
     1
 90
        0
176
     1
 62
    18
420
        0
176
     1
 90
       50
176
     1
 90
        3
176
     1
 62
     5
420
      255
176
     1
290
     0
176
     1
 90
       50
176
     1
 90
       50
176
     1
 90
       50
176
     1
290
     0
176
     1
 90
       50
176
     1
 62
   256
176
     0
 40
1.0
176
     0
 90
        2
176
     1
  1
strokes_ogs.tif
176
     1
290
     0
176
     1
 40
1.0
176
     1
 40
1.0
176
     1
  0
VISUALSTYLE
  5
2C
102
{ACAD_REACTORS
330
2A
102
}
330
2A
100
AcDbVisualStyle
  2
FlatWithEdges
 70
     1
177
     3
291
     1
 70
    58
 90
        2
176
     1
 90
        1
176
     1
 90
        1
176
     1
 90
        2
176
     1
 40
0.6
176
     1
 40
30.0
176
     1
 62
     7
420
 16777215
176
     1
 90
        1
176
     1
 90
        0
176
     1
 62
     7
176
     1
 62
   257
176
     1
 90
        1
176
     1
 90
        1
176
     1
 40
1.0
176
     1
 90
        0
176
     1
 62
   257
176
     1
 40
1.0
176
     1
 90
        1
176
     1
 90
        6
176
     1
 90
        2
176
     1
 62
     7
176
     1
 90
        5
176
     1
 90
        0
176
     1
 90
        0
176
     1
290
     0
176
     1
 90
       13
176
     1
 40
0.0
176
     1
 90
        0
176
     1
290
     0
176
     1
290
     1
176
     1
290
     1
176
     1
290
     0
176
     1
290
     0
176
     1
290
     0
176
     1
290
     0
176
     1
290
     0
176
     1
290
     0
176
     1
 90
       50
176
     1
 40
0.0
176
     1
 40
1.0
176
     1
 90
        0
176
     1
 62
    18
420
        0
176
     1
 90
       50
176
     1
 90
        3
176
     1
 62
     5
420
      255
176
     1
290
     0
176
     1
 90
       50
176
     1
 90
       50
176
     1
 90
       50
176
     1
290
     0
176
     1
 90
       50
176
     1
 62
   256
176
     0
 40
1.0
176
     0
 90
        2
176
     1
  1
strokes_ogs.tif
176
     1
290
     0
176
     1
 40
1.0
176
     1
 40
1.0
176
     1
  0
VISUALSTYLE
  5
2D
102
{ACAD_REACTORS
330
2A
102
}
330
2A
100
AcDbVisualStyle
  2
Gouraud
 70
     2
177
     3
291
     1
 70
    58
 90
        2
176
     1
 90
        2
176
     1
 90
        1
176
     1
 90
        2
176
     1
 40
0.6
176
     1
 40
30.0
176
     1
 62
     7
420
 16777215
176
     1
 90
        0
176
     1
 90
        0
176
     1
 62
     7
176
     1
 62
   257
176
     1
 90
        1
176
     1
 90
        1
176
     1
 40
1.0
176
     1
 90
        0
176
     1
 62
     7
176
     1
 40
1.0
176
     1
 90
        1
176
     1
 90
        6
176
     1
 90
        2
176
     1
 62
     7
176
     1
 90
        5
176
     1
 90
        0
176
     1
 90
        0
176
     1
290
     0
176
     1
 90
       13
176
     1
 40
0.0
176
     1
 90
        0
176
     1
290
     0
176
     1
290
     1
176
     1
290
     1
176
     1
290
     0
176
     1
290
     0
176
     1
290
     0
176
     1
290
     0
176
     1
290
     0
176
     1
290
     0
176
     1
 90
       50
176
     1
 40
0.0
176
     1
 40
1.0
176
     1
 90
        0
176
     1
 62
    18
420
        0
176
     1
 90
       50
176
     1
 90
        3
176
     1
 62
     5
420
      255
176
     1
290
     0
176
     1
 90
       50
176
     1
 90
       50
176
     1
 90
       50
176
     1
290
     0
176
     1
 90
       50
176
     1
 62
   256
176
     0
 40
1.0
176
     0
 90
        2
176
     1
  1
strokes_ogs.tif
176
     1
290
     0
176
     1
 40
1.0
176
     1
 40
1.0
176
     1
  0
VISUALSTYLE
  5
2E
102
{ACAD_REACTORS
330
2A
102
}
330
2A
100
AcDbVisualStyle
  2
GouraudWithEdges
 70
     3
177
     3
291
     1
 70
    58
 90
        2
176
     1
 90
        2
176
     1
 90
        1
176
     1
 90
        2
176
     1
 40
0.6
176
     1
 40
30.0
176
     1
 62
     7
420
 16777215
176
     1
 90
        1
176
     1
 90
        0
176
     1
 62
     7
176
     1
 62
   257
176
     1
 90
        1
176
     1
 90
        1
176
     1
 40
1.0
176
     1
 90
        0
176
     1
 62
   257
176
     1
 40
1.0
176
     1
 90
        1
176
     1
 90
        6
176
     1
 90
        2
176
     1
 62
     7
176
     1
 90
        5
176
     1
 90
        0
176
     1
 90
        0
176
     1
290
     0
176
     1
 90
       13
176
     1
 40
0.0
176
     1
 90
        0
176
     1
290
     0
176
     1
290
     1
176
     1
290
     1
176
     1
290
     0
176
     1
290
     0
176
     1
290
     0
176
     1
290
     0
176
     1
290
     0
176
     1
290
     0
176
     1
 90
       50
176
     1
 40
0.0
176
     1
 40
1.0
176
     1
 90
        0
176
     1
 62
    18
420
        0
176
     1
 90
       50
176
     1
 90
        3
176
     1
 62
     5
420
      255
176
     1
290
     0
176
     1
 90
       50
176
     1
 90
       50
176
     1
 90
       50
176
     1
290
     0
176
     1
 90
       50
176
     1
 62
   256
176
     0
 40
1.0
176
     0
 90
        2
176
     1
  1
strokes_ogs.tif
176
     1
290
     0
176
     1
 40
1.0
176
     1
 40
1.0
176
     1
  0
VISUALSTYLE
  5
31
102
{ACAD_REACTORS
330
2A
102
}
330
2A
100
AcDbVisualStyle
  2
Hidden
 70
     6
177
     3
291
     0
 70
    58
 90
        1
176
     1
 90
        2
176
     1
 90
        2
176
     1
 90
        0
176
     1
 40
0.6
176
     1
 40
30.0
176
     1
 62
     7
420
 16777215
176
     1
 90
        2
176
     1
 90
        2
176
     1
 62
     7
176
     1
 62
   257
176
     1
 90
        2
176
     1
 90
        1
176
     1
 40
40.0
176
     1
 90
        0
176
     1
 62
   257
176
     1
 40
1.0
176
     1
 90
        1
176
     1
 90
        6
176
     1
 90
        2
176
     1
 62
     7
176
     1
 90
        3
176
     1
 90
        0
176
     1
 90
        0
176
     1
290
     0
176
     1
 90
        1
176
     1
 40
0.0
176
     1
 90
        0
176
     1
290
     0
176
     1
290
     1
176
     1
290
     1
176
     1
290
     0
176
     1
290
     0
176
     1
290
     0
176
     1
290
     0
176
     1
290
     0
176
     1
290
     0
176
     1
 90
       50
176
     1
 40
0.0
176
     1
 40
1.0
176
     1
 90
        0
176
     1
 62
    18
420
        0
176
     1
 90
       50
176
     1
 90
        3
176
     1
 62
     5
420
      255
176
     1
290
     0
176
     1
 90
       50
176
     1
 90
       50
176
     1
 90
       50
176
     1
290
     0
176
     1
 90
       50
176
     1
 62
   256
176
     0
 40
1.0
176
     0
 90
        2
176
     1
  1
strokes_ogs.tif
176
     1
290
     0
176
     1
 40
1.0
176
     1
 40
1.0
176
     1
  0
VISUALSTYLE
  5
3B
102
{ACAD_REACTORS
330
2A
102
}
330
2A
100
AcDbVisualStyle
  2
JitterOff
 70
    20
177
     3
291
     1
 70
    58
 90
        2
176
     0
 90
        2
176
     0
 90
        0
176
     0
 90
        0
176
     0
 40
0.6
176
     0
 40
30.0
176
     0
 62
     7
420
 16777215
176
     0
 90
        1
176
     0
 90
        4
176
     0
 62
     7
176
     0
 62
   257
176
     0
 90
        1
176
     0
 90
        1
176
     0
 40
1.0
176
     0
 90
       10
176
     2
 62
     7
176
     0
 40
1.0
176
     0
 90
        1
176
     0
 90
        6
176
     0
 90
        2
176
     0
 62
     7
176
     0
 90
        5
176
     0
 90
        0
176
     0
 90
        0
176
     0
290
     0
176
     0
 90
        1
176
     0
 40
0.0
176
     0
 90
        0
176
     0
290
     0
176
     0
290
     1
176
     0
290
     1
176
     0
290
     0
176
     0
290
     0
176
     0
290
     0
176
     0
290
     0
176
     0
290
     0
176
     0
290
     0
176
     0
 90
       50
176
     0
 40
0.0
176
     0
 40
1.0
176
     0
 90
        0
176
     0
 62
    18
420
        0
176
     0
 90
       50
176
     0
 90
        3
176
     0
 62
     5
420
      255
176
     0
290
     0
176
     0
 90
       50
176
     0
 90
       50
176
     0
 90
       50
176
     0
290
     0
176
     0
 90
       50
176
     0
 62
   256
176
     0
 40
1.0
176
     0
 90
        2
176
     0
  1
strokes_ogs.tif
176
     0
290
     0
176
     0
 40
1.0
176
     0
 40
1.0
176
     0
  0
VISUALSTYLE
  5
38
102
{ACAD_REACTORS
330
2A
102
}
330
2A
100
AcDbVisualStyle
  2
Linepattern
 70
    14
177
     3
291
     1
 70
    58
 90
        2
176
     1
 90
        2
176
     1
 90
        0
176
     1
 90
        0
176
     1
 40
0.6
176
     1
 40
30.0
176
     1
 62
     7
420
 16777215
176
     1
 90
        1
176
     1
 90
        4
176
     1
 62
     7
176
     1
 62
   257
176
     1
 90
        7
176
     1
 90
        7
176
     1
 40
1.0
176
     1
 90
        8
176
     1
 62
     7
176
     1
 40
1.0
176
     1
 90
        1
176
     1
 90
        6
176
     1
 90
        2
176
     1
 62
     7
176
     1
 90
        5
176
     1
 90
        0
176
     1
 90
        0
176
     1
290
     0
176
     1
 90
        1
176
     1
 40
0.0
176
     1
 90
        0
176
     1
290
     0
176
     1
290
     1
176
     1
290
     1
176
     1
290
     0
176
     1
290
     0
176
     1
290
     0
176
     1
290
     0
176
     1
290
     0
176
     1
290
     0
176
     1
 90
       50
176
     1
 40
0.0
176
     1
 40
1.0
176
     1
 90
        0
176
     1
 62
    18
420
        0
176
     1
 90
       50
176
     1
 90
        3
176
     1
 62
     5
420
      255
176
     1
290
     0
176
     1
 90
       50
176
     1
 90
       50
176
     1
 90
       50
176
     1
290
     0
176
     1
 90
       50
176
     1
 62
   256
176
     0
 40
1.0
176
     0
 90
        2
176
     1
  1
strokes_ogs.tif
176
     1
290
     0
176
     1
 40
1.0
176
     1
 40
1.0
176
     1
  0
VISUALSTYLE
  5
3C
102
{ACAD_REACTORS
330
2A
102
}
330
2A
100
AcDbVisualStyle
  2
OverhangOff
 70
    21
177
     3
291
     1
 70
    58
 90
        2
176
     0
 90
        2
176
     0
 90
        0
176
     0
 90
        0
176
     0
 40
0.6
176
     0
 40
30.0
176
     0
 62
     7
420
 16777215
176
     0
 90
        1
176
     0
 90
        4
176
     0
 62
     7
176
     0
 62
   257
176
     0
 90
        1
176
     0
 90
        1
176
     0
 40
1.0
176
     0
 90
        9
176
     2
 62
     7
176
     0
 40
1.0
176
     0
 90
        1
176
     0
 90
        6
176
     0
 90
        2
176
     0
 62
     7
176
     0
 90
        5
176
     0
 90
        0
176
     0
 90
        0
176
     0
290
     0
176
     0
 90
        1
176
     0
 40
0.0
176
     0
 90
        0
176
     0
290
     0
176
     0
290
     1
176
     0
290
     1
176
     0
290
     0
176
     0
290
     0
176
     0
290
     0
176
     0
290
     0
176
     0
290
     0
176
     0
290
     0
176
     0
 90
       50
176
     0
 40
0.0
176
     0
 40
1.0
176
     0
 90
        0
176
     0
 62
    18
420
        0
176
     0
 90
       50
176
     0
 90
        3
176
     0
 62
     5
420
      255
176
     0
290
     0
176
     0
 90
       50
176
     0
 90
       50
176
     0
 90
       50
176
     0
290
     0
176
     0
 90
       50
176
     0
 62
   256
176
     0
 40
1.0
176
     0
 90
        2
176
     0
  1
strokes_ogs.tif
176
     0
290
     0
176
     0
 40
1.0
176
     0
 40
1.0
176
     0
  0
VISUALSTYLE
  5
33
102
{ACAD_REACTORS
330
2A
102
}
330
2A
100
AcDbVisualStyle
  2
Realistic
 70
     8
177
     3
291
     0
 70
    58
 90
        2
176
     1
 90
        3
176
     1
 90
        0
176
     1
 90
        2
176
     1
 40
0.6
176
     1
 40
30.0
176
     1
 62
     7
420
 16777215
176
     1
 90
        0
176
     1
 90
        0
176
     1
 62
     7
176
     1
 62
   257
176
     1
 90
        1
176
     1
 90
        1
176
     1
 40
1.0
176
     1
 90
        8
176
     1
 62
   257
176
     1
 40
1.0
176
     1
 90
        1
176
     1
 90
        6
176
     1
 90
        2
176
     1
 62
     7
176
     1
 90
        3
176
     1
 90
        0
176
     1
 90
        0
176
     1
290
     0
176
     1
 90
       13
176
     1
 40
0.0
176
     1
 90
        0
176
     1
290
     0
176
     1
290
     1
176
     1
290
     1
176
     1
290
     0
176
     1
290
     0
176
     1
290
     0
176
     1
290
     0
176
     1
290
     0
176
     1
290
     0
176
     1
 90
       50
176
     1
 40
0.0
176
     1
 40
1.0
176
     1
 90
        0
176
     1
 62
    18
420
        0
176
     1
 90
       50
176
     1
 90
        3
176
     1
 62
     5
420
      255
176
     1
290
     0
176
     1
 90
       50
176
     1
 90
       50
176
     1
 90
       50
176
     1
290
     0
176
     1
 90
       50
176
     1
 62
   256
176
     0
 40
1.0
176
     0
 90
        2
176
     1
  1
strokes_ogs.tif
176
     1
290
     0
176
     1
 40
1.0
176
     1
 40
1.0
176
     1
  0
VISUALSTYLE
  5
42
102
{ACAD_REACTORS
330
2A
102
}
330
2A
100
AcDbVisualStyle
  2
Shaded
 70
    27
177
     3
291
     0
 70
    58
 90
        2
176
     1
 90
        2
176
     1
 90
        1
176
     1
 90
        2
176
     1
 40
0.6
176
     1
 40
30.0
176
     1
 62
     7
420
 16777215
176
     1
 90
        0
176
     1
 90
        4
176
     1
 62
     7
176
     1
 62
   257
176
     1
 90
        1
176
     1
 90
        1
176
     1
 40
1.0
176
     1
 90
        8
176
     1
 62
   257
176
     1
 40
1.0
176
     1
 90
        1
176
     1
 90
        6
176
     1
 90
        2
176
     1
 62
     8
420
  7895160
176
     1
 90
        3
176
     1
 90
        0
176
     1
 90
        0
176
     1
290
     0
176
     1
 90
        5
176
     1
 40
0.0
176
     1
 90
        0
176
     1
290
     0
176
     1
290
     1
176
     1
290
     1
176
     1
290
     0
176
     1
290
     0
176
     1
290
     0
176
     1
290
     0
176
     1
290
     0
176
     1
290
     0
176
     1
 90
       50
176
     1
 40
0.0
176
     1
 40
1.0
176
     1
 90
        0
176
     1
 62
    18
420
        0
176
     1
 90
       50
176
     1
 90
        3
176
     1
 62
     5
420
      255
176
     1
290
     0
176
     1
 90
       50
176
     1
 90
       50
176
     1
 90
       50
176
     1
290
     0
176
     1
 90
       50
176
     1
 62
   256
176
     0
 40
1.0
176
     0
 90
        2
176
     1
  1
strokes_ogs.tif
176
     1
290
     0
176
     1
 40
1.0
176
     1
 40
1.0
176
     1
  0
VISUALSTYLE
  5
41
102
{ACAD_REACTORS
330
2A
102
}
330
2A
100
AcDbVisualStyle
  2
Shaded with edges
 70
    26
177
     3
291
     0
 70
    58
 90
        2
176
     1
 90
        2
176
     1
 90
        1
176
     1
 90
        2
176
     1
 40
0.6
176
     1
 40
30.0
176
     1
 62
     7
420
 16777215
176
     1
 90
        1
176
     1
 90
       10
176
     1
 62
     7
176
     1
 62
   257
176
     1
 90
        2
176
     1
 90
        1
176
     1
 40
1.0
176
     1
 90
        8
176
     1
 62
   257
176
     1
 40
1.0
176
     1
 90
        1
176
     1
 90
        6
176
     1
 90
        2
176
     1
 62
     7
176
     1
 90
        3
176
     1
 90
        0
176
     1
 90
        0
176
     1
290
     0
176
     1
 90
        5
176
     1
 40
0.0
176
     1
 90
        0
176
     1
290
     0
176
     1
290
     1
176
     1
290
     1
176
     1
290
     0
176
     1
290
     0
176
     1
290
     0
176
     1
290
     0
176
     1
290
     0
176
     1
290
     0
176
     1
 90
       50
176
     1
 40
0.0
176
     1
 40
1.0
176
     1
 90
        0
176
     1
 62
    18
420
        0
176
     1
 90
       50
176
     1
 90
        3
176
     1
 62
     5
420
      255
176
     1
290
     0
176
     1
 90
       50
176
     1
 90
       50
176
     1
 90
       50
176
     1
290
     0
176
     1
 90
       50
176
     1
 62
   256
176
     0
 40
1.0
176
     0
 90
        2
176
     1
  1
strokes_ogs.tif
176
     1
290
     0
176
     1
 40
1.0
176
     1
 40
1.0
176
     1
  0
VISUALSTYLE
  5
3E
102
{ACAD_REACTORS
330
2A
102
}
330
2A
100
AcDbVisualStyle
  2
Shades of Gray
 70
    23
177
     3
291
     0
 70
    58
 90
        2
176
     1
 90
        2
176
     1
 90
        3
176
     1
 90
        0
176
     1
 40
0.6
176
     1
 40
30.0
176
     1
 62
     7
420
 16777215
176
     1
 90
        2
176
     1
 90
        2
176
     1
 62
     7
176
     1
 62
     7
176
     1
 90
        1
176
     1
 90
        1
176
     1
 40
40.0
176
     1
 90
        8
176
     1
 62
     7
176
     1
 40
1.0
176
     1
 90
        1
176
     1
 90
        6
176
     1
 90
        2
176
     1
 62
     7
176
     1
 90
        3
176
     1
 90
        0
176
     1
 90
        0
176
     1
290
     0
176
     1
 90
        1
176
     1
 40
0.0
176
     1
 90
        0
176
     1
290
     0
176
     1
290
     1
176
     1
290
     1
176
     1
290
     0
176
     1
290
     0
176
     1
290
     0
176
     1
290
     0
176
     1
290
     0
176
     1
290
     0
176
     1
 90
       50
176
     1
 40
0.0
176
     1
 40
1.0
176
     1
 90
        0
176
     1
 62
    18
420
        0
176
     1
 90
       50
176
     1
 90
        3
176
     1
 62
     5
420
      255
176
     1
290
     0
176
     1
 90
       50
176
     1
 90
       50
176
     1
 90
       50
176
     1
290
     0
176
     1
 90
       50
176
     1
 62
   256
176
     0
 40
1.0
176
     0
 90
        2
176
     1
  1
strokes_ogs.tif
176
     1
290
     0
176
     1
 40
1.0
176
     1
 40
1.0
176
     1
  0
VISUALSTYLE
  5
3F
102
{ACAD_REACTORS
330
2A
102
}
330
2A
100
AcDbVisualStyle
  2
Sketchy
 70
    24
177
     3
291
     0
 70
    58
 90
        1
176
     1
 90
        2
176
     1
 90
        2
176
     1
 90
        0
176
     1
 40
0.6
176
     1
 40
30.0
176
     1
 62
     7
420
 16777215
176
     1
 90
        2
176
     1
 90
        2
176
     1
 62
     7
176
     1
 62
     7
176
     1
 90
        1
176
     1
 90
        1
176
     1
 40
40.0
176
     1
 90
       11
176
     1
 62
     7
176
     1
 40
1.0
176
     1
 90
        1
176
     1
 90
        6
176
     1
 90
        2
176
     1
 62
     7
176
     1
 90
        6
176
     1
 90
        0
176
     1
 90
        0
176
     1
290
     0
176
     1
 90
        1
176
     1
 40
0.0
176
     1
 90
        0
176
     1
290
     0
176
     1
290
     1
176
     1
290
     1
176
     1
290
     0
176
     1
290
     0
176
     1
290
     0
176
     1
290
     0
176
     1
290
     0
176
     1
290
     0
176
     1
 90
       50
176
     1
 40
0.0
176
     1
 40
1.0
176
     1
 90
        0
176
     1
 62
    18
420
        0
176
     1
 90
       50
176
     1
 90
        3
176
     1
 62
     5
420
      255
176
     1
290
     0
176
     1
 90
       50
176
     1
 90
       50
176
     1
 90
       50
176
     1
290
     0
176
     1
 90
       50
176
     1
 62
   256
176
     0
 40
1.0
176
     0
 90
        2
176
     1
  1
strokes_ogs.tif
176
     1
290
     0
176
     1
 40
1.0
176
     1
 40
1.0
176
     1
  0
VISUALSTYLE
  5
37
102
{ACAD_REACTORS
330
2A
102
}
330
2A
100
AcDbVisualStyle
  2
Thicken
 70
    13
177
     3
291
     1
 70
    58
 90
        2
176
     1
 90
        2
176
     1
 90
        0
176
     1
 90
        0
176
     1
 40
0.6
176
     1
 40
30.0
176
     1
 62
     7
420
 16777215
176
     1
 90
        1
176
     1
 90
        4
176
     1
 62
     7
176
     1
 62
   257
176
     1
 90
        1
176
     1
 90
        1
176
     1
 40
1.0
176
     1
 90
       12
176
     1
 62
     7
176
     1
 40
1.0
176
     1
 90
        1
176
     1
 90
        6
176
     1
 90
        2
176
     1
 62
     7
176
     1
 90
        5
176
     1
 90
        0
176
     1
 90
        0
176
     1
290
     0
176
     1
 90
        1
176
     1
 40
0.0
176
     1
 90
        0
176
     1
290
     0
176
     1
290
     1
176
     1
290
     1
176
     1
290
     0
176
     1
290
     0
176
     1
290
     0
176
     1
290
     0
176
     1
290
     0
176
     1
290
     0
176
     1
 90
       50
176
     1
 40
0.0
176
     1
 40
1.0
176
     1
 90
        0
176
     1
 62
    18
420
        0
176
     1
 90
       50
176
     1
 90
        3
176
     1
 62
     5
420
      255
176
     1
290
     0
176
     1
 90
       50
176
     1
 90
       50
176
     1
 90
       50
176
     1
290
     0
176
     1
 90
       50
176
     1
 62
   256
176
     0
 40
1.0
176
     0
 90
        2
176
     1
  1
strokes_ogs.tif
176
     1
290
     0
176
     1
 40
1.0
176
     1
 40
1.0
176
     1
  0
VISUALSTYLE
  5
30
102
{ACAD_REACTORS
330
2A
102
}
330
2A
100
AcDbVisualStyle
  2
Wireframe
 70
     5
177
     3
291
     0
 70
    58
 90
        0
176
     1
 90
        2
176
     1
 90
        0
176
     1
 90
        0
176
     1
 40
0.6
176
     1
 40
30.0
176
     1
 62
     7
420
 16777215
176
     1
 90
        1
176
     1
 90
        4
176
     1
 62
     7
176
     1
 62
   257
176
     1
 90
        1
176
     1
 90
        1
176
     1
 40
1.0
176
     1
 90
        0
176
     1
 62
   257
176
     1
 40
1.0
176
     1
 90
        1
176
     1
 90
        6
176
     1
 90
        2
176
     1
 62
     7
176
     1
 90
        3
176
     1
 90
        0
176
     1
 90
        0
176
     1
290
     0
176
     1
 90
        1
176
     1
 40
0.0
176
     1
 90
        0
176
     1
290
     0
176
     1
290
     1
176
     1
290
     1
176
     1
290
     0
176
     1
290
     0
176
     1
290
     0
176
     1
290
     0
176
     1
290
     0
176
     1
290
     0
176
     1
 90
       50
176
     1
 40
0.0
176
     1
 40
1.0
176
     1
 90
        0
176
     1
 62
    18
420
        0
176
     1
 90
       50
176
     1
 90
        3
176
     1
 62
     5
420
      255
176
     1
290
     0
176
     1
 90
       50
176
     1
 90
       50
176
     1
 90
       50
176
     1
290
     0
176
     1
 90
       50
176
     1
 62
   256
176
     0
 40
1.0
176
     0
 90
        2
176
     1
  1
strokes_ogs.tif
176
     1
290
     0
176
     1
 40
1.0
176
     1
 40
1.0
176
     1
  0
VISUALSTYLE
  5
40
102
{ACAD_REACTORS
330
2A
102
}
330
2A
100
AcDbVisualStyle
  2
X-Ray
 70
    25
177
     3
291
     0
 70
    58
 90
        2
176
     1
 90
        2
176
     1
 90
        1
176
     1
 90
        1
176
     1
 40
0.5
176
     1
 40
30.0
176
     1
 62
     7
420
 16777215
176
     1
 90
        1
176
     1
 90
        0
176
     1
 62
     7
176
     1
 62
   257
176
     1
 90
        1
176
     1
 90
        1
176
     1
 40
1.0
176
     1
 90
        8
176
     1
 62
     7
176
     1
 40
1.0
176
     1
 90
        1
176
     1
 90
        6
176
     1
 90
        2
176
     1
 62
     7
176
     1
 90
        3
176
     1
 90
        0
176
     1
 90
        0
176
     1
290
     0
176
     1
 90
       13
176
     1
 40
0.0
176
     1
 90
        0
176
     1
290
     0
176
     1
290
     1
176
     1
290
     1
176
     1
290
     0
176
     1
290
     0
176
     1
290
     0
176
     1
290
     0
176
     1
290
     0
176
     1
290
     0
176
     1
 90
       50
176
     1
 40
0.0
176
     1
 40
1.0
176
     1
 90
        0
176
     1
 62
    18
420
        0
176
     1
 90
       50
176
     1
 90
        3
176
     1
 62
     5
420
      255
176
     1
290
     0
176
     1
 90
       50
176
     1
 90
       50
176
     1
 90
       50
176
     1
290
     0
176
     1
 90
       50
176
     1
 62
   256
176
     0
 40
1.0
176
     0
 90
        2
176
     1
  1
strokes_ogs.tif
176
     1
290
     0
176
     1
 40
1.0
176
     1
 40
1.0
176
     1
  0
DICTIONARYVAR
  5
1E8
102
{ACAD_REACTORS
330
1E7
102
}
330
1E7
100
DictionaryVariables
280
     0
  1
1:1
  0
DICTIONARYVAR
  5
1ED
102
{ACAD_REACTORS
330
1E7
102
}
330
1E7
100
DictionaryVariables
280
     0
  1
Standard
  0
DICTIONARYVAR
  5
1EC
102
{ACAD_REACTORS
330
1E7
102
}
330
1E7
100
DictionaryVariables
280
     0
  1
Standard
  0
DICTIONARY
  5
1E9
330
6A
100
AcDbDictionary
280
     1
281
     1
  3
ACAD_ROUNDTRIP_2008_TABLESTYLE_CELLSTYLEMAP
360
1EA
  0
CELLSTYLEMAP
  5
1EA
102
{ACAD_REACTORS
330
1E9
102
}
330
1E9
100
AcDbCellStyleMap
 90
        3
300
CELLSTYLE
  1
TABLEFORMAT_BEGIN
 90
        5
170
     1
 91
        0
 92
    32768
 62
   257
 93
        1
300
CONTENTFORMAT
  1
CONTENTFORMAT_BEGIN
 90
        0
 91
        0
 92
        4
 93
        0
300

 40
0.0
140
1.0
 94
        5
 62
     0
340
11
144
6.0
309
CONTENTFORMAT_END
171
     1
301
MARGIN
  1
CELLMARGIN_BEGIN
 40
1.5
 40
1.5
 40
1.5
 40
1.5
 40
1.5
 40
1.5
309
CELLMARGIN_END
 94
        6
 95
        1
302
GRIDFORMAT
  1
GRIDFORMAT_BEGIN
 90
        0
 91
        1
 62
     0
 92
       -2
340
14
 93
        0
 40
0.045
309
GRIDFORMAT_END
 95
        2
302
GRIDFORMAT
  1
GRIDFORMAT_BEGIN
 90
        0
 91
        1
 62
     0
 92
       -2
340
14
 93
        0
 40
0.045
309
GRIDFORMAT_END
 95
        4
302
GRIDFORMAT
  1
GRIDFORMAT_BEGIN
 90
        0
 91
        1
 62
     0
 92
       -2
340
14
 93
        0
 40
0.045
309
GRIDFORMAT_END
 95
        8
302
GRIDFORMAT
  1
GRIDFORMAT_BEGIN
 90
        0
 91
        1
 62
     0
 92
       -2
340
14
 93
        0
 40
0.045
309
GRIDFORMAT_END
 95
       16
302
GRIDFORMAT
  1
GRIDFORMAT_BEGIN
 90
        0
 91
        1
 62
     0
 92
       -2
340
14
 93
        0
 40
0.045
309
GRIDFORMAT_END
 95
       32
302
GRIDFORMAT
  1
GRIDFORMAT_BEGIN
 90
        0
 91
        1
 62
     0
 92
       -2
340
14
 93
        0
 40
0.045
309
GRIDFORMAT_END
309
TABLEFORMAT_END
  1
CELLSTYLE_BEGIN
 90
        1
 91
        1
300
_TITLE
309
CELLSTYLE_END
300
CELLSTYLE
  1
TABLEFORMAT_BEGIN
 90
        5
170
     1
 91
        0
 92
        0
 62
   257
 93
        1
300
CONTENTFORMAT
  1
CONTENTFORMAT_BEGIN
 90
        0
 91
        0
 92
        4
 93
        0
300

 40
0.0
140
1.0
 94
        5
 62
     0
340
11
144
4.5
309
CONTENTFORMAT_END
171
     1
301
MARGIN
  1
CELLMARGIN_BEGIN
 40
1.5
 40
1.5
 40
1.5
 40
1.5
 40
1.5
 40
1.5
309
CELLMARGIN_END
 94
        6
 95
        1
302
GRIDFORMAT
  1
GRIDFORMAT_BEGIN
 90
        0
 91
        1
 62
     0
 92
       -2
340
14
 93
        0
 40
0.045
309
GRIDFORMAT_END
 95
        2
302
GRIDFORMAT
  1
GRIDFORMAT_BEGIN
 90
        0
 91
        1
 62
     0
 92
       -2
340
14
 93
        0
 40
0.045
309
GRIDFORMAT_END
 95
        4
302
GRIDFORMAT
  1
GRIDFORMAT_BEGIN
 90
        0
 91
        1
 62
     0
 92
       -2
340
14
 93
        0
 40
0.045
309
GRIDFORMAT_END
 95
        8
302
GRIDFORMAT
  1
GRIDFORMAT_BEGIN
 90
        0
 91
        1
 62
     0
 92
       -2
340
14
 93
        0
 40
0.045
309
GRIDFORMAT_END
 95
       16
302
GRIDFORMAT
  1
GRIDFORMAT_BEGIN
 90
        0
 91
        1
 62
     0
 92
       -2
340
14
 93
        0
 40
0.045
309
GRIDFORMAT_END
 95
       32
302
GRIDFORMAT
  1
GRIDFORMAT_BEGIN
 90
        0
 91
        1
 62
     0
 92
       -2
340
14
 93
        0
 40
0.045
309
GRIDFORMAT_END
309
TABLEFORMAT_END
  1
CELLSTYLE_BEGIN
 90
        2
 91
        1
300
_HEADER
309
CELLSTYLE_END
300
CELLSTYLE
  1
TABLEFORMAT_BEGIN
 90
        5
170
     1
 91
        0
 92
        0
 62
   257
 93
        1
300
CONTENTFORMAT
  1
CONTENTFORMAT_BEGIN
 90
        0
 91
        0
 92
        4
 93
        0
300

 40
0.0
140
1.0
 94
        2
 62
     0
340
11
144
4.5
309
CONTENTFORMAT_END
171
     1
301
MARGIN
  1
CELLMARGIN_BEGIN
 40
1.5
 40
1.5
 40
1.5
 40
1.5
 40
1.5
 40
1.5
309
CELLMARGIN_END
 94
        6
 95
        1
302
GRIDFORMAT
  1
GRIDFORMAT_BEGIN
 90
        0
 91
        1
 62
     0
 92
       -2
340
14
 93
        0
 40
0.045
309
GRIDFORMAT_END
 95
        2
302
GRIDFORMAT
  1
GRIDFORMAT_BEGIN
 90
        0
 91
        1
 62
     0
 92
       -2
340
14
 93
        0
 40
0.045
309
GRIDFORMAT_END
 95
        4
302
GRIDFORMAT
  1
GRIDFORMAT_BEGIN
 90
        0
 91
        1
 62
     0
 92
       -2
340
14
 93
        0
 40
0.045
309
GRIDFORMAT_END
 95
        8
302
GRIDFORMAT
  1
GRIDFORMAT_BEGIN
 90
        0
 91
        1
 62
     0
 92
       -2
340
14
 93
        0
 40
0.045
309
GRIDFORMAT_END
 95
       16
302
GRIDFORMAT
  1
GRIDFORMAT_BEGIN
 90
        0
 91
        1
 62
     0
 92
       -2
340
14
 93
        0
 40
0.045
309
GRIDFORMAT_END
 95
       32
302
GRIDFORMAT
  1
GRIDFORMAT_BEGIN
 90
        0
 91
        1
 62
     0
 92
       -2
340
14
 93
        0
 40
0.045
309
GRIDFORMAT_END
309
TABLEFORMAT_END
  1
CELLSTYLE_BEGIN
 90
        3
 91
        2
300
_DATA
309
CELLSTYLE_END
  0
ENDSEC
  0
EOF
