  0
SECTION
  2
HEADER
  9
$ACADVER
  1
AC1027
  9
$ACADMAINTVER
 70
   105
  9
$DWGCODEPAGE
  3
ANSI_1251
  9
$REQUIREDVERSIONS
160
                 0
  9
$INSBASE
 10
0.0
 20
0.0
 30
0.0
  9
$EXTMIN
 10
0.0
 20
0.0
 30
0.0
  9
$EXTMAX
 10
1420.0
 20
1297.0
 30
0.0
  9
$LIMMIN
 10
0.0
 20
0.0
  9
$LIMMAX
 10
1420.0
 20
1297.0
  9
$ORTHOMODE
 70
     0
  9
$REGENMODE
 70
     1
  9
$FILLMODE
 70
     1
  9
$QTEXTMODE
 70
     0
  9
$MIRRTEXT
 70
     1
  9
$LTSCALE
 40
1.0
  9
$ATTMODE
 70
     1
  9
$TEXTSIZE
 40
5.0
  9
$TRACEWID
 40
1.0
  9
$TEXTSTYLE
  7
Standard
  9
$CLAYER
  8
0
  9
$CELTYPE
  6
ByLayer
  9
$CECOLOR
 62
   256
  9
$CELTSCALE
 40
1.0
  9
$DISPSILH
 70
     0
  9
$DIMSCALE
 40
1.0
  9
$DIMASZ
 40
5.0
  9
$DIMEXO
 40
0.0
  9
$DIMDLI
 40
3.75
  9
$DIMRND
 40
0.0
  9
$DIMDLE
 40
0.0
  9
$DIMEXE
 40
1.0
  9
$DIMTP
 40
0.0
  9
$DIMTM
 40
0.0
  9
$DIMTXT
 40
3.5
  9
$DIMCEN
 40
2.5
  9
$DIMTSZ
 40
0.0
  9
$DIMTOL
 70
     0
  9
$DIMLIM
 70
     0
  9
$DIMTIH
 70
     1
  9
$DIMTOH
 70
     1
  9
$DIMSE1
 70
     0
  9
$DIMSE2
 70
     0
  9
$DIMTAD
 70
     1
  9
$DIMZIN
 70
     0
  9
$DIMBLK
  1

  9
$DIMASO
 70
     1
  9
$DIMSHO
 70
     1
  9
$DIMPOST
  1

  9
$DIMAPOST
  1

  9
$DIMALT
 70
     0
  9
$DIMALTD
 70
     3
  9
$DIMALTF
 40
0.0393700787
  9
$DIMLFAC
 40
1.0
  9
$DIMTOFL
 70
     1
  9
$DIMTVP
 40
0.0
  9
$DIMTIX
 70
     0
  9
$DIMSOXD
 70
     0
  9
$DIMSAH
 70
     0
  9
$DIMBLK1
  1

  9
$DIMBLK2
  1

  9
$DIMSTYLE
  2
ISO-25
  9
$DIMCLRD
 70
     0
  9
$DIMCLRE
 70
     0
  9
$DIMCLRT
 70
     0
  9
$DIMTFAC
 40
1.0
  9
$DIMGAP
 40
1.5
  9
$DIMJUST
 70
     0
  9
$DIMSD1
 70
     0
  9
$DIMSD2
 70
     0
  9
$DIMTOLJ
 70
     0
  9
$DIMTZIN
 70
     0
  9
$DIMALTZ
 70
     0
  9
$DIMALTTZ
 70
     0
  9
$DIMUPT
 70
     0
  9
$DIMDEC
 70
     1
  9
$DIMTDEC
 70
     1
  9
$DIMALTU
 70
     2
  9
$DIMALTTD
 70
     3
  9
$DIMTXSTY
  7
Standard
  9
$DIMAUNIT
 70
     0
  9
$DIMADEC
 70
     2
  9
$DIMALTRND
 40
0.0
  9
$DIMAZIN
 70
     0
  9
$DIMDSEP
 70
    44
  9
$DIMATFIT
 70
     3
  9
$DIMFRAC
 70
     0
  9
$DIMLDRBLK
  1

  9
$DIMLUNIT
 70
     2
  9
$DIMLWD
 70
    -2
  9
$DIMLWE
 70
    -2
  9
$DIMTMOVE
 70
     0
  9
$DIMFXL
 40
1.0
  9
$DIMFXLON
 70
     0
  9
$DIMJOGANG
 40
0.7853981634
  9
$DIMTFILL
 70
     0
  9
$DIMTFILLCLR
 70
     0
  9
$DIMARCSYM
 70
     0
  9
$DIMLTYPE
  6

  9
$DIMLTEX1
  6

  9
$DIMLTEX2
  6

  9
$DIMTXTDIRECTION
 70
     0
  9
$LUNITS
 70
     2
  9
$LUPREC
 70
     1
  9
$SKETCHINC
 40
1.0
  9
$FILLETRAD
 40
10.0
  9
$AUNITS
 70
     0
  9
$AUPREC
 70
     2
  9
$MENU
  1
.
  9
$ELEVATION
 40
0.0
  9
$PELEVATION
 40
0.0
  9
$THICKNESS
 40
0.0
  9
$LIMCHECK
 70
     0
  9
$CHAMFERA
 40
0.0
  9
$CHAMFERB
 40
0.0
  9
$CHAMFERC
 40
0.0
  9
$CHAMFERD
 40
0.0
  9
$SKPOLY
 70
     0
  9
$TDCREATE
 40
2459607.523440382
  9
$TDUCREATE
 40
2459607.398440382
  9
$TDUPDATE
 40
2459607.523440694
  9
$TDUUPDATE
 40
2459607.398440694
  9
$TDINDWG
 40
0.0000000116
  9
$TDUSRTIMER
 40
0.0000000116
  9
$USRTIMER
 70
     1
  9
$ANGBASE
 50
0.0
  9
$ANGDIR
 70
     0
  9
$PDMODE
 70
     0
  9
$PDSIZE
 40
-1.0
  9
$PLINEWID
 40
0.0
  9
$SPLFRAME
 70
     0
  9
$SPLINETYPE
 70
     6
  9
$SPLINESEGS
 70
     8
  9
$HANDSEED
  5
1F0
  9
$SURFTAB1
 70
     6
  9
$SURFTAB2
 70
     6
  9
$SURFTYPE
 70
     6
  9
$SURFU
 70
     6
  9
$SURFV
 70
     6
  9
$UCSBASE
  2

  9
$UCSNAME
  2

  9
$UCSORG
 10
0.0
 20
0.0
 30
0.0
  9
$UCSXDIR
 10
1.0
 20
0.0
 30
0.0
  9
$UCSYDIR
 10
0.0
 20
1.0
 30
0.0
  9
$UCSORTHOREF
  2

  9
$UCSORTHOVIEW
 70
     0
  9
$UCSORGTOP
 10
0.0
 20
0.0
 30
0.0
  9
$UCSORGBOTTOM
 10
0.0
 20
0.0
 30
0.0
  9
$UCSORGLEFT
 10
0.0
 20
0.0
 30
0.0
  9
$UCSORGRIGHT
 10
0.0
 20
0.0
 30
0.0
  9
$UCSORGFRONT
 10
0.0
 20
0.0
 30
0.0
  9
$UCSORGBACK
 10
0.0
 20
0.0
 30
0.0
  9
$PUCSBASE
  2

  9
$PUCSNAME
  2

  9
$PUCSORG
 10
0.0
 20
0.0
 30
0.0
  9
$PUCSXDIR
 10
1.0
 20
0.0
 30
0.0
  9
$PUCSYDIR
 10
0.0
 20
1.0
 30
0.0
  9
$PUCSORTHOREF
  2

  9
$PUCSORTHOVIEW
 70
     0
  9
$PUCSORGTOP
 10
0.0
 20
0.0
 30
0.0
  9
$PUCSORGBOTTOM
 10
0.0
 20
0.0
 30
0.0
  9
$PUCSORGLEFT
 10
0.0
 20
0.0
 30
0.0
  9
$PUCSORGRIGHT
 10
0.0
 20
0.0
 30
0.0
  9
$PUCSORGFRONT
 10
0.0
 20
0.0
 30
0.0
  9
$PUCSORGBACK
 10
0.0
 20
0.0
 30
0.0
  9
$USERI1
 70
     0
  9
$USERI2
 70
     0
  9
$USERI3
 70
     0
  9
$USERI4
 70
     0
  9
$USERI5
 70
     0
  9
$USERR1
 40
0.0
  9
$USERR2
 40
0.0
  9
$USERR3
 40
0.0
  9
$USERR4
 40
0.0
  9
$USERR5
 40
0.0
  9
$WORLDVIEW
 70
     1
  9
$SHADEDGE
 70
     3
  9
$SHADEDIF
 70
    70
  9
$TILEMODE
 70
     1
  9
$MAXACTVP
 70
    64
  9
$PINSBASE
 10
0.0
 20
0.0
 30
0.0
  9
$PLIMCHECK
 70
     0
  9
$PEXTMIN
 10
1.0000000000E+20
 20
1.0000000000E+20
 30
1.0000000000E+20
  9
$PEXTMAX
 10
-1.0000000000E+20
 20
-1.0000000000E+20
 30
-1.0000000000E+20
  9
$PLIMMIN
 10
0.0
 20
0.0
  9
$PLIMMAX
 10
420.0
 20
297.0
  9
$UNITMODE
 70
     0
  9
$VISRETAIN
 70
     1
  9
$PLINEGEN
 70
     0
  9
$PSLTSCALE
 70
     1
  9
$TREEDEPTH
 70
  3020
  9
$CMLSTYLE
  2
Standard
  9
$CMLJUST
 70
     0
  9
$CMLSCALE
 40
20.0
  9
$PROXYGRAPHICS
 70
     1
  9
$MEASUREMENT
 70
     1
  9
$CELWEIGHT
370
    -1
  9
$ENDCAPS
280
     0
  9
$JOINSTYLE
280
     0
  9
$LWDISPLAY
290
     1
  9
$INSUNITS
 70
     4
  9
$HYPERLINKBASE
  1

  9
$STYLESHEET
  1

  9
$XEDIT
290
     1
  9
$CEPSNTYPE
380
     0
  9
$PSTYLEMODE
290
     1
  9
$FINGERPRINTGUID
  2
{E049E1EC-0594-4D23-B45A-DF1C4086D6DD}
  9
$VERSIONGUID
  2
{FAEB1C32-E019-11D5-929B-00C0DF256EC4}
  9
$EXTNAMES
290
     1
  9
$PSVPSCALE
 40
0.0
  9
$OLESTARTUP
290
     0
  9
$SORTENTS
280
   127
  9
$INDEXCTL
280
     0
  9
$HIDETEXT
280
     1
  9
$XCLIPFRAME
280
     2
  9
$HALOGAP
280
     0
  9
$OBSCOLOR
 70
   257
  9
$OBSLTYPE
280
     0
  9
$INTERSECTIONDISPLAY
280
     0
  9
$INTERSECTIONCOLOR
 70
   257
  9
$DIMASSOC
280
     2
  9
$PROJECTNAME
  1

  9
$CAMERADISPLAY
290
     0
  9
$LENSLENGTH
 40
50.0
  9
$CAMERAHEIGHT
 40
0.0
  9
$STEPSPERSEC
 40
2.0
  9
$STEPSIZE
 40
6.0
  9
$3DDWFPREC
 40
2.0
  9
$PSOLWIDTH
 40
5.0
  9
$PSOLHEIGHT
 40
80.0
  9
$LOFTANG1
 40
1.5707963268
  9
$LOFTANG2
 40
1.5707963268
  9
$LOFTMAG1
 40
0.0
  9
$LOFTMAG2
 40
0.0
  9
$LOFTPARAM
 70
     7
  9
$LOFTNORMALS
280
     1
  9
$LATITUDE
 40
37.795
  9
$LONGITUDE
 40
-122.394
  9
$NORTHDIRECTION
 40
0.0
  9
$TIMEZONE
 70
 -8000
  9
$LIGHTGLYPHDISPLAY
280
     1
  9
$TILEMODELIGHTSYNCH
280
     1
  9
$CMATERIAL
347
44
  9
$SOLIDHIST
280
     0
  9
$SHOWHIST
280
     1
  9
$DWFFRAME
280
     2
  9
$DGNFRAME
280
     2
  9
$REALWORLDSCALE
290
     1
  9
$INTERFERECOLOR
 62
   256
  9
$CSHADOW
280
     0
  9
$SHADOWPLANELOCATION
 40
0.0
  0
ENDSEC
  0
SECTION
  2
CLASSES
  0
CLASS
  1
ACDBDICTIONARYWDFLT
  2
AcDbDictionaryWithDefault
  3
ObjectDBX Classes
 90
        0
 91
        4
280
     0
281
     0
  0
CLASS
  1
VISUALSTYLE
  2
AcDbVisualStyle
  3
ObjectDBX Classes
 90
     4095
 91
        4
280
     0
281
     0
  0
CLASS
  1
MATERIAL
  2
AcDbMaterial
  3
ObjectDBX Classes
 90
     1153
 91
        4
280
     0
281
     0
  0
CLASS
  1
SCALE
  2
AcDbScale
  3
ObjectDBX Classes
 90
     1153
 91
        4
280
     0
281
     0
  0
CLASS
  1
TABLESTYLE
  2
AcDbTableStyle
  3
ObjectDBX Classes
 90
     4095
 91
        4
280
     0
281
     0
  0
CLASS
  1
MLEADERSTYLE
  2
AcDbMLeaderStyle
  3
ACDB_MLEADERSTYLE_CLASS
 90
     4095
 91
        4
280
     0
281
     0
  0
CLASS
  1
SUN
  2
AcDbSun
  3
SCENEOE
 90
     1153
 91
        4
280
     0
281
     0
  0
CLASS
  1
DICTIONARYVAR
  2
AcDbDictionaryVar
  3
ObjectDBX Classes
 90
        0
 91
        4
280
     0
281
     0
  0
CLASS
  1
CELLSTYLEMAP
  2
AcDbCellStyleMap
  3
ObjectDBX Classes
 90
     1152
 91
        4
280
     0
281
     0
  0
ENDSEC
  0
SECTION
  2
TABLES
  0
TABLE
  2
VPORT
  5
8
330
0
100
AcDbSymbolTable
 70
     1
  0
VPORT
  5
29
330
8
100
AcDbSymbolTableRecord
100
AcDbViewportTableRecord
  2
*Active
 70
     0
 10
0.0
 20
0.0
 11
1.0
 21
1.0
 12
710.0
 22
648.5
 13
0.0
 23
0.0
 14
10.0
 24
10.0
 15
10.0
 25
10.0
 16
0.0
 26
0.0
 36
1.0
 17
0.0
 27
0.0
 37
0.0
 40
1297.0
 41
1.0948342328
 42
50.0
 43
0.0
 44
0.0
 50
0.0
 51
0.0
 71
     0
 72
  2000
 73
     1
 74
     3
 75
     0
 76
     0
 77
     0
 78
     0
281
     0
 65
     1
110
0.0
120
0.0
130
0.0
111
1.0
121
0.0
131
0.0
112
0.0
122
1.0
132
0.0
 79
     0
146
0.0
348
2F
 60
     3
 61
     5
292
     1
282
     1
141
0.0
142
0.0
 63
   250
361
6D
  0
ENDTAB
  0
TABLE
  2
LTYPE
  5
5
330
0
100
AcDbSymbolTable
 70
     8
  0
LTYPE
  5
14
330
5
100
AcDbSymbolTableRecord
100
AcDbLinetypeTableRecord
  2
ByBlock
 70
     0
  3

 72
    65
 73
     0
 40
0.0
  0
LTYPE
  5
15
330
5
100
AcDbSymbolTableRecord
100
AcDbLinetypeTableRecord
  2
ByLayer
 70
     0
  3

 72
    65
 73
     0
 40
0.0
  0
LTYPE
  5
16
330
5
100
AcDbSymbolTableRecord
100
AcDbLinetypeTableRecord
  2
Continuous
 70
     0
  3
Solid line
 72
    65
 73
     0
 40
0.0
  0
LTYPE
  5
6E
330
5
100
AcDbSymbolTableRecord
100
AcDbLinetypeTableRecord
  2
SLD-Сплошная
 70
     0
  3
SolidWorks Line Style
 72
    65
 73
     0
 40
0.0
  0
LTYPE
  5
6F
330
5
100
AcDbSymbolTableRecord
100
AcDbLinetypeTableRecord
  2
SLD-Штриховая
 70
     0
  3
SolidWorks Line Style
 72
    65
 73
     2
 40
1.905
 49
1.27
 74
     0
 49
-0.635
 74
     0
  0
LTYPE
  5
70
330
5
100
AcDbSymbolTableRecord
100
AcDbLinetypeTableRecord
  2
SLD-Штрихпункт.-с-двумя-точками
 70
     0
  3
SolidWorks Line Style
 72
    65
 73
     6
 40
12.7
 49
6.35
 74
     0
 49
-1.27
 74
     0
 49
1.27
 74
     0
 49
-1.27
 74
     0
 49
1.27
 74
     0
 49
-1.27
 74
     0
  0
LTYPE
  5
71
330
5
100
AcDbSymbolTableRecord
100
AcDbLinetypeTableRecord
  2
SLD-Штрихпункт.-утолщ.
 70
     0
  3
SolidWorks Line Style
 72
    65
 73
     4
 40
10.16
 49
6.35
 74
     0
 49
-1.27
 74
     0
 49
1.27
 74
     0
 49
-1.27
 74
     0
  0
LTYPE
  5
72
330
5
100
AcDbSymbolTableRecord
100
AcDbLinetypeTableRecord
  2
SLD-Осевая
 70
     0
  3
SolidWorks Line Style
 72
    65
 73
     4
 40
19.05
 49
15.24
 74
     0
 49
-1.27
 74
     0
 49
1.27
 74
     0
 49
-1.27
 74
     0
  0
LTYPE
  5
73
330
5
100
AcDbSymbolTableRecord
100
AcDbLinetypeTableRecord
  2
SLD-Сшитая
 70
     0
  3
SolidWorks Line Style
 72
    65
 73
     2
 40
0.635
 49
0.0
 74
     0
 49
-0.635
 74
     0
  0
LTYPE
  5
74
330
5
100
AcDbSymbolTableRecord
100
AcDbLinetypeTableRecord
  2
SLD-Тонкая-Толстая
 70
     0
  3
SolidWorks Line Style
 72
    65
 73
     2
 40
5.080508
 49
0.000508
 74
     0
 49
-5.08
 74
     0
  0
ENDTAB
  0
TABLE
  2
LAYER
  5
2
330
0
100
AcDbSymbolTable
 70
     5
  0
LAYER
  5
10
330
2
100
AcDbSymbolTableRecord
100
AcDbLayerTableRecord
  2
0
 70
     0
 62
     7
  6
Continuous
370
    -3
390
F
347
46
348
0
  0
LAYER
  5
75
330
2
100
AcDbSymbolTableRecord
100
AcDbLayerTableRecord
  2
ОСНОВНОЙ
 70
     0
 62
   236
  6
SLD-Сплошная
370
    35
390
F
347
46
348
0
  0
LAYER
  5
76
330
2
100
AcDbSymbolTableRecord
100
AcDbLayerTableRecord
  2
HELP
 70
     0
 62
   -57
  6
SLD-Сплошная
290
     0
370
    -3
390
F
347
46
348
0
  0
LAYER
  5
77
330
2
100
AcDbSymbolTableRecord
100
AcDbLayerTableRecord
  2
ТЕКСТ
 70
     0
 62
   150
  6
SLD-Сплошная
370
    -3
390
F
347
46
348
0
  0
LAYER
  5
78
330
2
100
AcDbSymbolTableRecord
100
AcDbLayerTableRecord
  2
ТОНКИЙ
 70
     0
 62
   174
  6
SLD-Сплошная
370
    -3
390
F
347
46
348
0
  0
ENDTAB
  0
TABLE
  2
STYLE
  5
3
330
0
100
AcDbSymbolTable
 70
     1
  0
STYLE
  5
11
330
3
100
AcDbSymbolTableRecord
100
AcDbTextStyleTableRecord
  2
Standard
 70
     0
 40
0.0
 41
1.0
 50
0.0
 71
     0
 42
5.0
  3
txt
  4

  0
ENDTAB
  0
TABLE
  2
VIEW
  5
6
330
0
100
AcDbSymbolTable
 70
     0
  0
ENDTAB
  0
TABLE
  2
UCS
  5
7
330
0
100
AcDbSymbolTable
 70
     0
  0
ENDTAB
  0
TABLE
  2
APPID
  5
9
330
0
100
AcDbSymbolTable
 70
     1
  0
APPID
  5
12
330
9
100
AcDbSymbolTableRecord
100
AcDbRegAppTableRecord
  2
ACAD
 70
     0
  0
ENDTAB
  0
TABLE
  2
DIMSTYLE
  5
A
330
0
100
AcDbSymbolTable
 70
     1
100
AcDbDimStyleTable
  0
DIMSTYLE
105
27
330
A
100
AcDbSymbolTableRecord
100
AcDbDimStyleTableRecord
  2
ISO-25
 70
     0
 41
2.5
 42
0.625
 43
3.75
 44
1.25
 73
     0
 74
     0
 77
     1
 78
     8
140
2.5
141
2.5
143
0.0393700787
147
0.625
171
     3
172
     1
178
     0
271
     2
272
     2
274
     3
278
    44
283
     0
284
     8
340
11
  0
ENDTAB
  0
TABLE
  2
BLOCK_RECORD
  5
1
330
0
100
AcDbSymbolTable
 70
     1
  0
BLOCK_RECORD
  5
1F
330
1
100
AcDbSymbolTableRecord
100
AcDbBlockTableRecord
  2
*Model_Space
340
22
 70
     0
280
     1
281
     0
  0
BLOCK_RECORD
  5
1B
330
1
100
AcDbSymbolTableRecord
100
AcDbBlockTableRecord
  2
*Paper_Space
340
1E
 70
     0
280
     1
281
     0
  0
BLOCK_RECORD
  5
23
330
1
100
AcDbSymbolTableRecord
100
AcDbBlockTableRecord
  2
*Paper_Space0
340
26
 70
     0
280
     1
281
     0
  0
ENDTAB
  0
ENDSEC
  0
SECTION
  2
BLOCKS
  0
BLOCK
  5
20
330
1F
100
AcDbEntity
  8
0
100
AcDbBlockBegin
  2
*Model_Space
 70
     0
 10
0.0
 20
0.0
 30
0.0
  3
*Model_Space
  1

  0
ENDBLK
  5
21
330
1F
100
AcDbEntity
  8
0
100
AcDbBlockEnd
  0
BLOCK
  5
1C
330
1B
100
AcDbEntity
 67
     1
  8
0
100
AcDbBlockBegin
  2
*Paper_Space
 70
     0
 10
0.0
 20
0.0
 30
0.0
  3
*Paper_Space
  1

  0
ENDBLK
  5
1D
330
1B
100
AcDbEntity
 67
     1
  8
0
100
AcDbBlockEnd
  0
BLOCK
  5
24
330
23
100
AcDbEntity
  8
0
100
AcDbBlockBegin
  2
*Paper_Space0
 70
     0
 10
0.0
 20
0.0
 30
0.0
  3
*Paper_Space0
  1

  0
ENDBLK
  5
25
330
23
100
AcDbEntity
  8
0
100
AcDbBlockEnd
  0
ENDSEC
  0
SECTION
  2
ENTITIES
  0
CIRCLE
  5
79
330
1F
100
AcDbEntity
  8
0
  6
SLD-Сплошная
 62
     7
370
    35
100
AcDbCircle
 10
-171.7186979222
 20
282.0695885154
 30
0.0
 40
2.050000000000011
  0
CIRCLE
  5
7A
330
1F
100
AcDbEntity
  8
0
  6
SLD-Сплошная
 62
     7
370
    35
100
AcDbCircle
 10
117.5634812842
 20
-416.3193718775
 30
0.0
 40
2.049999999999955
  0
SPLINE
  5
7B
330
1F
100
AcDbEntity
  8
0
  6
SLD-Сплошная
 62
     7
370
    35
100
AcDbSpline
210
0.0
220
0.0
230
1.0
 70
    24
 71
     3
 72
    10
 73
     6
 74
     0
 42
0.000000001
 43
0.00000001
 40
0.0
 40
0.0
 40
0.0
 40
0.0
 40
0.5
 40
0.5
 40
1.0
 40
1.0
 40
1.0
 40
1.0
 10
-304.0433363352585
 20
128.5317466667715
 30
0.0
 10
-304.2701118435563
 20
128.3049711584738
 30
0.0
 10
-304.47046215628
 20
128.10462084575
 30
0.0
 10
-304.7731223472901
 20
127.80196065474
 30
0.0
 10
-304.8751603511229
 20
127.699922650907
 30
0.0
 10
-304.9163986650483
 20
127.6586843369816
 30
0.0
  0
LINE
  5
7C
330
1F
100
AcDbEntity
  8
0
  6
SLD-Сплошная
 62
     7
370
    35
100
AcDbLine
 10
-303.7638663749
 20
128.8112166271
 30
0.0
 11
-304.0433363353
 21
128.5317466668
 31
0.0
  0
SPLINE
  5
7D
330
1F
100
AcDbEntity
  8
0
  6
SLD-Сплошная
 62
     7
370
    35
100
AcDbSpline
210
0.0
220
0.0
230
1.0
 70
    24
 71
     3
 72
     8
 73
     4
 74
     0
 42
0.000000001
 43
0.00000001
 40
0.0
 40
0.0
 40
0.0
 40
0.0
 40
1.0
 40
1.0
 40
1.0
 40
1.0
 10
-303.3819805791107
 20
129.1931024229194
 30
0.0
 10
-303.5105903483772
 20
129.0644926536529
 30
0.0
 10
-303.6391920304016
 20
128.9358909716285
 30
0.0
 10
-303.7638663749307
 20
128.8112166270993
 30
0.0
  0
LINE
  5
7E
330
1F
100
AcDbEntity
  8
0
  6
SLD-Сплошная
 62
     7
370
    35
100
AcDbLine
 10
-171.1530124972
 20
-3.035865659
 30
0.0
 11
-172.7086474158
 21
-4.5915005776
 31
0.0
  0
LINE
  5
7F
330
1F
100
AcDbEntity
  8
0
  6
SLD-Сплошная
 62
     7
370
    35
100
AcDbLine
 10
-304.9376154977
 20
127.6374675043
 30
0.0
 11
-172.7086474158
 21
-4.5915005776
 31
0.0
  0
SPLINE
  5
80
330
1F
100
AcDbEntity
  8
0
  6
SLD-Сплошная
 62
     7
370
    35
100
AcDbSpline
210
0.0
220
0.0
230
1.0
 70
    24
 71
     3
 72
     8
 73
     4
 74
     0
 42
0.000000001
 43
0.00000001
 40
0.0
 40
0.0
 40
0.0
 40
0.0
 40
1.0
 40
1.0
 40
1.0
 40
1.0
 10
-304.9323022157781
 20
127.642780786252
 30
0.0
 10
-304.9358423859667
 20
127.6392406160633
 30
0.0
 10
-304.9376154977211
 20
127.637467504309
 30
0.0
 10
-304.9376154977211
 20
127.637467504309
 30
0.0
  0
LINE
  5
81
330
1F
100
AcDbEntity
  8
0
  6
SLD-Сплошная
 62
     7
370
    35
100
AcDbLine
 10
-304.916398665
 20
127.658684337
 30
0.0
 11
-304.9323022158
 21
127.6427807862
 31
0.0
  0
LINE
  5
82
330
1F
100
AcDbEntity
  8
0
  6
SLD-Сплошная
 62
     7
370
    35
100
AcDbLine
 10
-85.8365187158
 20
-401.3193718775
 30
0.0
 11
-85.8365187158
 21
-214.3193718775
 31
0.0
  0
LINE
  5
83
330
1F
100
AcDbEntity
  8
0
  6
SLD-Сплошная
 62
     7
370
    35
100
AcDbLine
 10
-83.6365187158
 20
-214.3193718775
 30
0.0
 11
-85.8365187158
 21
-214.3193718775
 31
0.0
  0
LINE
  5
84
330
1F
100
AcDbEntity
  8
0
  6
SLD-Сплошная
 62
     7
370
    35
100
AcDbLine
 10
-83.6365187158
 20
-401.3193718775
 30
0.0
 11
-85.8365187158
 21
-401.3193718775
 31
0.0
  0
LINE
  5
85
330
1F
100
AcDbEntity
  8
0
  6
SLD-Сплошная
 62
     7
370
    35
100
AcDbLine
 10
318.7634812842
 20
-214.3193718775
 30
0.0
 11
320.9634812842
 21
-214.3193718775
 31
0.0
  0
LINE
  5
86
330
1F
100
AcDbEntity
  8
0
  6
SLD-Сплошная
 62
     7
370
    35
100
AcDbLine
 10
320.9634812842
 20
-401.3193718775
 30
0.0
 11
320.9634812842
 21
-214.3193718775
 31
0.0
  0
LINE
  5
87
330
1F
100
AcDbEntity
  8
0
  6
SLD-Сплошная
 62
     7
370
    35
100
AcDbLine
 10
320.9634812842
 20
-401.3193718775
 30
0.0
 11
318.7634812842
 21
-401.3193718775
 31
0.0
  0
ARC
  5
88
330
1F
100
AcDbEntity
  8
0
  6
SLD-Сплошная
 62
     7
370
    35
100
AcDbCircle
 10
-76.4365187158
 20
-426.3193718775
 30
0.0
 40
5.000000000000057
100
AcDbArc
 50
180.0
 51
270.0
  0
LINE
  5
89
330
1F
100
AcDbEntity
  8
0
  6
SLD-Сплошная
 62
     7
370
    35
100
AcDbLine
 10
-81.4365187158
 20
-426.3193718775
 30
0.0
 11
-81.4365187158
 21
-401.3193718775
 31
0.0
  0
LINE
  5
8A
330
1F
100
AcDbEntity
  8
0
  6
SLD-Сплошная
 62
     7
370
    35
100
AcDbLine
 10
-81.4365187158
 20
-214.3193718775
 30
0.0
 11
-83.6365187158
 21
-214.3193718775
 31
0.0
  0
ARC
  5
8B
330
1F
100
AcDbEntity
  8
0
  6
SLD-Сплошная
 62
     7
370
    35
100
AcDbCircle
 10
-81.4490810081
 20
-211.5694005706
 30
0.0
 40
2.749999999999987
100
AcDbArc
 50
270.2617341224
 51
90.7852023671
  0
ARC
  5
8C
330
1F
100
AcDbEntity
  8
0
  6
SLD-Сплошная
 62
     7
370
    35
100
AcDbCircle
 10
-382.4365187158
 20
-214.3193718775
 30
0.0
 40
301.0000000000001
100
AcDbArc
 50
1.0469364894
 51
43.9530635106
  0
ARC
  5
8D
330
1F
100
AcDbEntity
  8
0
  6
SLD-Сплошная
 62
     7
370
    35
100
AcDbCircle
 10
-167.6617371015
 20
-3.4336369817
 30
0.0
 40
2.750000000000008
100
AcDbArc
 50
314.2147976329
 51
134.7382658775
  0
LINE
  5
8E
330
1F
100
AcDbEntity
  8
0
  6
SLD-Сплошная
 62
     7
370
    35
100
AcDbLine
 10
-171.1530124972
 20
-3.035865659
 30
0.0
 11
-169.5973775786
 21
-1.4802307404
 31
0.0
  0
LINE
  5
8F
330
1F
100
AcDbEntity
  8
0
  6
SLD-Сплошная
 62
     7
370
    35
100
AcDbLine
 10
-301.8263456605
 20
130.7487373415
 30
0.0
 11
-319.5040151902
 21
148.4264068712
 31
0.0
  0
ARC
  5
90
330
1F
100
AcDbEntity
  8
0
  6
SLD-Сплошная
 62
     7
370
    35
100
AcDbCircle
 10
-315.9684812842
 20
151.9619407771
 30
0.0
 40
5.00000000000006
100
AcDbArc
 50
135.0
 51
225.0
  0
LINE
  5
91
330
1F
100
AcDbEntity
  8
0
  6
SLD-Сплошная
 62
     7
370
    35
100
AcDbLine
 10
-45.1465840898
 20
429.8549057834
 30
0.0
 11
-319.5040151902
 21
155.4974746831
 31
0.0
  0
ARC
  5
92
330
1F
100
AcDbEntity
  8
0
  6
SLD-Сплошная
 62
     7
370
    35
100
AcDbCircle
 10
-41.6110501838
 20
426.3193718775
 30
0.0
 40
4.99999999999999
100
AcDbArc
 50
45.0
 51
135.0
  0
LINE
  5
93
330
1F
100
AcDbEntity
  8
0
  6
SLD-Сплошная
 62
     7
370
    35
100
AcDbLine
 10
-38.0755162779
 20
429.8549057834
 30
0.0
 11
-20.3978467483
 21
412.1772362538
 31
0.0
  0
LINE
  5
94
330
1F
100
AcDbEntity
  8
0
  6
SLD-Сплошная
 62
     7
370
    35
100
AcDbLine
 10
111.8311213336
 20
279.9482681719
 30
0.0
 11
113.3867562522
 21
281.5039030905
 31
0.0
  0
ARC
  5
95
330
1F
100
AcDbEntity
  8
0
  6
SLD-Сплошная
 62
     7
370
    35
100
AcDbCircle
 10
113.771836116
 20
277.9999031821
 30
0.0
 40
2.750000000004666
100
AcDbArc
 50
134.8872936371
 51
314.6618809114
  0
ARC
  5
96
330
1F
100
AcDbEntity
  8
0
  6
SLD-Сплошная
 62
     7
370
    35
100
AcDbCircle
 10
-382.4365187158
 20
-214.3193718775
 30
0.0
 40
699.0000000000001
100
AcDbArc
 50
0.4508254514
 51
44.5491745486
  0
ARC
  5
97
330
1F
100
AcDbEntity
  8
0
  6
SLD-Сплошная
 62
     7
370
    35
100
AcDbCircle
 10
316.5580717706
 20
-211.569377198
 30
0.0
 40
2.750000000004592
100
AcDbArc
 50
90.3381190886
 51
270.1127063629
  0
LINE
  5
98
330
1F
100
AcDbEntity
  8
0
  6
SLD-Сплошная
 62
     7
370
    35
100
AcDbLine
 10
318.7634812842
 20
-214.3193718775
 30
0.0
 11
316.5634812842
 21
-214.3193718775
 31
0.0
  0
LINE
  5
99
330
1F
100
AcDbEntity
  8
0
  6
SLD-Сплошная
 62
     7
370
    35
100
AcDbLine
 10
316.5634812842
 20
-401.3193718775
 30
0.0
 11
316.5634812842
 21
-426.3193718775
 31
0.0
  0
ARC
  5
9A
330
1F
100
AcDbEntity
  8
0
  6
SLD-Сплошная
 62
     7
370
    35
100
AcDbCircle
 10
311.5634812842
 20
-426.3193718775
 30
0.0
 40
5.0
100
AcDbArc
 50
270.0
 51
0.0
  0
LINE
  5
9B
330
1F
100
AcDbEntity
  8
0
  6
SLD-Сплошная
 62
     7
370
    35
100
AcDbLine
 10
-76.4365187158
 20
-431.3193718775
 30
0.0
 11
311.5634812842
 21
-431.3193718775
 31
0.0
  0
LINE
  5
9C
330
1F
100
AcDbEntity
  8
0
  6
SLD-Сплошная
 62
     7
370
    35
100
AcDbLine
 10
-20.3978467483
 20
412.1772362538
 30
0.0
 11
-18.8422118296
 21
413.7328711724
 31
0.0
  0
LINE
  5
9D
330
1F
100
AcDbEntity
  8
0
  6
SLD-Сплошная
 62
     7
370
    35
100
AcDbLine
 10
318.7634812842
 20
-401.3193718775
 30
0.0
 11
316.5634812842
 21
-401.3193718775
 31
0.0
  0
LINE
  5
9E
330
1F
100
AcDbEntity
  8
0
  6
SLD-Сплошная
 62
     7
370
    35
100
AcDbLine
 10
-303.3819805791
 20
129.1931024229
 30
0.0
 11
-301.8263456605
 21
130.7487373415
 31
0.0
  0
LINE
  5
9F
330
1F
100
AcDbEntity
  8
0
  6
SLD-Сплошная
 62
     7
370
    35
100
AcDbLine
 10
-81.4365187158
 20
-401.3193718775
 30
0.0
 11
-83.6365187158
 21
-401.3193718775
 31
0.0
  0
LINE
  5
A0
330
1F
100
AcDbEntity
  8
0
  6
SLD-Сплошная
 62
     7
370
    35
100
AcDbLine
 10
113.3867562522
 20
281.5039030905
 30
0.0
 11
114.9423911709
 21
283.0595380091
 31
0.0
  0
LINE
  5
A1
330
1F
100
AcDbEntity
  8
0
  6
SLD-Сплошная
 62
     7
370
    35
100
AcDbLine
 10
-17.286576911
 20
415.288506091
 30
0.0
 11
114.9423911709
 21
283.0595380091
 31
0.0
  0
LINE
  5
A2
330
1F
100
AcDbEntity
  8
0
  6
SLD-Сплошная
 62
     7
370
    35
100
AcDbLine
 10
-17.286576911
 20
415.288506091
 30
0.0
 11
-18.8422118296
 21
413.7328711724
 31
0.0
  0
ARC
  5
A3
330
1F
100
AcDbEntity
  8
0
  6
SLD-Сплошная
 62
     7
370
    18
100
AcDbCircle
 10
117.5634812842
 20
-416.3193718775
 30
0.0
 40
2.256499999999949
100
AcDbArc
 50
255.0
 51
195.0
  0
ARC
  5
A4
330
1F
100
AcDbEntity
  8
0
  6
SLD-Сплошная
 62
     7
370
    35
100
AcDbCircle
 10
591.8866486348
 20
273.3240041032
 30
0.0
 40
0.3000000000001819
100
AcDbArc
 50
0.0
 51
45.0
  0
ARC
  5
A5
330
1F
100
AcDbEntity
  8
0
  6
SLD-Сплошная
 62
     7
370
    35
100
AcDbCircle
 10
591.8866486348
 20
290.8151729277
 30
0.0
 40
0.3000000000001819
100
AcDbArc
 50
315.0
 51
0.0
  0
LINE
  5
A6
330
1F
100
AcDbEntity
  8
0
  6
SLD-Сплошная
 62
     7
370
    35
100
AcDbLine
 10
592.0987806691
 20
273.5361361375
 30
0.0
 11
591.625988463
 21
274.0089283437
 31
0.0
  0
LINE
  5
A7
330
1F
100
AcDbEntity
  8
0
  6
SLD-Сплошная
 62
     7
370
    35
100
AcDbLine
 10
591.625988463
 20
290.1302486872
 30
0.0
 11
592.0987806691
 21
290.6030408934
 31
0.0
  0
ARC
  5
A8
330
1F
100
AcDbEntity
  8
0
  6
SLD-Сплошная
 62
     7
370
    35
100
AcDbCircle
 10
592.6866486348
 20
289.0695885154
 30
0.0
 40
1.500000000000012
100
AcDbArc
 50
135.0
 51
180.0
  0
ARC
  5
A9
330
1F
100
AcDbEntity
  8
0
  6
SLD-Сплошная
 62
     7
370
    35
100
AcDbCircle
 10
592.6866486348
 20
275.0695885154
 30
0.0
 40
1.499999999999972
100
AcDbArc
 50
180.0
 51
225.0
  0
LINE
  5
AA
330
1F
100
AcDbEntity
  8
0
  6
SLD-Сплошная
 62
     7
370
    35
100
AcDbLine
 10
608.1645688053
 20
-1.7899214389
 30
0.0
 11
607.3160406679
 21
-2.3899214389
 31
0.0
  0
LINE
  5
AB
330
1F
100
AcDbEntity
  8
0
  6
SLD-Сплошная
 62
     7
370
    35
100
AcDbLine
 10
593.9866486347
 20
278.8195885154
 30
0.0
 11
593.3866486348
 21
278.8195885154
 31
0.0
  0
LINE
  5
AC
330
1F
100
AcDbEntity
  8
0
  6
SLD-Сплошная
 62
     7
370
    35
100
AcDbLine
 10
593.3866486348
 20
285.3195885154
 30
0.0
 11
593.9866486347
 21
285.3195885154
 31
0.0
  0
LINE
  5
AD
330
1F
100
AcDbEntity
  8
0
  6
SLD-Сплошная
 62
     7
370
    35
100
AcDbLine
 10
592.1866486348
 20
431.3193718775
 30
0.0
 11
593.3866486348
 21
431.3193718775
 31
0.0
  0
LINE
  5
AE
330
1F
100
AcDbEntity
  8
0
  6
SLD-Сплошная
 62
     7
370
    35
100
AcDbLine
 10
607.3160406679
 20
413.0869269523
 30
0.0
 11
608.1645688053
 21
412.4869269523
 31
0.0
  0
LINE
  5
AF
330
1F
100
AcDbEntity
  8
0
  6
SLD-Сплошная
 62
     7
370
    35
100
AcDbLine
 10
604.053362353
 20
397.6835272709
 30
0.0
 11
604.0984911046
 21
397.6867371037
 31
0.0
  0
ARC
  5
B0
330
1F
100
AcDbEntity
  8
0
  6
SLD-Сплошная
 62
     7
370
    35
100
AcDbCircle
 10
591.8866486347
 20
-425.0649562898
 30
0.0
 40
0.3000000000001819
100
AcDbArc
 50
0.0
 51
45.0
  0
ARC
  5
B1
330
1F
100
AcDbEntity
  8
0
  6
SLD-Сплошная
 62
     7
370
    35
100
AcDbCircle
 10
591.8866486347
 20
-407.5737874652
 30
0.0
 40
0.3000000000001819
100
AcDbArc
 50
315.0
 51
0.0
  0
LINE
  5
B2
330
1F
100
AcDbEntity
  8
0
  6
SLD-Сплошная
 62
     7
370
    35
100
AcDbLine
 10
592.0987806691
 20
-424.8528242554
 30
0.0
 11
591.625988463
 21
-424.3800320493
 31
0.0
  0
LINE
  5
B3
330
1F
100
AcDbEntity
  8
0
  6
SLD-Сплошная
 62
     7
370
    35
100
AcDbLine
 10
591.625988463
 20
-408.2587117057
 30
0.0
 11
592.0987806691
 21
-407.7859194996
 31
0.0
  0
ARC
  5
B4
330
1F
100
AcDbEntity
  8
0
  6
SLD-Сплошная
 62
     7
370
    35
100
AcDbCircle
 10
592.6866486347
 20
-409.3193718775
 30
0.0
 40
1.499999999999972
100
AcDbArc
 50
135.0
 51
180.0
  0
ARC
  5
B5
330
1F
100
AcDbEntity
  8
0
  6
SLD-Сплошная
 62
     7
370
    35
100
AcDbCircle
 10
592.6866486347
 20
-423.3193718775
 30
0.0
 40
1.499999999999972
100
AcDbArc
 50
180.0
 51
225.0
  0
LINE
  5
B6
330
1F
100
AcDbEntity
  8
0
  6
SLD-Сплошная
 62
     7
370
    35
100
AcDbLine
 10
593.3866486348
 20
-413.0693718775
 30
0.0
 11
593.9866486349
 21
-413.0693718775
 31
0.0
  0
LINE
  5
B7
330
1F
100
AcDbEntity
  8
0
  6
SLD-Сплошная
 62
     7
370
    35
100
AcDbLine
 10
593.9866486349
 20
-419.5693718775
 30
0.0
 11
593.3866486348
 21
-419.5693718775
 31
0.0
  0
LINE
  5
B8
330
1F
100
AcDbEntity
  8
0
  6
SLD-Сплошная
 62
     7
370
    35
100
AcDbLine
 10
592.1866486348
 20
155.4974746831
 30
0.0
 11
592.1866486348
 21
148.4264068712
 31
0.0
  0
LINE
  5
B9
330
1F
100
AcDbEntity
  8
0
  6
SLD-Сплошная
 62
     7
370
    35
100
AcDbLine
 10
593.3866486348
 20
148.4264068712
 30
0.0
 11
593.3866486348
 21
155.4974746831
 31
0.0
  0
LINE
  5
BA
330
1F
100
AcDbEntity
  8
0
  6
SLD-Сплошная
 62
     7
370
    35
100
AcDbLine
 10
592.1866486348
 20
429.8549057834
 30
0.0
 11
592.1866486348
 21
155.4974746831
 31
0.0
  0
LINE
  5
BB
330
1F
100
AcDbEntity
  8
0
  6
SLD-Сплошная
 62
     7
370
    35
100
AcDbLine
 10
593.3866486348
 20
429.8549057834
 30
0.0
 11
593.3866486348
 21
155.4974746831
 31
0.0
  0
LINE
  5
BC
330
1F
100
AcDbEntity
  8
0
  6
SLD-Сплошная
 62
     7
370
    35
100
AcDbLine
 10
593.3866486348
 20
130.7487373415
 30
0.0
 11
592.1866486348
 21
130.7487373415
 31
0.0
  0
LINE
  5
BD
330
1F
100
AcDbEntity
  8
0
  6
SLD-Сплошная
 62
     7
370
    35
100
AcDbLine
 10
592.1866486348
 20
130.7487373415
 30
0.0
 11
592.1866486348
 21
148.4264068712
 31
0.0
  0
LINE
  5
BE
330
1F
100
AcDbEntity
  8
0
  6
SLD-Сплошная
 62
     7
370
    35
100
AcDbLine
 10
593.3866486348
 20
130.7487373415
 30
0.0
 11
593.3866486348
 21
148.4264068712
 31
0.0
  0
SPLINE
  5
BF
330
1F
100
AcDbEntity
  8
0
  6
SLD-Сплошная
 62
     7
370
    35
100
AcDbSpline
210
0.0
220
0.0
230
1.0
 70
     8
 71
     3
 72
    10
 73
     6
 74
     0
 42
0.000000001
 43
0.00000001
 40
0.0
 40
0.0
 40
0.0
 40
0.0
 40
0.5
 40
0.5
 40
1.0
 40
1.0
 40
1.0
 40
1.0
 10
592.3953633394223
 20
128.5317466667715
 30
0.0
 10
592.5459989998308
 20
128.3049711584738
 30
0.0
 10
592.7754499888182
 20
128.10462084575
 30
0.0
 10
593.3402287734871
 20
127.80196065474
 30
0.0
 10
593.6750492380824
 20
127.699922650907
 30
0.0
 10
594.0245405361761
 20
127.6586843369816
 30
0.0
  0
ARC
  5
C0
330
1F
100
AcDbEntity
  8
0
  6
SLD-Сплошная
 62
     7
370
    35
100
AcDbCircle
 10
593.4711180165
 20
129.2515187928
 30
0.0
 40
1.294341546386036
100
AcDbArc
 50
199.8875142555
 51
213.78591657
  0
SPLINE
  5
C1
330
1F
100
AcDbEntity
  8
0
  6
SLD-Сплошная
 62
     7
370
    35
100
AcDbSpline
210
0.0
220
0.0
230
1.0
 70
     8
 71
     3
 72
     8
 73
     4
 74
     0
 42
0.000000001
 43
0.00000001
 40
0.0
 40
0.0
 40
0.0
 40
0.0
 40
1.0
 40
1.0
 40
1.0
 40
1.0
 10
592.1866486348082
 20
129.1931024229194
 30
0.0
 10
592.1866486348082
 20
129.0644926536529
 30
0.0
 10
592.2093187369398
 20
128.9358909716285
 30
0.0
 10
592.2539680497458
 20
128.8112166270993
 30
0.0
  0
ARC
  5
C2
330
1F
100
AcDbEntity
  8
0
  6
SLD-Сплошная
 62
     7
370
    35
100
AcDbCircle
 10
594.1116486348
 20
-2.6469569293
 30
0.0
 40
1.963892817849213
100
AcDbArc
 50
191.421753659
 51
278.0494669755
  0
SPLINE
  5
C3
330
1F
100
AcDbEntity
  8
0
  6
SLD-Сплошная
 62
     7
370
    35
100
AcDbSpline
210
0.0
220
0.0
230
1.0
 70
     8
 71
     3
 72
     8
 73
     4
 74
     0
 42
0.000000001
 43
0.00000001
 40
0.0
 40
0.0
 40
0.0
 40
0.0
 40
1.0
 40
1.0
 40
1.0
 40
1.0
 10
594.2049740747777
 20
127.642780786252
 30
0.0
 10
594.2653942287066
 20
127.6392406160633
 30
0.0
 10
594.3260214081628
 20
127.637467504309
 30
0.0
 10
594.3866486348081
 20
127.637467504309
 30
0.0
  0
ARC
  5
C4
330
1F
100
AcDbEntity
  8
0
  6
SLD-Сплошная
 62
     7
370
    35
100
AcDbCircle
 10
594.3846156304
 20
130.7124068572
 30
0.0
 40
3.074878095808985
100
AcDbArc
 50
263.2751064116
 51
266.6507397124
  0
LINE
  5
C5
330
1F
100
AcDbEntity
  8
0
  6
SLD-Сплошная
 62
     7
370
    35
100
AcDbLine
 10
592.1866486348
 20
129.1931024229
 30
0.0
 11
592.1866486348
 21
-3.035865659
 31
0.0
  0
ARC
  5
C6
330
1F
100
AcDbEntity
  8
0
  6
SLD-Сплошная
 62
     7
370
    35
100
AcDbCircle
 10
594.2616486348
 20
129.3698791182
 30
0.0
 40
0.8926785535800694
100
AcDbArc
 50
191.421753659
 51
278.0494669746
  0
LINE
  5
C7
330
1F
100
AcDbEntity
  8
0
  6
SLD-Сплошная
 62
     7
370
    35
100
AcDbLine
 10
599.7724350724
 20
128.4859956417
 30
0.0
 11
594.3866486348
 21
128.4859956417
 31
0.0
  0
LINE
  5
C8
330
1F
100
AcDbEntity
  8
0
  6
SLD-Сплошная
 62
     7
370
    35
100
AcDbLine
 10
599.7724350724
 20
127.6374675043
 30
0.0
 11
594.3866486348
 21
127.6374675043
 31
0.0
  0
LINE
  5
C9
330
1F
100
AcDbEntity
  8
0
  6
SLD-Сплошная
 62
     7
370
    35
100
AcDbLine
 10
594.3866486348
 20
-4.5915005776
 30
0.0
 11
599.7724350724
 21
-4.5915005776
 31
0.0
  0
LINE
  5
CA
330
1F
100
AcDbEntity
  8
0
  6
SLD-Сплошная
 62
     7
370
    35
100
AcDbLine
 10
599.7724350724
 20
113.6037820678
 30
0.0
 11
599.7724350724
 21
113.3868816934
 31
0.0
  0
SPLINE
  5
CB
330
1F
100
AcDbEntity
  8
0
  6
SLD-Сплошная
 62
     7
370
    35
100
AcDbSpline
210
0.0
220
0.0
230
1.0
 70
     8
 71
     3
 72
    26
 73
    22
 74
     0
 42
0.000000001
 43
0.00000001
 40
0.0
 40
0.0
 40
0.0
 40
0.0
 40
0.0526315789473925
 40
0.105263157894726
 40
0.1578947368420936
 40
0.2105263157894531
 40
0.2631578947368404
 40
0.315789473684205
 40
0.3684210526315833
 40
0.4210526315789449
 40
0.4736842105263581
 40
0.5263157894737102
 40
0.5789473684210643
 40
0.6315789473684315
 40
0.6842105263158049
 40
0.7368421052631674
 40
0.7894736842105294
 40
0.8421052631579025
 40
0.8947368421052985
 40
0.9473684210526578
 40
1.0
 40
1.0
 40
1.0
 40
1.0
 10
601.3280699910455
 20
128.0931024229194
 30
0.0
 10
601.3063792123756
 20
128.0781265067737
 30
0.0
 10
601.262997655036
 20
128.0481746744824
 30
0.0
 10
601.194666568881
 20
128.0057065812686
 30
0.0
 10
601.1240964438149
 20
127.965132203998
 30
0.0
 10
601.0511658979733
 20
127.9266919476131
 30
0.0
 10
600.9760643622076
 20
127.8904056447549
 30
0.0
 10
600.8989027750222
 20
127.856347573231
 30
0.0
 10
600.8198176202961
 20
127.824572629508
 30
0.0
 10
600.7389427664926
 20
127.7951359819842
 30
0.0
 10
600.6564167211285
 20
127.7680876880959
 30
0.0
 10
600.5723803890227
 20
127.7434740162882
 30
0.0
 10
600.486977368833
 20
127.7213370256339
 30
0.0
 10
600.4003535637572
 20
127.7017144518117
 30
0.0
 10
600.3126569708362
 20
127.6846401526272
 30
0.0
 10
600.2240374177663
 20
127.6701420523632
 30
0.0
 10
600.1346463096909
 20
127.6582495752952
 30
0.0
 10
600.0446363697856
 20
127.6489656683349
 30
0.0
 10
599.9541613785317
 20
127.6423710231125
 30
0.0
 10
599.8633759109318
 20
127.6382349567304
 30
0.0
 10
599.8027486852673
 20
127.6377233217828
 30
0.0
 10
599.7724350724351
 20
127.637467504309
 30
0.0
  0
ARC
  5
CC
330
1F
100
AcDbEntity
  8
0
  6
SLD-Сплошная
 62
     7
370
    35
100
AcDbCircle
 10
599.7940404852
 20
129.7228903203
 30
0.0
 40
1.237083359987627
100
AcDbArc
 50
268.9992898244
 51
303.6506100472
  0
SPLINE
  5
CD
330
1F
100
AcDbEntity
  8
0
  6
SLD-Сплошная
 62
     7
370
    35
100
AcDbSpline
210
0.0
220
0.0
230
1.0
 70
     8
 71
     3
 72
    16
 73
    12
 74
     0
 42
0.000000001
 43
0.00000001
 40
0.0
 40
0.0
 40
0.0
 40
0.0
 40
0.1250000000000147
 40
0.1250000000000147
 40
0.2500000000000293
 40
0.2500000000000293
 40
0.5000000000000195
 40
0.5000000000000195
 40
0.7500000000000098
 40
0.7500000000000098
 40
1.0
 40
1.0
 40
1.0
 40
1.0
 10
599.7724350724351
 20
113.6037820677567
 30
0.0
 10
599.7882111250602
 20
113.6862316400148
 30
0.0
 10
599.8044468422371
 20
113.7686046702989
 30
0.0
 10
599.8670721457418
 20
113.929125510544
 30
0.0
 10
599.9111700811652
 20
114.0085157975312
 30
0.0
 10
600.0653189436292
 20
114.2423575608466
 30
0.0
 10
600.20039837495
 20
114.3912270959756
 30
0.0
 10
600.5077402600335
 20
114.6966423863452
 30
0.0
 10
600.6744806199991
 20
114.8484734337945
 30
0.0
 10
601.0124357274544
 20
115.1737060231925
 30
0.0
 10
601.1773769226673
 20
115.3402431699814
 30
0.0
 10
601.3280699910455
 20
115.5193199084433
 30
0.0
  0
LINE
  5
CE
330
1F
100
AcDbEntity
  8
0
  6
SLD-Сплошная
 62
     7
370
    35
100
AcDbLine
 10
603.7928932189
 20
129.8359956417
 30
0.0
 11
601.3280699911
 21
128.0931024229
 31
0.0
  0
ARC
  5
CF
330
1F
100
AcDbEntity
  8
0
  6
SLD-Сплошная
 62
     7
370
    35
100
AcDbCircle
 10
603.9905728336
 20
114.1289663758
 30
0.0
 40
3.003665149844839
100
AcDbArc
 50
93.7735231058
 51
152.4265286421
  0
LINE
  5
D0
330
1F
100
AcDbEntity
  8
0
  6
SLD-Сплошная
 62
     7
370
    35
100
AcDbLine
 10
602.9443650814
 20
130.4359956417
 30
0.0
 11
600.4795418536
 21
128.6931024229
 31
0.0
  0
LINE
  5
D1
330
1F
100
AcDbEntity
  8
0
  6
SLD-Сплошная
 62
     7
370
    35
100
AcDbLine
 10
592.1866486348
 20
129.1931024229
 30
0.0
 11
592.1866486348
 21
130.7487373415
 31
0.0
  0
LINE
  5
D2
330
1F
100
AcDbEntity
  8
0
  6
SLD-Сплошная
 62
     7
370
    35
100
AcDbLine
 10
593.3866486348
 20
129.1931024229
 30
0.0
 11
593.3866486348
 21
130.7487373415
 31
0.0
  0
LWPOLYLINE
  5
D3
330
1F
100
AcDbEntity
  8
0
  6
SLD-Сплошная
 62
     7
370
    35
100
AcDbPolyline
 90
        9
 70
   128
 43
0.0
 10
607.9648232279
 20
-0.8074385342
 10
607.9146781901
 20
-1.3653308192
 10
607.7656655069
 20
-1.8364819624
 10
607.5220121192
 20
-2.2075271409
 10
607.1906295762
 20
-2.4679411698
 10
606.7809179803
 20
-2.610337062
 10
606.3044993404
 20
-2.6306755706
 10
605.7748878987
 20
-2.528379767
 10
605.2071067812
 20
-2.3063514064
  0
LINE
  5
D4
330
1F
100
AcDbEntity
  8
0
  6
SLD-Сплошная
 62
     7
370
    35
100
AcDbLine
 10
607.9648232279
 20
124.3504617358
 30
0.0
 11
607.9648232279
 21
-0.8074385342
 31
0.0
  0
ARC
  5
D5
330
1F
100
AcDbEntity
  8
0
  6
SLD-Сплошная
 62
     7
370
    35
100
AcDbCircle
 10
599.7250405324
 20
123.5454192656
 30
0.0
 40
8.27901638161899
100
AcDbArc
 50
5.5801962512
 51
48.5348819782
  0
SPLINE
  5
D6
330
1F
100
AcDbEntity
  8
0
  6
SLD-Сплошная
 62
     7
370
    35
100
AcDbSpline
210
0.0
220
0.0
230
1.0
 70
     8
 71
     3
 72
    14
 73
    10
 74
     0
 42
0.000000001
 43
0.00000001
 40
0.0
 40
0.0
 40
0.0
 40
0.0
 40
0.25
 40
0.25
 40
0.5
 40
0.5
 40
0.75
 40
0.75
 40
1.0
 40
1.0
 40
1.0
 40
1.0
 10
603.7928932188695
 20
129.8352884642509
 30
0.0
 10
603.8867738275924
 20
129.9016720792946
 30
0.0
 10
603.9975083311499
 20
129.9534511317722
 30
0.0
 10
604.2410298632869
 20
130.0218149466978
 30
0.0
 10
604.372772536528
 20
130.0375669690469
 30
0.0
 10
604.6344728260768
 20
130.0264772688752
 30
0.0
 10
604.7661355104675
 20
129.999208469837
 30
0.0
 10
605.0055062429346
 20
129.9037078181507
 30
0.0
 10
605.1155384814982
 20
129.8347741512027
 30
0.0
 10
605.207106781231
 20
129.7493746079833
 30
0.0
  0
ARC
  5
D7
330
1F
100
AcDbEntity
  8
0
  6
SLD-Сплошная
 62
     7
370
    35
100
AcDbCircle
 10
600.5735686699
 20
124.1454192655
 30
0.0
 40
8.279016381544473
100
AcDbArc
 50
5.5801962511
 51
48.5348819785
  0
SPLINE
  5
D8
330
1F
100
AcDbEntity
  8
0
  6
SLD-Сплошная
 62
     7
370
    35
100
AcDbSpline
210
0.0
220
0.0
230
1.0
 70
     8
 71
     3
 72
    10
 73
     6
 74
     0
 42
0.000000001
 43
0.00000001
 40
0.0
 40
0.0
 40
0.0
 40
0.0
 40
0.5
 40
0.5
 40
1.0
 40
1.0
 40
1.0
 40
1.0
 10
606.0556349186494
 20
130.3493746079221
 30
0.0
 10
605.9212024003127
 20
130.4747507008858
 30
0.0
 10
605.77099081093
 20
130.5784931235694
 30
0.0
 10
605.4383106629418
 20
130.743413565296
 30
0.0
 10
605.2576922093203
 20
130.8029478130043
 30
0.0
 10
605.0694092874259
 20
130.8386221860033
 30
0.0
  0
SPLINE
  5
D9
330
1F
100
AcDbEntity
  8
0
  6
SLD-Сплошная
 62
     7
370
    35
100
AcDbSpline
210
0.0
220
0.0
230
1.0
 70
     8
 71
     3
 72
     8
 73
     4
 74
     0
 42
0.000000001
 43
0.00000001
 40
0.0
 40
0.0
 40
0.0
 40
0.0
 40
1.0
 40
1.0
 40
1.0
 40
1.0
 10
603.7928932188595
 20
117.1261195420927
 30
0.0
 10
603.828190402136
 20
117.1017615881942
 30
0.0
 10
603.8662622664335
 20
117.0755385534843
 30
0.0
 10
603.9027751901939
 20
117.0433236161022
 30
0.0
  0
SPLINE
  5
DA
330
1F
100
AcDbEntity
  8
0
  6
SLD-Сплошная
 62
     7
370
    35
100
AcDbSpline
210
0.0
220
0.0
230
1.0
 70
     8
 71
     3
 72
     9
 73
     5
 74
     0
 42
0.000000001
 43
0.00000001
 40
0.0
 40
0.0
 40
0.0
 40
0.0
 40
0.5177941431462473
 40
1.0
 40
1.0
 40
1.0
 40
1.0
 10
604.0104858405913
 20
116.9279071461989
 30
0.0
 10
603.9926039203672
 20
116.9496422877665
 30
0.0
 10
603.958069114478
 20
116.9916187022456
 30
0.0
 10
603.9207639560694
 20
117.0265024625665
 30
0.0
 10
603.9027751901939
 20
117.0433236161022
 30
0.0
  0
SPLINE
  5
DB
330
1F
100
AcDbEntity
  8
0
  6
SLD-Сплошная
 62
     7
370
    35
100
AcDbSpline
210
0.0
220
0.0
230
1.0
 70
     8
 71
     3
 72
    18
 73
    14
 74
     0
 42
0.000000001
 43
0.00000001
 40
0.0
 40
0.0
 40
0.0
 40
0.0
 40
0.2500000000000157
 40
0.2500000000000157
 40
0.5000000000000313
 40
0.5000000000000313
 40
0.6250000000000234
 40
0.6250000000000234
 40
0.7500000000000157
 40
0.7500000000000157
 40
0.8750000000000078
 40
0.8750000000000078
 40
1.0
 40
1.0
 40
1.0
 40
1.0
 10
604.0104858405913
 20
116.9279071461989
 30
0.0
 10
604.1327382628344
 20
116.7741979994853
 30
0.0
 10
604.2254778886078
 20
116.5782090685422
 30
0.0
 10
604.3348599199167
 20
116.1543411201503
 30
0.0
 10
604.3515484903992
 20
115.9322411779882
 30
0.0
 10
604.3205442644003
 20
115.5943737979044
 30
0.0
 10
604.3005748425779
 20
115.4800688327969
 30
0.0
 10
604.242415038216
 20
115.251715946278
 30
0.0
 10
604.2041831646869
 20
115.1370795543142
 30
0.0
 10
604.1103257807496
 20
114.9020734384144
 30
0.0
 10
604.0540362251452
 20
114.7807055476578
 30
0.0
 10
603.9293735825698
 20
114.5291599431632
 30
0.0
 10
603.8603187575491
 20
114.3996803435689
 30
0.0
 10
603.7928932188595
 20
114.2616004939108
 30
0.0
  0
SPLINE
  5
DC
330
1F
100
AcDbEntity
  8
0
  6
SLD-Сплошная
 62
     7
370
    35
100
AcDbSpline
210
0.0
220
0.0
230
1.0
 70
     8
 71
     3
 72
    14
 73
    10
 74
     0
 42
0.000000001
 43
0.00000001
 40
0.0
 40
0.0
 40
0.0
 40
0.0
 40
0.25
 40
0.25
 40
0.5
 40
0.5
 40
0.75
 40
0.75
 40
1.0
 40
1.0
 40
1.0
 40
1.0
 10
605.2071067812254
 20
-2.306351406420687
 30
0.0
 10
605.1155502462987
 20
-2.262259483986562
 30
0.0
 10
605.0070192271952
 20
-2.227111094726231
 30
0.0
 10
604.766290958161
 20
-2.180647848759487
 30
0.0
 10
604.63529141967
 20
-2.169950373064944
 30
0.0
 10
604.3735069180163
 20
-2.179581404054415
 30
0.0
 10
604.2411906674567
 20
-2.200226102409997
 30
0.0
 10
603.9990223844716
 20
-2.27308246856564
 30
0.0
 10
603.8867743601683
 20
-2.325881271001362
 30
0.0
 10
603.7928932188595
 20
-2.39226526264627
 30
0.0
  0
ARC
  5
DD
330
1F
100
AcDbEntity
  8
0
  6
SLD-Сплошная
 62
     7
370
    35
100
AcDbCircle
 10
604.4971999422
 20
128.0494609442
 30
0.0
 40
2.84725200280703
100
AcDbArc
 50
78.4063716763
 51
123.0506488541
  0
LINE
  5
DE
330
1F
100
AcDbEntity
  8
0
  6
SLD-Сплошная
 62
     7
370
    35
100
AcDbLine
 10
608.8133513653
 20
124.9504617357
 30
0.0
 11
608.8133513653
 21
-0.2074385342
 31
0.0
  0
SPLINE
  5
DF
330
1F
100
AcDbEntity
  8
0
  6
SLD-Сплошная
 62
     7
370
    35
100
AcDbSpline
210
0.0
220
0.0
230
1.0
 70
     8
 71
     3
 72
    10
 73
     6
 74
     0
 42
0.000000001
 43
0.00000001
 40
0.0
 40
0.0
 40
0.0
 40
0.0
 40
0.2565560513080826
 40
0.5898555227479653
 40
1.0
 40
1.0
 40
1.0
 40
1.0
 10
601.0588433439422
 20
112.3535399350551
 30
0.0
 10
601.0828031536453
 20
112.3541167893352
 30
0.0
 10
601.1378898530444
 20
112.3554430518856
 30
0.0
 10
601.2291042090666
 20
112.3647901480795
 30
0.0
 10
601.2928838986725
 20
112.3762767441978
 30
0.0
 10
601.3280699910455
 20
112.3826136899334
 30
0.0
  0
LINE
  5
E0
330
1F
100
AcDbEntity
  8
0
  6
SLD-Сплошная
 62
     7
370
    35
100
AcDbLine
 10
601.3280699911
 20
112.3826136899
 30
0.0
 11
600.4795418536
 21
112.9826136899
 31
0.0
  0
SPLINE
  5
E1
330
1F
100
AcDbEntity
  8
0
  6
SLD-Сплошная
 62
     7
370
    35
100
AcDbSpline
210
0.0
220
0.0
230
1.0
 70
     8
 71
     3
 72
     9
 73
     5
 74
     0
 42
0.000000001
 43
0.00000001
 40
0.0
 40
0.0
 40
0.0
 40
0.0
 40
0.5099081270965575
 40
1.0
 40
1.0
 40
1.0
 40
1.0
 10
600.4795418536216
 20
112.9826136899333
 30
0.0
 10
600.3648924907902
 20
113.0435508237462
 30
0.0
 10
600.1400493146593
 20
113.1630569280317
 30
0.0
 10
600.016718406242
 20
113.4539390476011
 30
0.0
 10
599.9562749303489
 20
113.5964980103749
 30
0.0
  0
SPLINE
  5
E2
330
1F
100
AcDbEntity
  8
0
  6
SLD-Сплошная
 62
     7
370
    35
100
AcDbSpline
210
0.0
220
0.0
230
1.0
 70
     8
 71
     3
 72
    14
 73
    10
 74
     0
 42
0.000000001
 43
0.00000001
 40
0.0
 40
0.0
 40
0.0
 40
0.0
 40
0.2500000000000007
 40
0.2500000000000007
 40
0.5000000000000014
 40
0.5000000000000014
 40
0.7500000000000007
 40
0.7500000000000007
 40
1.0
 40
1.0
 40
1.0
 40
1.0
 10
599.7724350724351
 20
113.3868816933983
 30
0.0
 10
599.7887020552939
 20
113.2667371608796
 30
0.0
 10
599.8256449350167
 20
113.1502503260091
 30
0.0
 10
599.9439951908109
 20
112.9299191455785
 30
0.0
 10
600.0237126295981
 20
112.8274360577974
 30
0.0
 10
600.2096560514088
 20
112.6499676270822
 30
0.0
 10
600.3175758161196
 20
112.5734553593386
 30
0.0
 10
600.5444999302764
 20
112.454494131337
 30
0.0
 10
600.6642628262701
 20
112.4112146360621
 30
0.0
 10
600.7860571273667
 20
112.3844214424299
 30
0.0
  0
SPLINE
  5
E3
330
1F
100
AcDbEntity
  8
0
  6
SLD-Сплошная
 62
     7
370
    35
100
AcDbSpline
210
0.0
220
0.0
230
1.0
 70
     8
 71
     3
 72
     8
 73
     4
 74
     0
 42
0.000000001
 43
0.00000001
 40
0.0
 40
0.0
 40
0.0
 40
0.0
 40
1.0
 40
1.0
 40
1.0
 40
1.0
 10
601.058843343942
 20
112.353539935055
 30
0.0
 10
600.9689537523308
 20
112.3535800632399
 30
0.0
 10
600.8777662796385
 20
112.3642465980199
 30
0.0
 10
600.7860571273667
 20
112.38442144243
 30
0.0
  0
ARC
  5
E4
330
1F
100
AcDbEntity
  8
0
  6
SLD-Сплошная
 62
     7
370
    35
100
AcDbCircle
 10
599.7842114941
 20
-1.6367674425
 30
0.0
 40
2.95475660311705
100
AcDbArc
 50
269.7716424283
 51
289.9769026646
  0
SPLINE
  5
E5
330
1F
100
AcDbEntity
  8
0
  6
SLD-Сплошная
 62
     7
370
    35
100
AcDbSpline
210
0.0
220
0.0
230
1.0
 70
     8
 71
     3
 72
     8
 73
     4
 74
     0
 42
0.000000001
 43
0.00000001
 40
0.0
 40
0.0
 40
0.0
 40
0.0
 40
1.0
 40
1.0
 40
1.0
 40
1.0
 10
601.3280699910555
 20
-4.135158481466616
 30
0.0
 10
601.1699148975085
 20
-4.246991020592949
 30
0.0
 10
600.991785173048
 20
-4.340321752394017
 30
0.0
 10
600.7936783881526
 20
-4.413737585180655
 30
0.0
  0
LINE
  5
E6
330
1F
100
AcDbEntity
  8
0
  6
SLD-Сплошная
 62
     7
370
    35
100
AcDbLine
 10
603.7928932189
 20
114.2616004939
 30
0.0
 11
602.9443650814
 21
114.8616004939
 31
0.0
  0
SPLINE
  5
E7
330
1F
100
AcDbEntity
  8
0
  6
SLD-Сплошная
 62
     7
370
    35
100
AcDbSpline
210
0.0
220
0.0
230
1.0
 70
     8
 71
     3
 72
    12
 73
     8
 74
     0
 42
0.000000001
 43
0.00000001
 40
0.0
 40
0.0
 40
0.0
 40
0.0
 40
0.0940368505831762
 40
0.307074333964374
 40
0.5368812386886366
 40
0.8216162182917118
 40
1.0
 40
1.0
 40
1.0
 40
1.0
 10
604.0930310064948
 20
116.9486308948078
 30
0.0
 10
604.1146716114173
 20
116.8893305454803
 30
0.0
 10
604.1853383160332
 20
116.6956871475928
 30
0.0
 10
604.082397750238
 20
116.3130441852321
 30
0.0
 10
603.7747411509039
 20
115.8193058706202
 30
0.0
 10
603.332249575325
 20
115.3407894741128
 30
0.0
 10
603.0522248298324
 20
114.9948494472805
 30
0.0
 10
602.9443650814356
 20
114.8616004939108
 30
0.0
  0
ARC
  5
E8
330
1F
100
AcDbEntity
  8
0
  6
SLD-Сплошная
 62
     7
370
    35
100
AcDbCircle
 10
600.6666833025
 20
115.8063597939
 30
0.0
 40
3.487043122189299
100
AcDbArc
 50
280.9335133477
 51
333.7045645422
  0
LINE
  5
E9
330
1F
100
AcDbEntity
  8
0
  6
SLD-Сплошная
 62
     7
370
    35
100
AcDbLine
 10
603.7928932189
 20
-2.3922652626
 30
0.0
 11
601.3280699911
 21
-4.1351584815
 31
0.0
  0
ARC
  5
EA
330
1F
100
AcDbEntity
  8
0
  6
SLD-Сплошная
 62
     7
370
    35
100
AcDbCircle
 10
599.8181551651
 20
116.4063597939
 30
0.0
 40
3.487043122189388
100
AcDbArc
 50
280.9335133477
 51
333.7045645422
  0
LINE
  5
EB
330
1F
100
AcDbEntity
  8
0
  6
SLD-Сплошная
 62
     7
370
    35
100
AcDbLine
 10
591.1866486348
 20
289.0695876723
 30
0.0
 11
591.1866486348
 21
275.0695885154
 31
0.0
  0
ARC
  5
EC
330
1F
100
AcDbEntity
  8
0
  6
SLD-Сплошная
 62
     7
370
    35
100
AcDbCircle
 10
606.994003141
 20
-0.3857811106
 30
0.0
 40
1.82806838924927
100
AcDbArc
 50
309.816375375
 51
5.5985627458
  0
LINE
  5
ED
330
1F
100
AcDbEntity
  8
0
  6
SLD-Сплошная
 62
     7
370
    35
100
AcDbLine
 10
593.9866486347
 20
278.8195885154
 30
0.0
 11
593.9866486347
 21
285.3195885154
 31
0.0
  0
LINE
  5
EE
330
1F
100
AcDbEntity
  8
0
  6
SLD-Сплошная
 62
     7
370
    35
100
AcDbLine
 10
592.1866486348
 20
-5.4046459356
 30
0.0
 11
593.3866486348
 21
-5.4046459356
 31
0.0
  0
LINE
  5
EF
330
1F
100
AcDbEntity
  8
0
  6
SLD-Сплошная
 62
     7
370
    35
100
AcDbLine
 10
592.1866486348
 20
-5.4046459356
 30
0.0
 11
592.1866486348
 21
-3.035865659
 31
0.0
  0
LINE
  5
F0
330
1F
100
AcDbEntity
  8
0
  6
SLD-Сплошная
 62
     7
370
    35
100
AcDbLine
 10
593.3866486348
 20
-5.4046459356
 30
0.0
 11
593.3866486348
 21
-4.421506305
 31
0.0
  0
LINE
  5
F1
330
1F
100
AcDbEntity
  8
0
  6
SLD-Сплошная
 62
     7
370
    35
100
AcDbLine
 10
592.1866486348
 20
-208.8196588048
 30
0.0
 11
593.3866486348
 21
-208.8196588048
 31
0.0
  0
LINE
  5
F2
330
1F
100
AcDbEntity
  8
0
  6
SLD-Сплошная
 62
     7
370
    35
100
AcDbLine
 10
592.1866486348
 20
-5.4046459356
 30
0.0
 11
592.1866486348
 21
-208.8196588048
 31
0.0
  0
LINE
  5
F3
330
1F
100
AcDbEntity
  8
0
  6
SLD-Сплошная
 62
     7
370
    35
100
AcDbLine
 10
593.3866486348
 20
-5.4046459356
 30
0.0
 11
593.3866486348
 21
-208.8196588048
 31
0.0
  0
SPLINE
  5
F4
330
1F
100
AcDbEntity
  8
0
  6
SLD-Сплошная
 62
     7
370
    35
100
AcDbSpline
210
0.0
220
0.0
230
1.0
 70
     8
 71
     3
 72
     9
 73
     5
 74
     0
 42
0.000000001
 43
0.00000001
 40
0.8577255279202609
 40
0.8577255279202609
 40
0.8577255279202609
 40
0.8577255279202609
 40
0.9673841945286347
 40
1.0
 40
1.0
 40
1.0
 40
1.0
 10
601.3280699910454
 20
-383.5373581152028
 30
0.0
 10
601.2599425762455
 20
-383.4908644610807
 30
0.0
 10
601.1715520069035
 20
-383.4305421874303
 30
0.0
 10
601.0800360756772
 20
-383.3648387619189
 30
0.0
 10
601.0588433439442
 20
-383.3494096250058
 30
0.0
  0
SPLINE
  5
F5
330
1F
100
AcDbEntity
  8
0
  6
SLD-Сплошная
 62
     7
370
    35
100
AcDbSpline
210
0.0
220
0.0
230
1.0
 70
     8
 71
     3
 72
     8
 73
     4
 74
     0
 42
0.000000001
 43
0.00000001
 40
0.0
 40
0.0
 40
0.0
 40
0.0
 40
1.0
 40
1.0
 40
1.0
 40
1.0
 10
601.0588433439442
 20
-383.3494096250058
 30
0.0
 10
600.9689537523295
 20
-383.2845606298841
 30
0.0
 10
600.8777662796336
 20
-383.2139955806072
 30
0.0
 10
600.7860571273584
 20
-383.1378560572095
 30
0.0
  0
SPLINE
  5
F6
330
1F
100
AcDbEntity
  8
0
  6
SLD-Сплошная
 62
     7
370
    35
100
AcDbSpline
210
0.0
220
0.0
230
1.0
 70
     8
 71
     3
 72
    20
 73
    16
 74
     0
 42
0.000000001
 43
0.00000001
 40
0.0
 40
0.0
 40
0.0
 40
0.0
 40
0.062812759113692
 40
0.1303108571532838
 40
0.1844963557928342
 40
0.254537580366099
 40
0.3094421422092811
 40
0.3730100996045906
 40
0.4370728363250578
 40
0.4863974398432191
 40
0.5667266283591725
 40
0.5957158256756345
 40
0.6976810152265995
 40
0.7022984967006566
 40
0.7213092523393831
 40
0.7213092523393831
 40
0.7213092523393831
 40
0.7213092523393831
 10
600.7860571273546
 20
-383.1378560572063
 30
0.0
 10
600.743796984499
 20
-383.1028298541015
 30
0.0
 10
600.6563824625955
 20
-383.02791348364
 30
0.0
 10
600.5347482535041
 20
-382.9147607855906
 30
0.0
 10
600.4118436815578
 20
-382.7898074313143
 30
0.0
 10
600.3018041704862
 20
-382.6660299504753
 30
0.0
 10
600.1930682979167
 20
-382.5283203721029
 30
0.0
 10
600.0956260889046
 20
-382.3882254070723
 30
0.0
 10
600.0109963556142
 20
-382.2454651372207
 30
0.0
 10
599.9295711596503
 20
-382.0829221699976
 30
0.0
 10
599.8745904390354
 20
-381.9443043029536
 30
0.0
 10
599.8159136009905
 20
-381.7547213512154
 30
0.0
 10
599.7898353718757
 20
-381.6295904044042
 30
0.0
 10
599.7762466265235
 20
-381.5125556115181
 30
0.0
 10
599.7741344681924
 20
-381.490493937088
 30
0.0
 10
599.7724350724351
 20
-381.4727436030462
 30
0.0
  0
SPLINE
  5
F7
330
1F
100
AcDbEntity
  8
0
  6
SLD-Сплошная
 62
     7
370
    35
100
AcDbSpline
210
0.0
220
0.0
230
1.0
 70
    24
 71
     3
 72
    19
 73
    15
 74
     0
 42
0.000000001
 43
0.00000001
 40
0.3853654070179406
 40
0.3853654070179406
 40
0.3853654070179406
 40
0.3853654070179406
 40
0.4210526315789303
 40
0.4736842105263119
 40
0.5263157894736592
 40
0.5789473684210253
 40
0.6315789473684204
 40
0.6842105263157978
 40
0.7368421052631278
 40
0.7894736842105051
 40
0.8421052631578846
 40
0.8947368421052674
 40
0.9473684210525971
 40
0.9999999999999999
 40
0.9999999999999999
 40
0.9999999999999999
 40
0.9999999999999999
 10
600.7936783776469
 20
-401.3193718775048
 30
0.0
 10
600.775472764491
 20
-401.3193718775048
 30
0.0
 10
600.7300865462872
 20
-401.3193718775048
 30
0.0
 10
600.6564167211285
 20
-401.3193718775049
 30
0.0
 10
600.5723803890228
 20
-401.3193718775048
 30
0.0
 10
600.486977368833
 20
-401.3193718775048
 30
0.0
 10
600.4003535637573
 20
-401.3193718775049
 30
0.0
 10
600.3126569708362
 20
-401.3193718775048
 30
0.0
 10
600.2240374177663
 20
-401.3193718775048
 30
0.0
 10
600.1346463096909
 20
-401.3193718775049
 30
0.0
 10
600.0446363697856
 20
-401.3193718775048
 30
0.0
 10
599.9541613785318
 20
-401.3193718775049
 30
0.0
 10
599.8633759109318
 20
-401.3193718775048
 30
0.0
 10
599.8027486852673
 20
-401.3193718775048
 30
0.0
 10
599.7724350724351
 20
-401.3193718775048
 30
0.0
  0
SPLINE
  5
F8
330
1F
100
AcDbEntity
  8
0
  6
SLD-Сплошная
 62
     7
370
    35
100
AcDbSpline
210
0.0
220
0.0
230
1.0
 70
     8
 71
     3
 72
     8
 73
     4
 74
     0
 42
0.000000001
 43
0.00000001
 40
0.0
 40
0.0
 40
0.0
 40
0.0
 40
1.0
 40
1.0
 40
1.0
 40
1.0
 10
601.3280699910454
 20
-401.3183717774848
 30
0.0
 10
601.1699148939143
 20
-401.3183717774848
 30
0.0
 10
600.9917851645055
 20
-401.3193718775666
 30
0.0
 10
600.7936783743858
 20
-401.3193718775048
 30
0.0
  0
LINE
  5
F9
330
1F
100
AcDbEntity
  8
0
  6
SLD-Сплошная
 62
     7
370
    35
100
AcDbLine
 10
599.7724350724
 20
-214.3193718775
 30
0.0
 11
601.328069991
 21
-214.3193718775
 31
0.0
  0
SPLINE
  5
FA
330
1F
100
AcDbEntity
  8
0
  6
SLD-Сплошная
 62
     7
370
    35
100
AcDbSpline
210
0.0
220
0.0
230
1.0
 70
     8
 71
     3
 72
     9
 73
     5
 74
     0
 42
0.000000001
 43
0.00000001
 40
0.0
 40
0.0
 40
0.0
 40
0.0
 40
0.0066027594853136
 40
0.026023009485369
 40
0.026023009485369
 40
0.026023009485369
 40
0.026023009485369
 10
601.2807857249742
 20
-379.1333331336545
 30
0.0
 10
601.284815619538
 20
-379.1305982943576
 30
0.0
 10
601.3006521937119
 20
-379.1198689333427
 30
0.0
 10
601.3163529512757
 20
-379.1092845050147
 30
0.0
 10
601.3280699910454
 20
-379.1013856398068
 30
0.0
  0
SPLINE
  5
FB
330
1F
100
AcDbEntity
  8
0
  6
SLD-Сплошная
 62
     7
370
    35
100
AcDbSpline
210
0.0
220
0.0
230
1.0
 70
     8
 71
     3
 72
    16
 73
    12
 74
     0
 42
0.000000001
 43
0.00000001
 40
0.0
 40
0.0
 40
0.0
 40
0.0
 40
0.1250000000000102
 40
0.1250000000000102
 40
0.2500000000000205
 40
0.2500000000000205
 40
0.5000000000000137
 40
0.5000000000000137
 40
0.7500000000000068
 40
0.7500000000000068
 40
1.0
 40
1.0
 40
1.0
 40
1.0
 10
599.7724350724351
 20
-381.1660001519634
 30
0.0
 10
599.7877965784725
 20
-381.0524627755862
 30
0.0
 10
599.8034814781882
 20
-380.9390085897905
 30
0.0
 10
599.8631535346215
 20
-380.7193822389508
 30
0.0
 10
599.9052683143336
 20
-380.6118603125398
 30
0.0
 10
600.0530097096514
 20
-380.3012870723439
 30
0.0
 10
600.1817280090598
 20
-380.1139706124517
 30
0.0
 10
600.4781803937609
 20
-379.7706350461235
 30
0.0
 10
600.6394456905489
 20
-379.6211218896023
 30
0.0
 10
600.9676478184552
 20
-379.3518356807709
 30
0.0
 10
601.1303005728674
 20
-379.2350661482369
 30
0.0
 10
601.2807857249741
 20
-379.1333331336546
 30
0.0
  0
LINE
  5
FC
330
1F
100
AcDbEntity
  8
0
  6
SLD-Сплошная
 62
     7
370
    35
100
AcDbLine
 10
599.7724350724
 20
-381.472743603
 30
0.0
 11
599.7724350724
 21
-381.166000152
 31
0.0
  0
LINE
  5
FD
330
1F
100
AcDbEntity
  8
0
  6
SLD-Сплошная
 62
     7
370
    35
100
AcDbLine
 10
594.3866486348
 20
-214.3193718775
 30
0.0
 11
599.7724350724
 21
-214.3193718775
 31
0.0
  0
LINE
  5
FE
330
1F
100
AcDbEntity
  8
0
  6
SLD-Сплошная
 62
     7
370
    35
100
AcDbLine
 10
594.3866486348
 20
-401.3193718775
 30
0.0
 11
599.7724350724
 21
-401.3193718775
 31
0.0
  0
LINE
  5
FF
330
1F
100
AcDbEntity
  8
0
  6
SLD-Сплошная
 62
     7
370
    35
100
AcDbLine
 10
592.1866486348
 20
-214.3193718775
 30
0.0
 11
594.3866486348
 21
-214.3193718775
 31
0.0
  0
LINE
  5
100
330
1F
100
AcDbEntity
  8
0
  6
SLD-Сплошная
 62
     7
370
    35
100
AcDbLine
 10
592.1866486348
 20
-401.3193718775
 30
0.0
 11
594.3866486348
 21
-401.3193718775
 31
0.0
  0
LINE
  5
101
330
1F
100
AcDbEntity
  8
0
  6
SLD-Сплошная
 62
     7
370
    35
100
AcDbLine
 10
592.1866486348
 20
-401.3193718775
 30
0.0
 11
592.1866486348
 21
-214.3193718775
 31
0.0
  0
ARC
  5
102
330
1F
100
AcDbEntity
  8
0
  6
SLD-Сплошная
 62
     7
370
    35
100
AcDbCircle
 10
603.9071389813
 20
-396.7637712015
 30
0.0
 40
4.926297871252359
100
AcDbArc
 50
295.8570855408
 51
5.1756649097
  0
ARC
  5
103
330
1F
100
AcDbEntity
  8
0
  6
SLD-Сплошная
 62
     7
370
    35
100
AcDbCircle
 10
603.0586108438
 20
-396.7637712015
 30
0.0
 40
4.926297871247608
100
AcDbArc
 50
295.8570855408
 51
5.1756649097
  0
SPLINE
  5
104
330
1F
100
AcDbEntity
  8
0
  6
SLD-Сплошная
 62
     7
370
    35
100
AcDbSpline
210
0.0
220
0.0
230
1.0
 70
     8
 71
     3
 72
    14
 73
    10
 74
     0
 42
0.000000001
 43
0.00000001
 40
0.0
 40
0.0
 40
0.0
 40
0.0
 40
0.25
 40
0.25
 40
0.5
 40
0.5
 40
0.75
 40
0.75
 40
1.0
 40
1.0
 40
1.0
 40
1.0
 10
605.2071067812293
 20
-401.1968712368077
 30
0.0
 10
605.1155502463021
 20
-401.2260723770371
 30
0.0
 10
605.0070192271953
 20
-401.2494618329833
 30
0.0
 10
604.7662909581611
 20
-401.2846814737027
 30
0.0
 10
604.6352914196701
 20
-401.2962787652675
 30
0.0
 10
604.3735069180165
 20
-401.3110507452675
 30
0.0
 10
604.2411906674569
 20
-401.3144379573806
 30
0.0
 10
603.9990223844717
 20
-401.3180182102267
 30
0.0
 10
603.8867743601684
 20
-401.3183717774847
 30
0.0
 10
603.7928932188596
 20
-401.3183717774848
 30
0.0
  0
LINE
  5
105
330
1F
100
AcDbEntity
  8
0
  6
SLD-Сплошная
 62
     7
370
    35
100
AcDbLine
 10
603.7928932189
 20
-401.3183717775
 30
0.0
 11
601.328069991
 21
-401.3183717775
 31
0.0
  0
LINE
  5
106
330
1F
100
AcDbEntity
  8
0
  6
SLD-Сплошная
 62
     7
370
    35
100
AcDbLine
 10
601.2573593129
 20
-401.3193718775
 30
0.0
 11
603.7221825407
 21
-401.3193718775
 31
0.0
  0
LINE
  5
107
330
1F
100
AcDbEntity
  8
0
  6
SLD-Сплошная
 62
     7
370
    35
100
AcDbLine
 10
603.7221825407
 20
-401.3193718775
 30
0.0
 11
605.0694258985
 21
-401.3193718775
 31
0.0
  0
SPLINE
  5
108
330
1F
100
AcDbEntity
  8
0
  6
SLD-Сплошная
 62
     7
370
    35
100
AcDbSpline
210
0.0
220
0.0
230
1.0
 70
     8
 71
     3
 72
    10
 73
     6
 74
     0
 42
0.000000001
 43
0.00000001
 40
0.0
 40
0.0
 40
0.0
 40
0.0
 40
0.5
 40
0.5
 40
1.0
 40
1.0
 40
1.0
 40
1.0
 10
605.069418290781
 20
-401.3193718774832
 30
0.0
 10
605.257670024057
 20
-401.319371381387
 30
0.0
 10
605.4349305263644
 20
-401.3108608155713
 30
0.0
 10
605.7679590161813
 20
-401.2710720580816
 30
0.0
 10
605.9211829141236
 20
-401.2397535044864
 30
0.0
 10
606.0556349186558
 20
-401.1968712368079
 30
0.0
  0
LINE
  5
109
330
1F
100
AcDbEntity
  8
0
  6
SLD-Сплошная
 62
     7
370
    35
100
AcDbLine
 10
600.7936783777
 20
-401.3193718775
 30
0.0
 11
601.2573593129
 21
-401.3193718775
 31
0.0
  0
LINE
  5
10A
330
1F
100
AcDbEntity
  8
0
  6
SLD-Сплошная
 62
     7
370
    35
100
AcDbLine
 10
607.9648232279
 20
-396.3193718775
 30
0.0
 11
607.9648232279
 21
-219.3193718775
 31
0.0
  0
LINE
  5
10B
330
1F
100
AcDbEntity
  8
0
  6
SLD-Сплошная
 62
     7
370
    35
100
AcDbLine
 10
608.8133513653
 20
-396.3193718775
 30
0.0
 11
608.8133513653
 21
-219.3193718775
 31
0.0
  0
SPLINE
  5
10C
330
1F
100
AcDbEntity
  8
0
  6
SLD-Сплошная
 62
     7
370
    35
100
AcDbSpline
210
0.0
220
0.0
230
1.0
 70
     8
 71
     3
 72
    10
 73
     6
 74
     0
 42
0.000000001
 43
0.00000001
 40
0.0
 40
0.0
 40
0.0
 40
0.0
 40
0.5
 40
0.5
 40
1.0
 40
1.0
 40
1.0
 40
1.0
 10
606.0556349186531
 20
-214.441872518202
 30
0.0
 10
605.9212015095504
 20
-214.3989961813699
 30
0.0
 10
605.7709888239193
 20
-214.3681988663318
 30
0.0
 10
605.4383060397596
 20
-214.3281241970195
 30
0.0
 10
605.2576862429773
 20
-214.3193718775049
 30
0.0
 10
605.0694018992715
 20
-214.3193718775049
 30
0.0
  0
LINE
  5
10D
330
1F
100
AcDbEntity
  8
0
  6
SLD-Сплошная
 62
     7
370
    35
100
AcDbLine
 10
605.0694018993
 20
-214.3193718775
 30
0.0
 11
603.7928932189
 21
-214.3193718775
 31
0.0
  0
SPLINE
  5
10E
330
1F
100
AcDbEntity
  8
0
  6
SLD-Сплошная
 62
     7
370
    35
100
AcDbSpline
210
0.0
220
0.0
230
1.0
 70
     8
 71
     3
 72
    14
 73
    10
 74
     0
 42
0.000000001
 43
0.00000001
 40
0.0
 40
0.0
 40
0.0
 40
0.0
 40
0.25
 40
0.25
 40
0.5
 40
0.5
 40
0.75
 40
0.75
 40
1.0
 40
1.0
 40
1.0
 40
1.0
 10
603.79289321886
 20
-214.3203719775249
 30
0.0
 10
603.886773827584
 20
-214.3203719775249
 30
0.0
 10
603.9975083311497
 20
-214.3207099559664
 30
0.0
 10
604.2410298632864
 20
-214.3242966716893
 30
0.0
 10
604.3727725365275
 20
-214.3276676609954
 30
0.0
 10
604.6344728260767
 20
-214.3424028024144
 30
0.0
 10
604.7661355104676
 20
-214.3540735032916
 30
0.0
 10
605.0055062429351
 20
-214.3890268368454
 30
0.0
 10
605.1155384814994
 20
-214.4126676256927
 30
0.0
 10
605.2071067812319
 20
-214.4418725182018
 30
0.0
  0
ARC
  5
10F
330
1F
100
AcDbEntity
  8
0
  6
SLD-Сплошная
 62
     7
370
    35
100
AcDbCircle
 10
603.0586108438
 20
-218.8749725535
 30
0.0
 40
4.926297871252892
100
AcDbArc
 50
354.8243350903
 51
64.1429144591
  0
ARC
  5
110
330
1F
100
AcDbEntity
  8
0
  6
SLD-Сплошная
 62
     7
370
    35
100
AcDbCircle
 10
603.9071389813
 20
-218.8749725535
 30
0.0
 40
4.92629787124714
100
AcDbArc
 50
354.8243350903
 51
64.1429144592
  0
ARC
  5
111
330
1F
100
AcDbEntity
  8
0
  6
SLD-Сплошная
 62
     7
370
    35
100
AcDbCircle
 10
602.4874209307
 20
-382.5054681381
 30
0.0
 40
1.552060413127642
100
AcDbArc
 50
221.6709478884
 51
327.2587992148
  0
LINE
  5
112
330
1F
100
AcDbEntity
  8
0
  6
SLD-Сплошная
 62
     7
370
    35
100
AcDbLine
 10
602.9443650814
 20
-383.3448927213
 30
0.0
 11
603.7928932189
 21
-383.3448927213
 31
0.0
  0
ARC
  5
113
330
1F
100
AcDbEntity
  8
0
  6
SLD-Сплошная
 62
     7
370
    35
100
AcDbCircle
 10
601.4781136052
 20
-382.2922909682
 30
0.0
 40
1.804955357431127
100
AcDbArc
 50
288.5852032862
 51
324.3259541543
  0
LINE
  5
114
330
1F
100
AcDbEntity
  8
0
  6
SLD-Сплошная
 62
     7
370
    35
100
AcDbLine
 10
601.328069991
 20
-214.3193718775
 30
0.0
 11
603.7928932189
 21
-214.3193718775
 31
0.0
  0
ARC
  5
115
330
1F
100
AcDbEntity
  8
0
  6
SLD-Сплошная
 62
     7
370
    35
100
AcDbCircle
 10
602.4874209307
 20
-380.1332756169
 30
0.0
 40
1.55206041312768
100
AcDbArc
 50
32.7412007852
 51
138.3290521116
  0
ARC
  5
116
330
1F
100
AcDbEntity
  8
0
  6
SLD-Сплошная
 62
     7
370
    35
100
AcDbCircle
 10
601.4781136052
 20
-380.3464527868
 30
0.0
 40
1.804955357389004
100
AcDbArc
 50
35.6740458454
 51
71.4147967187
  0
LINE
  5
117
330
1F
100
AcDbEntity
  8
0
  6
SLD-Сплошная
 62
     7
370
    35
100
AcDbLine
 10
602.9443650814
 20
-379.2938510337
 30
0.0
 11
603.7928932189
 21
-379.2938510337
 31
0.0
  0
SPLINE
  5
118
330
1F
100
AcDbEntity
  8
0
  6
SLD-Сплошная
 62
     7
370
    35
100
AcDbSpline
210
0.0
220
0.0
230
1.0
 70
     8
 71
     3
 72
    24
 73
    20
 74
     0
 42
0.000000001
 43
0.00000001
 40
0.0
 40
0.0
 40
0.0
 40
0.0
 40
0.062500000000003
 40
0.062500000000003
 40
0.1250000000000061
 40
0.1250000000000061
 40
0.250000000000004
 40
0.250000000000004
 40
0.3750000000000019
 40
0.3750000000000019
 40
0.4999999999999998
 40
0.4999999999999998
 40
0.7499999999999956
 40
0.7499999999999956
 40
0.8749999999999934
 40
0.8749999999999934
 40
0.9374999999999968
 40
0.9374999999999968
 40
1.0
 40
1.0
 40
1.0
 40
1.0
 10
603.7928932188595
 20
-379.2938510336969
 30
0.0
 10
603.8302047111205
 20
-379.3675756860792
 30
0.0
 10
603.8704919811372
 20
-379.4409617612464
 30
0.0
 10
603.9464214973889
 20
-379.5935975339108
 30
0.0
 10
603.9823249867477
 20
-379.6725343116079
 30
0.0
 10
604.0849807831117
 20
-379.9147946663952
 30
0.0
 10
604.1459596078795
 20
-380.0852186704018
 30
0.0
 10
604.2420957992048
 20
-380.4291978968542
 30
0.0
 10
604.2783866183611
 20
-380.6039226227284
 30
0.0
 10
604.3270212921477
 20
-380.9584158668604
 30
0.0
 10
604.3393863152834
 20
-381.1394832618125
 30
0.0
 10
604.3394073636503
 20
-381.6786062864519
 30
0.0
 10
604.2911115343364
 20
-382.0339954624931
 30
0.0
 10
604.1458189228382
 20
-382.554099838979
 30
0.0
 10
604.0861392073571
 20
-382.7216796205706
 30
0.0
 10
603.9833751617198
 20
-382.9635088923573
 30
0.0
 10
603.9470151091363
 20
-383.0425648426656
 30
0.0
 10
603.8713162215666
 20
-383.197488021296
 30
0.0
 10
603.8312949349714
 20
-383.2720773516166
 30
0.0
 10
603.7928932188595
 20
-383.3448927213128
 30
0.0
  0
SPLINE
  5
119
330
1F
100
AcDbEntity
  8
0
  6
SLD-Сплошная
 62
     7
370
    35
100
AcDbSpline
210
0.0
220
0.0
230
1.0
 70
     8
 71
     3
 72
    24
 73
    20
 74
     0
 42
0.000000001
 43
0.00000001
 40
0.3226325185847406
 40
0.3226325185847406
 40
0.3226325185847406
 40
0.3226325185847406
 40
0.3408359661209556
 40
0.3634031851059789
 40
0.4089555282536129
 40
0.4228752463279404
 40
0.477609375913605
 40
0.4811514453540191
 40
0.5391262538516391
 40
0.5463954727465588
 40
0.5977220700428024
 40
0.6149080216630324
 40
0.6578042743298614
 40
0.6827490245531165
 40
0.7201096726871993
 40
0.7495399669493868
 40
0.7852013938951833
 40
0.8149338077594342
 40
0.8534517169177935
 40
0.8534517169177935
 40
0.8534517169177935
 40
0.8534517169177935
 10
603.9323247110592
 20
-382.1920524128423
 30
0.0
 10
603.9460960040423
 20
-382.1644401575628
 30
0.0
 10
603.975736896172
 20
-382.1019111284398
 30
0.0
 10
604.0323258690601
 20
-381.9664485590354
 30
0.0
 10
604.0753963623275
 20
-381.8331834024231
 30
0.0
 10
604.12057016787
 20
-381.6436726724457
 30
0.0
 10
604.1379440422664
 20
-381.5212942838251
 30
0.0
 10
604.1495437156286
 20
-381.3231635706451
 30
0.0
 10
604.1461346043646
 20
-381.205356469124
 30
0.0
 10
604.1221777504801
 20
-381.007817234758
 30
0.0
 10
604.0961196586959
 20
-380.8808248257249
 30
0.0
 10
604.0413700495277
 20
-380.6989686699455
 30
0.0
 10
603.989144431986
 20
-380.5637805928054
 30
0.0
 10
603.9119033843884
 20
-380.4028259573934
 30
0.0
 10
603.8354977322051
 20
-380.2678112544783
 30
0.0
 10
603.7412267044085
 20
-380.123923621161
 30
0.0
 10
603.6473562768074
 20
-379.9971425550966
 30
0.0
 10
603.5391308331754
 20
-379.8654761102934
 30
0.0
 10
603.465269075986
 20
-379.7837529028636
 30
0.0
 10
603.4230688492694
 20
-379.7390542594749
 30
0.0
  0
SPLINE
  5
11A
330
1F
100
AcDbEntity
  8
0
  6
SLD-Сплошная
 62
     7
370
    35
100
AcDbSpline
210
0.0
220
0.0
230
1.0
 70
     8
 71
     3
 72
    18
 73
    14
 74
     0
 42
0.000000001
 43
0.00000001
 40
0.0
 40
0.0
 40
0.0
 40
0.0
 40
0.0205701374665411
 40
0.0265544759777553
 40
0.0809508065720842
 40
0.1003441519411311
 40
0.1434010481765392
 40
0.1707617406798612
 40
0.2077190758468702
 40
0.2378795944484826
 40
0.2736373449872276
 40
0.3019469741432328
 40
0.3226325185847406
 40
0.3226325185847406
 40
0.3226325185847406
 40
0.3226325185847406
 10
602.9443650814356
 20
-383.3448927213129
 30
0.0
 10
602.9659003049647
 20
-383.3266432661138
 30
0.0
 10
602.99370063332
 20
-383.3030846136505
 30
0.0
 10
603.0794662829005
 20
-383.2294672061108
 30
0.0
 10
603.1669266766353
 20
-383.1517151458914
 30
0.0
 10
603.2963754273613
 20
-383.0293165600034
 30
0.0
 10
603.3958373481506
 20
-382.9298862997056
 30
0.0
 10
603.5125835219231
 20
-382.8033468545288
 30
0.0
 10
603.6124836539766
 20
-382.6856168491399
 30
0.0
 10
603.7160921217649
 20
-382.5501958466547
 30
0.0
 10
603.8048999135817
 20
-382.4196802222309
 30
0.0
 10
603.8779670038269
 20
-382.2968132097708
 30
0.0
 10
603.9166756592819
 20
-382.2234296853384
 30
0.0
 10
603.9323247110592
 20
-382.1920524128423
 30
0.0
  0
SPLINE
  5
11B
330
1F
100
AcDbEntity
  8
0
  6
SLD-Сплошная
 62
     7
370
    35
100
AcDbSpline
210
0.0
220
0.0
230
1.0
 70
     8
 71
     3
 72
     9
 73
     5
 74
     0
 42
0.000000001
 43
0.00000001
 40
0.9250461524477263
 40
0.9250461524477263
 40
0.9250461524477263
 40
0.9250461524477263
 40
0.9403746966207454
 40
1.0
 40
1.0
 40
1.0
 40
1.0
 10
603.1861054183751
 20
-379.5059092648796
 30
0.0
 10
603.1693401442167
 20
-379.4905163116135
 30
0.0
 10
603.0877901272023
 20
-379.4166533085246
 30
0.0
 10
603.0079095592141
 20
-379.348258591193
 30
0.0
 10
602.9443650814356
 20
-379.2938510336969
 30
0.0
  0
SPLINE
  5
11C
330
1F
100
AcDbEntity
  8
0
  6
SLD-Сплошная
 62
     7
370
    35
100
AcDbSpline
210
0.0
220
0.0
230
1.0
 70
     8
 71
     3
 72
     8
 73
     4
 74
     0
 42
0.000000001
 43
0.00000001
 40
0.0
 40
0.0
 40
0.0
 40
0.0
 40
1.0
 40
1.0
 40
1.0
 40
1.0
 10
603.1861054183647
 20
-379.5059092648702
 30
0.0
 10
603.2654525294255
 20
-379.5781086212499
 30
0.0
 10
603.3447067366234
 20
-379.6558964639943
 30
0.0
 10
603.4230688492694
 20
-379.7390542594749
 30
0.0
  0
LINE
  5
11D
330
1F
100
AcDbEntity
  8
0
  6
SLD-Сплошная
 62
     7
370
    35
100
AcDbLine
 10
592.1866486348
 20
-214.3193718775
 30
0.0
 11
592.1866486348
 21
-208.8196588048
 31
0.0
  0
LINE
  5
11E
330
1F
100
AcDbEntity
  8
0
  6
SLD-Сплошная
 62
     7
370
    35
100
AcDbLine
 10
593.3866486348
 20
-214.3193718775
 30
0.0
 11
593.3866486348
 21
-208.8196588048
 31
0.0
  0
LINE
  5
11F
330
1F
100
AcDbEntity
  8
0
  6
SLD-Сплошная
 62
     7
370
    35
100
AcDbLine
 10
592.1866486348
 20
-426.3193718775
 30
0.0
 11
592.1866486348
 21
-401.3193718775
 31
0.0
  0
LINE
  5
120
330
1F
100
AcDbEntity
  8
0
  6
SLD-Сплошная
 62
     7
370
    35
100
AcDbLine
 10
593.3866486348
 20
-426.3193718775
 30
0.0
 11
593.3866486348
 21
-401.3193718775
 31
0.0
  0
LINE
  5
121
330
1F
100
AcDbEntity
  8
0
  6
SLD-Сплошная
 62
     7
370
    35
100
AcDbLine
 10
592.1866486348
 20
-431.3193718775
 30
0.0
 11
593.3866486348
 21
-431.3193718775
 31
0.0
  0
LINE
  5
122
330
1F
100
AcDbEntity
  8
0
  6
SLD-Сплошная
 62
     7
370
    35
100
AcDbLine
 10
592.1866486348
 20
-426.3193718775
 30
0.0
 11
592.1866486348
 21
-431.3193718775
 31
0.0
  0
LINE
  5
123
330
1F
100
AcDbEntity
  8
0
  6
SLD-Сплошная
 62
     7
370
    35
100
AcDbLine
 10
593.3866486348
 20
-431.3193718775
 30
0.0
 11
593.3866486348
 21
-426.3193718775
 31
0.0
  0
LINE
  5
124
330
1F
100
AcDbEntity
  8
0
  6
SLD-Сплошная
 62
     7
370
    35
100
AcDbLine
 10
592.1866486348
 20
431.3193718775
 30
0.0
 11
592.1866486348
 21
429.8549057834
 31
0.0
  0
LINE
  5
125
330
1F
100
AcDbEntity
  8
0
  6
SLD-Сплошная
 62
     7
370
    35
100
AcDbLine
 10
593.3866486348
 20
429.8549057834
 30
0.0
 11
593.3866486348
 21
431.3193718775
 31
0.0
  0
ARC
  5
126
330
1F
100
AcDbEntity
  8
0
  6
SLD-Сплошная
 62
     7
370
    35
100
AcDbCircle
 10
604.4149599444
 20
414.7355624685
 30
0.0
 40
2.691472384097901
100
AcDbArc
 50
247.2434168479
 51
255.76887199
  0
SPLINE
  5
127
330
1F
100
AcDbEntity
  8
0
  6
SLD-Сплошная
 62
     7
370
    35
100
AcDbSpline
210
0.0
220
0.0
230
1.0
 70
     8
 71
     3
 72
     8
 73
     4
 74
     0
 42
0.000000001
 43
0.00000001
 40
0.0
 40
0.0
 40
0.0
 40
0.0
 40
1.0
 40
1.0
 40
1.0
 40
1.0
 10
602.9443650814356
 20
412.4899779535727
 30
0.0
 10
603.0729748507783
 20
412.3990371135437
 30
0.0
 10
603.2176067158457
 20
412.3194370431377
 30
0.0
 10
603.3738528923413
 20
412.2536036250615
 30
0.0
  0
SPLINE
  5
128
330
1F
100
AcDbEntity
  8
0
  6
SLD-Сплошная
 62
     7
370
    35
100
AcDbSpline
210
0.0
220
0.0
230
1.0
 70
     8
 71
     3
 72
    18
 73
    14
 74
     0
 42
0.000000001
 43
0.00000001
 40
0.0
 40
0.0
 40
0.0
 40
0.0
 40
0.0205701374665355
 40
0.0265544759777625
 40
0.0809508065720729
 40
0.1003441519411641
 40
0.1434010481765398
 40
0.1707617406798857
 40
0.2077190758468747
 40
0.2378795944484868
 40
0.2736373449872603
 40
0.301946974143291
 40
0.3226325188208159
 40
0.3226325188208159
 40
0.3226325188208159
 40
0.3226325188208159
 10
602.9443650814358
 20
399.7801018539333
 30
0.0
 10
602.9659003049649
 20
399.7524627795275
 30
0.0
 10
602.99370063332
 20
399.7167828460049
 30
0.0
 10
603.0794662829006
 20
399.6086809402642
 30
0.0
 10
603.1669266766354
 20
399.5040819177858
 30
0.0
 10
603.2963754273616
 20
399.3538160288811
 30
0.0
 10
603.3958373481508
 20
399.240112876766
 30
0.0
 10
603.5125835219234
 20
399.1061787394645
 30
0.0
 10
603.6124836539767
 20
398.9897313553514
 30
0.0
 10
603.716092121765
 20
398.8640182355682
 30
0.0
 10
603.8048999135818
 20
398.7494750290509
 30
0.0
 10
603.8779670040307
 20
398.646618285801
 30
0.0
 10
603.9166756596551
 20
398.5871066867915
 30
0.0
 10
603.9323247115951
 20
398.5619642358856
 30
0.0
  0
SPLINE
  5
129
330
1F
100
AcDbEntity
  8
0
  6
SLD-Сплошная
 62
     7
370
    35
100
AcDbSpline
210
0.0
220
0.0
230
1.0
 70
     8
 71
     3
 72
    24
 73
    20
 74
     0
 42
0.000000001
 43
0.00000001
 40
0.3226325188208159
 40
0.3226325188208159
 40
0.3226325188208159
 40
0.3226325188208159
 40
0.3408359661209381
 40
0.363403185106018
 40
0.4089555282536319
 40
0.4228752463279663
 40
0.4776093759136059
 40
0.4811514453540434
 40
0.539126253851694
 40
0.5463954727465574
 40
0.597722070042809
 40
0.6149080216630044
 40
0.6578042743298378
 40
0.6827490245531276
 40
0.7201096726872208
 40
0.7495399669494083
 40
0.7852013938951727
 40
0.8149338077594237
 40
0.8534517169178278
 40
0.8534517169178278
 40
0.8534517169178278
 40
0.8534517169178278
 10
603.9323247115951
 20
398.5619642358856
 30
0.0
 10
603.9460960043856
 20
398.5398386749107
 30
0.0
 10
603.975736896327
 20
398.4902542190413
 30
0.0
 10
604.0323258690604
 20
398.3850737472049
 30
0.0
 10
604.0753963623278
 20
398.2846890194303
 30
0.0
 10
604.1205701678701
 20
398.1447404052361
 30
0.0
 10
604.1379440422668
 20
398.0561919145126
 30
0.0
 10
604.149543715629
 20
397.9147488885882
 30
0.0
 10
604.1461346043646
 20
397.8318185490356
 30
0.0
 10
604.1221777504801
 20
397.6949924286204
 30
0.0
 10
604.096119658696
 20
397.6084074450729
 30
0.0
 10
604.0413700495279
 20
397.4875605504093
 30
0.0
 10
603.9891444319862
 20
397.4001389784919
 30
0.0
 10
603.9119033843886
 20
397.3004205311631
 30
0.0
 10
603.8354977322053
 20
397.2208163148429
 30
0.0
 10
603.7412267044087
 20
397.1417634866042
 30
0.0
 10
603.6473562768076
 20
397.0781079868087
 30
0.0
 10
603.5391308331673
 20
397.0196581797543
 30
0.0
 10
603.4652690759691
 20
396.9888822300912
 30
0.0
 10
603.4230688492436
 20
396.9738826127931
 30
0.0
  0
SPLINE
  5
12A
330
1F
100
AcDbEntity
  8
0
  6
SLD-Сплошная
 62
     7
370
    35
100
AcDbSpline
210
0.0
220
0.0
230
1.0
 70
     8
 71
     3
 72
     8
 73
     4
 74
     0
 42
0.000000001
 43
0.00000001
 40
0.0
 40
0.0
 40
0.0
 40
0.0
 40
1.0
 40
1.0
 40
1.0
 40
1.0
 10
603.1861054183667
 20
396.917796467001
 30
0.0
 10
603.2654525294179
 20
396.9270718971042
 30
0.0
 10
603.3447067366064
 20
396.9461870328157
 30
0.0
 10
603.4230688492436
 20
396.9738826127931
 30
0.0
  0
SPLINE
  5
12B
330
1F
100
AcDbEntity
  8
0
  6
SLD-Сплошная
 62
     7
370
    35
100
AcDbSpline
210
0.0
220
0.0
230
1.0
 70
     8
 71
     3
 72
     9
 73
     5
 74
     0
 42
0.000000001
 43
0.00000001
 40
0.9250461524477328
 40
0.9250461524477328
 40
0.9250461524477328
 40
0.9250461524477328
 40
0.9403746966207426
 40
1.0
 40
1.0
 40
1.0
 40
1.0
 10
603.1861054183686
 20
396.9177964670013
 30
0.0
 10
603.1693401442125
 20
396.9159742771957
 30
0.0
 10
603.0877901272003
 20
396.9095710247107
 30
0.0
 10
603.0079095592142
 20
396.9129192856892
 30
0.0
 10
602.9443650814358
 20
396.9155828057502
 30
0.0
  0
ARC
  5
12C
330
1F
100
AcDbEntity
  8
0
  6
SLD-Сплошная
 62
     7
370
    35
100
AcDbCircle
 10
604.4971995771
 20
282.6475434443
 30
0.0
 40
2.847250860793743
100
AcDbArc
 50
236.9493449578
 51
281.5934887989
  0
SPLINE
  5
12D
330
1F
100
AcDbEntity
  8
0
  6
SLD-Сплошная
 62
     7
370
    35
100
AcDbSpline
210
0.0
220
0.0
230
1.0
 70
     8
 71
     3
 72
    10
 73
     6
 74
     0
 42
0.000000001
 43
0.00000001
 40
0.0
 40
0.0
 40
0.0
 40
0.0
 40
0.5
 40
0.5
 40
1.0
 40
1.0
 40
1.0
 40
1.0
 10
606.0556349185733
 20
280.3476309054821
 30
0.0
 10
605.9212015094773
 20
280.2222539817673
 30
0.0
 10
605.7709888239178
 20
280.1185110119073
 30
0.0
 10
605.4383060397607
 20
279.9535900490526
 30
0.0
 10
605.2576862429775
 20
279.8940559156577
 30
0.0
 10
605.0694018992715
 20
279.8583819275234
 30
0.0
  0
SPLINE
  5
12E
330
1F
100
AcDbEntity
  8
0
  6
SLD-Сплошная
 62
     7
370
    35
100
AcDbSpline
210
0.0
220
0.0
230
1.0
 70
     8
 71
     3
 72
    10
 73
     6
 74
     0
 42
0.000000001
 43
0.00000001
 40
0.0
 40
0.0
 40
0.0
 40
0.0
 40
0.5
 40
0.5
 40
1.0
 40
1.0
 40
1.0
 40
1.0
 10
605.0694351905375
 20
412.087356317185
 30
0.0
 10
605.2576836723498
 20
412.1230250332478
 30
0.0
 10
605.4349410334266
 20
412.169235487184
 30
0.0
 10
605.767963497517
 20
412.2772958910441
 30
0.0
 10
605.9211849504911
 20
412.3386083186206
 30
0.0
 10
606.0556349186395
 20
412.4033569198156
 30
0.0
  0
SPLINE
  5
12F
330
1F
100
AcDbEntity
  8
0
  6
SLD-Сплошная
 62
     7
370
    35
100
AcDbSpline
210
0.0
220
0.0
230
1.0
 70
     8
 71
     3
 72
     8
 73
     4
 74
     0
 42
0.000000001
 43
0.00000001
 40
0.0
 40
0.0
 40
0.0
 40
0.0
 40
1.0
 40
1.0
 40
1.0
 40
1.0
 10
603.7533044254525
 20
412.1266861646799
 30
0.0
 10
604.1727743084276
 20
412.0196616096082
 30
0.0
 10
604.6386909465269
 20
412.0057386542774
 30
0.0
 10
605.0694351947938
 20
412.0873563180666
 30
0.0
  0
LWPOLYLINE
  5
130
330
1F
100
AcDbEntity
  8
0
  6
SLD-Сплошная
 62
     7
370
    35
100
AcDbPolyline
 90
        9
 70
   128
 43
0.0
 10
606.0556349187
 20
412.4033569198
 10
606.6234160361
 20
412.6253852804
 10
607.1530274778
 20
412.727681084
 10
607.6294461177
 20
412.7073425754
 10
608.0391577136
 20
412.5649466832
 10
608.3705402566
 20
412.3045326543
 10
608.6141936443
 20
411.9334874758
 10
608.7632063275
 20
411.4623363326
 10
608.8133513653
 20
410.9044440476
  0
ARC
  5
131
330
1F
100
AcDbEntity
  8
0
  6
SLD-Сплошная
 62
     7
370
    35
100
AcDbCircle
 10
606.3325820658
 20
411.2532089566
 30
0.0
 40
2.080796124036017
100
AcDbArc
 50
61.794475838
 51
122.7440317673
  0
SPLINE
  5
132
330
1F
100
AcDbEntity
  8
0
  6
SLD-Сплошная
 62
     7
370
    35
100
AcDbSpline
210
0.0
220
0.0
230
1.0
 70
     8
 71
     3
 72
    14
 73
    10
 74
     0
 42
0.000000001
 43
0.00000001
 40
0.0
 40
0.0
 40
0.0
 40
0.0
 40
0.25
 40
0.25
 40
0.5
 40
0.5
 40
0.75
 40
0.75
 40
1.0
 40
1.0
 40
1.0
 40
1.0
 10
605.2071067811489
 20
413.0033569198836
 30
0.0
 10
605.1155502462321
 20
412.9592649974543
 30
0.0
 10
605.0070192271961
 20
412.9241166081356
 30
0.0
 10
604.766290958163
 20
412.8776533621688
 30
0.0
 10
604.6352914196725
 20
412.866955886474
 30
0.0
 10
604.37350691802
 20
412.8765869174633
 30
0.0
 10
604.2411906674608
 20
412.8972316158186
 30
0.0
 10
603.9990223844761
 20
412.9700879819733
 30
0.0
 10
603.8867743601777
 20
413.0228867844058
 30
0.0
 10
603.7928932188682
 20
413.0892707760498
 30
0.0
  0
LINE
  5
133
330
1F
100
AcDbEntity
  8
0
  6
SLD-Сплошная
 62
     7
370
    35
100
AcDbLine
 10
603.7928932189
 20
413.0892707761
 30
0.0
 11
601.328069991
 21
414.8321639949
 31
0.0
  0
SPLINE
  5
134
330
1F
100
AcDbEntity
  8
0
  6
SLD-Сплошная
 62
     7
370
    35
100
AcDbSpline
210
0.0
220
0.0
230
1.0
 70
     8
 71
     3
 72
     8
 73
     4
 74
     0
 42
0.000000001
 43
0.00000001
 40
0.0
 40
0.0
 40
0.0
 40
0.0
 40
1.0
 40
1.0
 40
1.0
 40
1.0
 10
601.3280699910453
 20
414.832163994872
 30
0.0
 10
601.1699148938886
 20
414.9439965365508
 30
0.0
 10
600.9917851644483
 20
415.0373272703075
 30
0.0
 10
600.7936783742914
 20
415.11074310373
 30
0.0
  0
ARC
  5
135
330
1F
100
AcDbEntity
  8
0
  6
SLD-Сплошная
 62
     7
370
    35
100
AcDbCircle
 10
599.8181551651
 20
398.235342554
 30
0.0
 40
3.487043122188662
100
AcDbArc
 50
26.2954354578
 51
79.0664866524
  0
LINE
  5
136
330
1F
100
AcDbEntity
  8
0
  6
SLD-Сплошная
 62
     7
370
    35
100
AcDbLine
 10
600.4795418536
 20
414.2328711724
 30
0.0
 11
602.9443650814
 21
412.4899779536
 31
0.0
  0
ARC
  5
137
330
1F
100
AcDbEntity
  8
0
  6
SLD-Сплошная
 62
     7
370
    35
100
AcDbCircle
 10
600.5735686707
 20
286.5515862476
 30
0.0
 40
8.279016380760396
100
AcDbArc
 50
311.4651180186
 51
354.4198037501
  0
LINE
  5
138
330
1F
100
AcDbEntity
  8
0
  6
SLD-Сплошная
 62
     7
370
    35
100
AcDbLine
 10
608.8133513653
 20
410.9044440476
 30
0.0
 11
608.8133513653
 21
285.7465437776
 31
0.0
  0
ARC
  5
139
330
1F
100
AcDbEntity
  8
0
  6
SLD-Сплошная
 62
     7
370
    35
100
AcDbCircle
 10
594.3720088386
 20
412.3483527396
 30
0.0
 40
2.940189798907533
100
AcDbArc
 50
89.7147116147
 51
109.5807411344
  0
ARC
  5
13A
330
1F
100
AcDbEntity
  8
0
  6
SLD-Сплошная
 62
     7
370
    35
100
AcDbCircle
 10
594.2616486348
 20
413.5560944771
 30
0.0
 40
0.8926785535636242
100
AcDbArc
 50
81.9505330242
 51
168.5782463411
  0
ARC
  5
13B
330
1F
100
AcDbEntity
  8
0
  6
SLD-Сплошная
 62
     7
370
    35
100
AcDbCircle
 10
594.381250545
 20
280.8628896045
 30
0.0
 40
1.348131074559059
100
AcDbArc
 50
89.7705797351
 51
107.0198457585
  0
SPLINE
  5
13C
330
1F
100
AcDbEntity
  8
0
  6
SLD-Сплошная
 62
     7
370
    35
100
AcDbSpline
210
0.0
220
0.0
230
1.0
 70
     8
 71
     3
 72
    14
 73
    10
 74
     0
 42
0.000000001
 43
0.00000001
 40
0.0
 40
0.0
 40
0.0
 40
0.0
 40
0.25
 40
0.25
 40
0.5
 40
0.5
 40
0.75
 40
0.75
 40
1.0
 40
1.0
 40
1.0
 40
1.0
 10
599.7724350724351
 20
400.4062925170152
 30
0.0
 10
599.77974653776
 20
400.5250803416704
 30
0.0
 10
599.7963703321624
 20
400.6431574797723
 30
0.0
 10
599.8530419050729
 20
400.8750447967102
 30
0.0
 10
599.8925362165304
 20
400.9884792103671
 30
0.0
 10
599.992249407979
 20
401.2000591884272
 30
0.0
 10
600.0525726882506
 20
401.2989207682617
 30
0.0
 10
600.1928936304807
 20
401.4723553566755
 30
0.0
 10
600.2726260195036
 20
401.5484907218553
 30
0.0
 10
600.3571661049215
 20
401.5998132817901
 30
0.0
  0
SPLINE
  5
13D
330
1F
100
AcDbEntity
  8
0
  6
SLD-Сплошная
 62
     7
370
    35
100
AcDbSpline
210
0.0
220
0.0
230
1.0
 70
     8
 71
     3
 72
     8
 73
     4
 74
     0
 42
0.000000001
 43
0.00000001
 40
0.0
 40
0.0
 40
0.0
 40
0.0
 40
1.0
 40
1.0
 40
1.0
 40
1.0
 10
600.4795418536218
 20
401.6590886579101
 30
0.0
 10
600.440624056262
 20
401.6430945056144
 30
0.0
 10
600.3984005093249
 20
401.6248458468851
 30
0.0
 10
600.3571661049217
 20
401.5998132817901
 30
0.0
  0
ARC
  5
13E
330
1F
100
AcDbEntity
  8
0
  6
SLD-Сплошная
 62
     7
370
    35
100
AcDbCircle
 10
599.7940404852
 20
413.203083275
 30
0.0
 40
1.23708336006606
100
AcDbArc
 50
56.3493899526
 51
91.0007101734
  0
SPLINE
  5
13F
330
1F
100
AcDbEntity
  8
0
  6
SLD-Сплошная
 62
     7
370
    35
100
AcDbSpline
210
0.0
220
0.0
230
1.0
 70
     8
 71
     3
 72
    19
 73
    15
 74
     0
 42
0.000000001
 43
0.00000001
 40
0.0
 40
0.0
 40
0.0
 40
0.0
 40
0.0526315789475024
 40
0.1052631578948446
 40
0.1578947368422604
 40
0.2105263157896001
 40
0.2631578947368725
 40
0.3157894736842871
 40
0.3684210526316888
 40
0.4210526315790378
 40
0.4736842105263754
 40
0.5263157894736689
 40
0.5789473684210557
 40
0.6146345929203171
 40
0.6146345929203171
 40
0.6146345929203171
 40
0.6146345929203171
 10
599.772435072435
 20
415.2885060909964
 30
0.0
 10
599.8027486852673
 20
415.2882502735226
 30
0.0
 10
599.863375910932
 20
415.287738638575
 30
0.0
 10
599.9541613785319
 20
415.2836025721929
 30
0.0
 10
600.0446363697857
 20
415.2770079269704
 30
0.0
 10
600.134646309691
 20
415.2677240200099
 30
0.0
 10
600.2240374177665
 20
415.2558315429423
 30
0.0
 10
600.3126569708363
 20
415.2413334426781
 30
0.0
 10
600.4003535637574
 20
415.2242591434936
 30
0.0
 10
600.4869773688331
 20
415.2046365696712
 30
0.0
 10
600.5723803890229
 20
415.1824995790171
 30
0.0
 10
600.6564167211285
 20
415.1578859072094
 30
0.0
 10
600.730086546255
 20
415.133740280554
 30
0.0
 10
600.7754727644277
 20
415.1174898671736
 30
0.0
 10
600.7936783775524
 20
415.1107431060711
 30
0.0
  0
LINE
  5
140
330
1F
100
AcDbEntity
  8
0
  6
SLD-Сплошная
 62
     7
370
    35
100
AcDbLine
 10
594.3866486348
 20
415.288506091
 30
0.0
 11
599.7724350724
 21
415.288506091
 31
0.0
  0
LINE
  5
141
330
1F
100
AcDbEntity
  8
0
  6
SLD-Сплошная
 62
     7
370
    35
100
AcDbLine
 10
594.3866486348
 20
414.4399779536
 30
0.0
 11
599.7724350724
 21
414.4399779536
 31
0.0
  0
LINE
  5
142
330
1F
100
AcDbEntity
  8
0
  6
SLD-Сплошная
 62
     7
370
    35
100
AcDbLine
 10
594.3866486348
 20
282.2110098717
 30
0.0
 11
599.7724350724
 21
282.2110098717
 31
0.0
  0
LINE
  5
143
330
1F
100
AcDbEntity
  8
0
  6
SLD-Сплошная
 62
     7
370
    35
100
AcDbLine
 10
599.7724350724
 20
400.406292517
 30
0.0
 11
599.7724350724
 21
400.1893921427
 31
0.0
  0
LINE
  5
144
330
1F
100
AcDbEntity
  8
0
  6
SLD-Сплошная
 62
     7
370
    35
100
AcDbLine
 10
602.9443650814
 20
396.9155828058
 30
0.0
 11
603.7928932189
 21
397.5155828058
 31
0.0
  0
LINE
  5
145
330
1F
100
AcDbEntity
  8
0
  6
SLD-Сплошная
 62
     7
370
    35
100
AcDbLine
 10
603.7928932189
 20
397.5155828058
 30
0.0
 11
604.071966216
 21
397.8176682562
 31
0.0
  0
LINE
  5
146
330
1F
100
AcDbEntity
  8
0
  6
SLD-Сплошная
 62
     7
370
    35
100
AcDbLine
 10
600.4795418537
 20
282.0039030905
 30
0.0
 11
602.9443650814
 21
280.2610098717
 31
0.0
  0
ARC
  5
147
330
1F
100
AcDbEntity
  8
0
  6
SLD-Сплошная
 62
     7
370
    35
100
AcDbCircle
 10
603.1420446962
 20
399.9127359721
 30
0.0
 40
3.003665149846974
100
AcDbArc
 50
207.5734713579
 51
266.2264768942
  0
ARC
  5
148
330
1F
100
AcDbEntity
  8
0
  6
SLD-Сплошная
 62
     7
370
    35
100
AcDbCircle
 10
603.9905728336
 20
400.5127359721
 30
0.0
 40
3.003665149845874
100
AcDbArc
 50
207.5734713579
 51
266.2264768942
  0
LINE
  5
149
330
1F
100
AcDbEntity
  8
0
  6
SLD-Сплошная
 62
     7
370
    35
100
AcDbLine
 10
600.4795418537
 20
398.5223824394
 30
0.0
 11
601.328069991
 21
399.1223824394
 31
0.0
  0
ARC
  5
14A
330
1F
100
AcDbEntity
  8
0
  6
SLD-Сплошная
 62
     7
370
    35
100
AcDbCircle
 10
599.7940404851
 20
280.9741151925
 30
0.0
 40
1.23708336063582
100
AcDbArc
 50
56.349389963
 51
91.0007101686
  0
SPLINE
  5
14B
330
1F
100
AcDbEntity
  8
0
  6
SLD-Сплошная
 62
     7
370
    35
100
AcDbSpline
210
0.0
220
0.0
230
1.0
 70
     8
 71
     3
 72
    16
 73
    12
 74
     0
 42
0.000000001
 43
0.00000001
 40
0.0
 40
0.0
 40
0.0
 40
0.0
 40
0.1250000000000578
 40
0.1250000000000578
 40
0.2500000000001157
 40
0.2500000000001157
 40
0.5000000000000772
 40
0.5000000000000772
 40
0.7500000000000386
 40
0.7500000000000386
 40
1.0
 40
1.0
 40
1.0
 40
1.0
 10
599.7724350724351
 20
400.1893921426668
 30
0.0
 10
599.778175458629
 20
400.1228584060854
 30
0.0
 10
599.7839187329562
 20
400.0563129521507
 30
0.0
 10
599.8036953827499
 20
399.9236890078444
 30
0.0
 10
599.8179308498768
 20
399.8576045615818
 30
0.0
 10
599.8707592625879
 20
399.6588338165249
 30
0.0
 10
599.9193131576369
 20
399.526753163489
 30
0.0
 10
600.0428922310515
 20
399.2602595948446
 30
0.0
 10
600.1178233985382
 20
399.1253041289439
 30
0.0
 10
600.2902711808188
 20
398.8365717193818
 30
0.0
 10
600.3870944968443
 20
398.6856453746254
 30
0.0
 10
600.4795418536218
 20
398.5223824394001
 30
0.0
  0
SPLINE
  5
14C
330
1F
100
AcDbEntity
  8
0
  6
SLD-Сплошная
 62
     7
370
    35
100
AcDbSpline
210
0.0
220
0.0
230
1.0
 70
     8
 71
     3
 72
     9
 73
     5
 74
     0
 42
0.000000001
 43
0.00000001
 40
0.0
 40
0.0
 40
0.0
 40
0.0
 40
0.0066027594858413
 40
0.0260230094849562
 40
0.0260230094849562
 40
0.0260230094849562
 40
0.0260230094849562
 10
601.2807857249833
 20
399.1774210299558
 30
0.0
 10
601.2848156195445
 20
399.1727811866074
 30
0.0
 10
601.3006521937156
 20
399.1544718420764
 30
0.0
 10
601.3163529512764
 20
399.1360958972247
 30
0.0
 10
601.3280699910455
 20
399.1223824394
 30
0.0
  0
SPLINE
  5
14D
330
1F
100
AcDbEntity
  8
0
  6
SLD-Сплошная
 62
     7
370
    35
100
AcDbSpline
210
0.0
220
0.0
230
1.0
 70
     8
 71
     3
 72
    10
 73
     6
 74
     0
 42
0.000000001
 43
0.00000001
 40
0.0
 40
0.0
 40
0.0
 40
0.0
 40
0.3420053214010793
 40
0.7051683617889525
 40
1.0
 40
1.0
 40
1.0
 40
1.0
 10
599.9358814758743
 20
400.6018458244837
 30
0.0
 10
600.0541571014334
 20
400.4446785375683
 30
0.0
 10
600.2980253218852
 20
400.1206210118345
 30
0.0
 10
600.8246851515615
 20
399.6660228621291
 30
0.0
 10
601.1396551990117
 20
399.3286083723613
 30
0.0
 10
601.2807857249833
 20
399.1774210299557
 30
0.0
  0
LINE
  5
14E
330
1F
100
AcDbEntity
  8
0
  6
SLD-Сплошная
 62
     7
370
    35
100
AcDbLine
 10
591.1866486347
 20
-409.3193727207
 30
0.0
 11
591.1866486347
 21
-423.3193718775
 31
0.0
  0
LINE
  5
14F
330
1F
100
AcDbEntity
  8
0
  6
SLD-Сплошная
 62
     7
370
    35
100
AcDbLine
 10
593.9866486349
 20
-419.5693718775
 30
0.0
 11
593.9866486349
 21
-413.0693718775
 31
0.0
  0
LINE
  5
150
330
1F
100
AcDbEntity
  8
0
  6
SLD-Сплошная
 62
     7
370
    35
100
AcDbLine
 10
603.8432165152
 20
-382.3187762215
 30
0.0
 11
603.9620922677
 21
-382.0960809603
 31
0.0
  0
SPLINE
  5
151
330
1F
100
AcDbEntity
  8
0
  6
SLD-Сплошная
 62
     7
370
    35
100
AcDbSpline
210
0.0
220
0.0
230
1.0
 70
     8
 71
     3
 72
     9
 73
     5
 74
     0
 42
0.000000001
 43
0.00000001
 40
0.0
 40
0.0
 40
0.0
 40
0.0
 40
0.5456155108561738
 40
1.0
 40
1.0
 40
1.0
 40
1.0
 10
603.6505888480688
 20
-380.0307273350081
 30
0.0
 10
603.5248212862729
 20
-379.8734706230198
 30
0.0
 10
603.2943154459998
 20
-379.5852517053767
 30
0.0
 10
603.0536979427355
 20
-379.3848915710005
 30
0.0
 10
602.9443650814358
 20
-379.2938510336971
 30
0.0
  0
ARC
  5
152
330
1F
100
AcDbEntity
  8
0
  6
SLD-Сплошная
 62
     7
370
    35
100
AcDbCircle
 10
-180.4642823344
 20
-591.8866486348
 30
0.0
 40
0.3000000000000682
100
AcDbArc
 50
270.0
 51
315.0
  0
ARC
  5
153
330
1F
100
AcDbEntity
  8
0
  6
SLD-Сплошная
 62
     7
370
    35
100
AcDbCircle
 10
-162.9731135099
 20
-591.8866486348
 30
0.0
 40
0.3000000000000682
100
AcDbArc
 50
225.0
 51
270.0
  0
LINE
  5
154
330
1F
100
AcDbEntity
  8
0
  6
SLD-Сплошная
 62
     7
370
    35
100
AcDbLine
 10
-180.2521503001
 20
-592.0987806691
 30
0.0
 11
-179.779358094
 21
-591.625988463
 31
0.0
  0
LINE
  5
155
330
1F
100
AcDbEntity
  8
0
  6
SLD-Сплошная
 62
     7
370
    35
100
AcDbLine
 10
-163.6580377504
 20
-591.625988463
 30
0.0
 11
-163.1852455443
 21
-592.0987806691
 31
0.0
  0
ARC
  5
156
330
1F
100
AcDbEntity
  8
0
  6
SLD-Сплошная
 62
     7
370
    35
100
AcDbCircle
 10
-164.7186979222
 20
-592.6866486348
 30
0.0
 40
1.499999999999912
100
AcDbArc
 50
45.0
 51
90.0
  0
ARC
  5
157
330
1F
100
AcDbEntity
  8
0
  6
SLD-Сплошная
 62
     7
370
    35
100
AcDbCircle
 10
-178.7186979222
 20
-592.6866486348
 30
0.0
 40
1.499999999999912
100
AcDbArc
 50
90.0
 51
135.0
  0
LINE
  5
158
330
1F
100
AcDbEntity
  8
0
  6
SLD-Сплошная
 62
     7
370
    35
100
AcDbLine
 10
112.7408120321
 20
-607.3160406679
 30
0.0
 11
112.1408120321
 21
-608.1645688053
 31
0.0
  0
LINE
  5
159
330
1F
100
AcDbEntity
  8
0
  6
SLD-Сплошная
 62
     7
370
    35
100
AcDbLine
 10
-174.9686979222
 20
-593.9866486347
 30
0.0
 11
-174.9686979222
 21
-593.3866486348
 31
0.0
  0
LINE
  5
15A
330
1F
100
AcDbEntity
  8
0
  6
SLD-Сплошная
 62
     7
370
    35
100
AcDbLine
 10
-168.4686979222
 20
-593.3866486348
 30
0.0
 11
-168.4686979222
 21
-593.9866486347
 31
0.0
  0
LINE
  5
15B
330
1F
100
AcDbEntity
  8
0
  6
SLD-Сплошная
 62
     7
370
    35
100
AcDbLine
 10
-320.9684812842
 20
-593.3866486348
 30
0.0
 11
-320.9684812842
 21
-592.1866486348
 31
0.0
  0
LINE
  5
15C
330
1F
100
AcDbEntity
  8
0
  6
SLD-Сплошная
 62
     7
370
    35
100
AcDbLine
 10
-302.1360363589
 20
-608.1645688053
 30
0.0
 11
-302.736036359
 21
-607.3160406679
 31
0.0
  0
ARC
  5
15D
330
1F
100
AcDbEntity
  8
0
  6
SLD-Сплошная
 62
     7
370
    35
100
AcDbCircle
 10
108.817896872
 20
-591.8866486347
 30
0.0
 40
0.3000000000000682
100
AcDbArc
 50
270.0
 51
315.0
  0
ARC
  5
15E
330
1F
100
AcDbEntity
  8
0
  6
SLD-Сплошная
 62
     7
370
    35
100
AcDbCircle
 10
126.3090656965
 20
-591.8866486347
 30
0.0
 40
0.3000000000000682
100
AcDbArc
 50
225.0
 51
270.0
  0
LINE
  5
15F
330
1F
100
AcDbEntity
  8
0
  6
SLD-Сплошная
 62
     7
370
    35
100
AcDbLine
 10
109.0300289063
 20
-592.0987806691
 30
0.0
 11
109.5028211125
 21
-591.625988463
 31
0.0
  0
LINE
  5
160
330
1F
100
AcDbEntity
  8
0
  6
SLD-Сплошная
 62
     7
370
    35
100
AcDbLine
 10
125.624141456
 20
-591.625988463
 30
0.0
 11
126.0969336621
 21
-592.0987806691
 31
0.0
  0
ARC
  5
161
330
1F
100
AcDbEntity
  8
0
  6
SLD-Сплошная
 62
     7
370
    35
100
AcDbCircle
 10
124.5634812842
 20
-592.6866486347
 30
0.0
 40
1.499999999999912
100
AcDbArc
 50
45.0
 51
90.0
  0
ARC
  5
162
330
1F
100
AcDbEntity
  8
0
  6
SLD-Сплошная
 62
     7
370
    35
100
AcDbCircle
 10
110.5634812842
 20
-592.6866486347
 30
0.0
 40
1.499999999999912
100
AcDbArc
 50
90.0
 51
135.0
  0
LINE
  5
163
330
1F
100
AcDbEntity
  8
0
  6
SLD-Сплошная
 62
     7
370
    35
100
AcDbLine
 10
120.8134812842
 20
-593.3866486348
 30
0.0
 11
120.8134812842
 21
-593.9866486349
 31
0.0
  0
LINE
  5
164
330
1F
100
AcDbEntity
  8
0
  6
SLD-Сплошная
 62
     7
370
    35
100
AcDbLine
 10
-45.1465840898
 20
-593.3866486348
 30
0.0
 11
-38.0755162779
 21
-593.3866486348
 31
0.0
  0
LINE
  5
165
330
1F
100
AcDbEntity
  8
0
  6
SLD-Сплошная
 62
     7
370
    35
100
AcDbLine
 10
-38.0755162779
 20
-592.1866486348
 30
0.0
 11
-45.1465840898
 21
-592.1866486348
 31
0.0
  0
LINE
  5
166
330
1F
100
AcDbEntity
  8
0
  6
SLD-Сплошная
 62
     7
370
    35
100
AcDbLine
 10
-20.3978467483
 20
-593.3866486348
 30
0.0
 11
-20.3978467483
 21
-592.1866486348
 31
0.0
  0
LINE
  5
167
330
1F
100
AcDbEntity
  8
0
  6
SLD-Сплошная
 62
     7
370
    35
100
AcDbLine
 10
-38.0755162779
 20
-593.3866486348
 30
0.0
 11
-20.3978467483
 21
-593.3866486348
 31
0.0
  0
LINE
  5
168
330
1F
100
AcDbEntity
  8
0
  6
SLD-Сплошная
 62
     7
370
    35
100
AcDbLine
 10
-38.0755162779
 20
-592.1866486348
 30
0.0
 11
-20.3978467483
 21
-592.1866486348
 31
0.0
  0
LINE
  5
169
330
1F
100
AcDbEntity
  8
0
  6
SLD-Сплошная
 62
     7
370
    35
100
AcDbLine
 10
-45.1465840898
 20
-593.3866486348
 30
0.0
 11
-319.5040151902
 21
-593.3866486348
 31
0.0
  0
LINE
  5
16A
330
1F
100
AcDbEntity
  8
0
  6
SLD-Сплошная
 62
     7
370
    35
100
AcDbLine
 10
-45.1465840898
 20
-592.1866486348
 30
0.0
 11
-319.5040151902
 21
-592.1866486348
 31
0.0
  0
LINE
  5
16B
330
1F
100
AcDbEntity
  8
0
  6
SLD-Сплошная
 62
     7
370
    35
100
AcDbLine
 10
-3.2528914745
 20
-599.7724350724
 30
0.0
 11
-3.0359911001
 21
-599.7724350724
 31
0.0
  0
LINE
  5
16C
330
1F
100
AcDbEntity
  8
0
  6
SLD-Сплошная
 62
     7
370
    35
100
AcDbLine
 10
114.9423911709
 20
-594.3866486348
 30
0.0
 11
114.9423911709
 21
-599.7724350724
 31
0.0
  0
LINE
  5
16D
330
1F
100
AcDbEntity
  8
0
  6
SLD-Сплошная
 62
     7
370
    35
100
AcDbLine
 10
-17.286576911
 20
-594.3866486348
 30
0.0
 11
-17.286576911
 21
-599.7724350724
 31
0.0
  0
ARC
  5
16E
330
1F
100
AcDbEntity
  8
0
  6
SLD-Сплошная
 62
     7
370
    35
100
AcDbCircle
 10
-19.2311205593
 20
-594.1116486348
 30
0.0
 40
1.963892817858438
100
AcDbArc
 50
351.9505330248
 51
78.578246341
  0
ARC
  5
16F
330
1F
100
AcDbEntity
  8
0
  6
SLD-Сплошная
 62
     7
370
    35
100
AcDbCircle
 10
-19.0189885249
 20
-594.2616486348
 30
0.0
 40
0.8926785535719514
100
AcDbArc
 50
351.9505330248
 51
78.578246341
  0
LINE
  5
170
330
1F
100
AcDbEntity
  8
0
  6
SLD-Сплошная
 62
     7
370
    35
100
AcDbLine
 10
-18.1351050485
 20
-594.3866486348
 30
0.0
 11
-18.1351050485
 21
-599.7724350724
 31
0.0
  0
ARC
  5
171
330
1F
100
AcDbEntity
  8
0
  6
SLD-Сплошная
 62
     7
370
    35
100
AcDbCircle
 10
112.9978475226
 20
-594.1116486348
 30
0.0
 40
1.96389281784949
100
AcDbArc
 50
351.9505330245
 51
78.578246341
  0
LINE
  5
172
330
1F
100
AcDbEntity
  8
0
  6
SLD-Сплошная
 62
     7
370
    35
100
AcDbLine
 10
-18.8422118296
 20
-592.1866486348
 30
0.0
 11
113.3867562522
 21
-592.1866486348
 31
0.0
  0
SPLINE
  5
173
330
1F
100
AcDbEntity
  8
0
  6
SLD-Сплошная
 62
     7
370
    35
100
AcDbSpline
210
0.0
220
0.0
230
1.0
 70
     8
 71
     3
 72
     9
 73
     5
 74
     0
 42
0.000000001
 43
0.00000001
 40
0.8577255279201176
 40
0.8577255279201176
 40
0.8577255279201176
 40
0.8577255279201176
 40
0.9673841945285
 40
1.0
 40
1.0
 40
1.0
 40
1.0
 10
-5.168429315168089
 20
-601.3280699910441
 30
0.0
 10
-5.091811045816518
 20
-601.2599425762444
 30
0.0
 10
-4.992404184866073
 20
-601.1715520069033
 30
0.0
 10
-4.895577442648014
 20
-601.0800360756779
 30
0.0
 10
-4.873556256428713
 20
-601.0588433439459
 30
0.0
  0
SPLINE
  5
174
330
1F
100
AcDbEntity
  8
0
  6
SLD-Сплошная
 62
     7
370
    35
100
AcDbSpline
210
0.0
220
0.0
230
1.0
 70
     8
 71
     3
 72
     8
 73
     4
 74
     0
 42
0.000000001
 43
0.00000001
 40
0.0
 40
0.0
 40
0.0
 40
0.0
 40
1.0
 40
1.0
 40
1.0
 40
1.0
 10
-4.873556256428824
 20
-601.058843343946
 30
0.0
 10
-4.781886056187346
 20
-600.9689537523125
 30
0.0
 10
-4.69275854123291
 20
-600.8777662795974
 30
0.0
 10
-4.605255839005562
 20
-600.7860571273033
 30
0.0
  0
SPLINE
  5
175
330
1F
100
AcDbEntity
  8
0
  6
SLD-Сплошная
 62
     7
370
    35
100
AcDbSpline
210
0.0
220
0.0
230
1.0
 70
     8
 71
     3
 72
    20
 73
    16
 74
     0
 42
0.000000001
 43
0.00000001
 40
0.0
 40
0.0
 40
0.0
 40
0.0
 40
0.0628127590868165
 40
0.1303108571266951
 40
0.1844963557660128
 40
0.2545375803396486
 40
0.3094421421823932
 40
0.3730100995782201
 40
0.4370728362982666
 40
0.4863974398169745
 40
0.5667266283324364
 40
0.5957158256494889
 40
0.6976810151999745
 40
0.7022984966746554
 40
0.7213092523123921
 40
0.7213092523123921
 40
0.7213092523123921
 40
0.7213092523123921
 10
-4.605255839052802
 20
-600.7860571273535
 30
0.0
 10
-4.565118569023197
 20
-600.743796984498
 30
0.0
 10
-4.482666763519383
 20
-600.6563824625944
 30
0.0
 10
-4.367988547063939
 20
-600.5347482535029
 30
0.0
 10
-4.250459990212785
 20
-600.4118436815567
 30
0.0
 10
-4.141656885889022
 20
-600.3018041704854
 30
0.0
 10
-4.027451254995928
 20
-600.1930682979157
 30
0.0
 10
-3.916586793120569
 20
-600.0956260889038
 30
0.0
 10
-3.808149790850091
 20
-600.0109963556133
 30
0.0
 10
-3.687997692051803
 20
-599.9295711596493
 30
0.0
 10
-3.587880913449026
 20
-599.8745904390341
 30
0.0
 10
-3.452422891698448
 20
-599.8159136009895
 30
0.0
 10
-3.363822206125078
 20
-599.7898353718748
 30
0.0
 10
-3.281044944592693
 20
-599.7762466265222
 30
0.0
 10
-3.265443805247903
 20
-599.7741344681909
 30
0.0
 10
-3.252891474477548
 20
-599.7724350724336
 30
0.0
  0
SPLINE
  5
176
330
1F
100
AcDbEntity
  8
0
  6
SLD-Сплошная
 62
     7
370
    35
100
AcDbSpline
210
0.0
220
0.0
230
1.0
 70
     8
 71
     3
 72
    19
 73
    15
 74
     0
 42
0.000000001
 43
0.00000001
 40
0.0
 40
0.0
 40
0.0
 40
0.0
 40
0.0526315789475024
 40
0.1052631578948446
 40
0.1578947368422604
 40
0.2105263157896001
 40
0.2631578947368725
 40
0.3157894736842871
 40
0.3684210526316888
 40
0.4210526315790378
 40
0.4736842105263754
 40
0.5263157894736689
 40
0.5789473684210557
 40
0.6146345929203171
 40
0.6146345929203171
 40
0.6146345929203171
 40
0.6146345929203171
 10
-17.28657691103347
 20
-599.7724350724336
 30
0.0
 10
-17.28683272850734
 20
-599.8027486852659
 30
0.0
 10
-17.28734436345503
 20
-599.8633759109306
 30
0.0
 10
-17.29148042983697
 20
-599.9541613785307
 30
0.0
 10
-17.29807507505959
 20
-600.0446363697845
 30
0.0
 10
-17.30735898201979
 20
-600.1346463096897
 30
0.0
 10
-17.31925145908808
 20
-600.2240374177651
 30
0.0
 10
-17.33374955935152
 20
-600.3126569708351
 30
0.0
 10
-17.35082385853637
 20
-600.4003535637561
 30
0.0
 10
-17.37044643235885
 20
-600.4869773688317
 30
0.0
 10
-17.3925834230127
 20
-600.5723803890216
 30
0.0
 10
-17.41719709482059
 20
-600.6564167211271
 30
0.0
 10
-17.44134272147607
 20
-600.7300865462537
 30
0.0
 10
-17.45759313485656
 20
-600.7754727644264
 30
0.0
 10
-17.46433989595903
 20
-600.793678377551
 30
0.0
  0
SPLINE
  5
177
330
1F
100
AcDbEntity
  8
0
  6
SLD-Сплошная
 62
     7
370
    35
100
AcDbSpline
210
0.0
220
0.0
230
1.0
 70
     8
 71
     3
 72
     8
 73
     4
 74
     0
 42
0.000000001
 43
0.00000001
 40
0.0
 40
0.0
 40
0.0
 40
0.0
 40
1.0
 40
1.0
 40
1.0
 40
1.0
 10
-17.74150465212959
 20
-601.3280699910439
 30
0.0
 10
-17.62967211045108
 20
-601.1699148938873
 30
0.0
 10
-17.53775573179461
 20
-600.9917851644469
 30
0.0
 10
-17.46433989828455
 20
-600.7936783742902
 30
0.0
  0
ARC
  5
178
330
1F
100
AcDbEntity
  8
0
  6
SLD-Сплошная
 62
     7
370
    35
100
AcDbCircle
 10
-19.371999727
 20
-599.7940404852
 30
0.0
 40
1.237083360081106
100
AcDbArc
 50
326.3493899531
 51
1.0007101734
  0
ARC
  5
179
330
1F
100
AcDbEntity
  8
0
  6
SLD-Сплошная
 62
     7
370
    35
100
AcDbCircle
 10
-13.7945286723
 20
-600.5735686698
 30
0.0
 40
8.279016381618417
100
AcDbArc
 50
221.4651180218
 51
264.4198037488
  0
ARC
  5
17A
330
1F
100
AcDbEntity
  8
0
  6
SLD-Сплошная
 62
     7
370
    35
100
AcDbCircle
 10
-13.1945286726
 20
-599.7250405332
 30
0.0
 40
8.279016380759678
100
AcDbArc
 50
221.4651180186
 51
264.4198037501
  0
SPLINE
  5
17B
330
1F
100
AcDbEntity
  8
0
  6
SLD-Сплошная
 62
     7
370
    35
100
AcDbSpline
210
0.0
220
0.0
230
1.0
 70
     8
 71
     3
 72
    14
 73
    10
 74
     0
 42
0.000000001
 43
0.00000001
 40
0.0
 40
0.0
 40
0.0
 40
0.0
 40
0.25
 40
0.25
 40
0.5
 40
0.5
 40
0.75
 40
0.75
 40
1.0
 40
1.0
 40
1.0
 40
1.0
 10
-19.3984840146505
 20
-605.2071067811477
 30
0.0
 10
-19.48387258562423
 20
-605.1155502462308
 30
0.0
 10
-19.55209866076302
 20
-605.0070192271947
 30
0.0
 10
-19.64837000029718
 20
-604.7662909581617
 30
0.0
 10
-19.67546852300972
 20
-604.6352914196713
 30
0.0
 10
-19.6867282264801
 20
-604.3735069180186
 30
0.0
 10
-19.67087376943411
 20
-604.2411906674595
 30
0.0
 10
-19.60308064541133
 20
-603.9990223844748
 30
0.0
 10
-19.55078186259057
 20
-603.8867743601763
 30
0.0
 10
-19.48439787094691
 20
-603.7928932188669
 30
0.0
  0
LINE
  5
17C
330
1F
100
AcDbEntity
  8
0
  6
SLD-Сплошная
 62
     7
370
    35
100
AcDbLine
 10
-19.4843978709
 20
-603.7928932189
 30
0.0
 11
-17.7415046521
 21
-601.328069991
 31
0.0
  0
SPLINE
  5
17D
330
1F
100
AcDbEntity
  8
0
  6
SLD-Сплошная
 62
     7
370
    35
100
AcDbSpline
210
0.0
220
0.0
230
1.0
 70
     8
 71
     3
 72
    10
 73
     6
 74
     0
 42
0.000000001
 43
0.00000001
 40
0.0
 40
0.0
 40
0.0
 40
0.0
 40
0.5
 40
0.5
 40
1.0
 40
1.0
 40
1.0
 40
1.0
 10
-20.48772668469517
 20
-605.0694351905363
 30
0.0
 10
-20.45205654371657
 20
-605.2576836723484
 30
0.0
 10
-20.393809821108
 20
-605.4349410334252
 30
0.0
 10
-20.22947955324783
 20
-605.7679634975157
 30
0.0
 10
-20.1238763819413
 20
-605.9211849504898
 30
0.0
 10
-19.99848401472459
 20
-606.0556349186381
 30
0.0
  0
ARC
  5
17E
330
1F
100
AcDbEntity
  8
0
  6
SLD-Сплошная
 62
     7
370
    35
100
AcDbCircle
 10
-3.7780757825
 20
-603.9905728336
 30
0.0
 40
3.003665149847045
100
AcDbArc
 50
117.5734713579
 51
176.2264768942
  0
LINE
  5
17F
330
1F
100
AcDbEntity
  8
0
  6
SLD-Сплошная
 62
     7
370
    35
100
AcDbLine
 10
-18.3422118296
 20
-600.4795418536
 30
0.0
 11
-20.0851050485
 21
-602.9443650814
 31
0.0
  0
LINE
  5
180
330
1F
100
AcDbEntity
  8
0
  6
SLD-Сплошная
 62
     7
370
    35
100
AcDbLine
 10
-20.3978467483
 20
-593.3866486348
 30
0.0
 11
-18.8422118296
 21
-593.3866486348
 31
0.0
  0
LINE
  5
181
330
1F
100
AcDbEntity
  8
0
  6
SLD-Сплошная
 62
     7
370
    35
100
AcDbLine
 10
-20.3978467483
 20
-592.1866486348
 30
0.0
 11
-18.8422118296
 21
-592.1866486348
 31
0.0
  0
LWPOLYLINE
  5
182
330
1F
100
AcDbEntity
  8
0
  6
SLD-Сплошная
 62
     7
370
    35
100
AcDbPolyline
 90
        9
 70
   128
 43
0.0
 10
112.6572419997
 20
-605.2071067812
 10
112.8792703603
 20
-605.7748878987
 10
112.9815661639
 20
-606.3044993404
 10
112.9612276553
 20
-606.7809179803
 10
112.8188317631
 20
-607.1906295762
 10
112.5584177342
 20
-607.5220121192
 10
112.1873725556
 20
-607.7656655069
 10
111.7162214125
 20
-607.9146781901
 10
111.1583291275
 20
-607.9648232279
  0
LINE
  5
183
330
1F
100
AcDbEntity
  8
0
  6
SLD-Сплошная
 62
     7
370
    35
100
AcDbLine
 10
-13.9995711425
 20
-607.9648232279
 30
0.0
 11
111.1583291275
 21
-607.9648232279
 31
0.0
  0
SPLINE
  5
184
330
1F
100
AcDbEntity
  8
0
  6
SLD-Сплошная
 62
     7
370
    35
100
AcDbSpline
210
0.0
220
0.0
230
1.0
 70
     8
 71
     3
 72
    14
 73
    10
 74
     0
 42
0.000000001
 43
0.00000001
 40
0.0
 40
0.0
 40
0.0
 40
0.0
 40
0.25
 40
0.25
 40
0.5
 40
0.5
 40
0.75
 40
0.75
 40
1.0
 40
1.0
 40
1.0
 40
1.0
 10
112.7431558559465
 20
-603.7928932188946
 30
0.0
 10
112.6767722408998
 20
-603.8867738276131
 30
0.0
 10
112.6245152147008
 20
-603.9975083311464
 30
0.0
 10
112.551079017744
 20
-604.241029863281
 30
0.0
 10
112.5305596965944
 20
-604.3727725365206
 30
0.0
 10
112.5208107599187
 20
-604.6344728260677
 30
0.0
 10
112.5315746954898
 20
-604.7661355104577
 30
0.0
 10
112.5776438688083
 20
-605.0055062429243
 30
0.0
 10
112.613144411538
 20
-605.1155384814781
 30
0.0
 10
112.657241999682
 20
-605.2071067812124
 30
0.0
  0
SPLINE
  5
185
330
1F
100
AcDbEntity
  8
0
  6
SLD-Сплошная
 62
     7
370
    35
100
AcDbSpline
210
0.0
220
0.0
230
1.0
 70
     8
 71
     3
 72
    24
 73
    20
 74
     0
 42
0.000000001
 43
0.00000001
 40
0.0
 40
0.0
 40
0.0
 40
0.0
 40
0.0625000000000057
 40
0.0625000000000057
 40
0.1250000000000115
 40
0.1250000000000115
 40
0.2499999999999931
 40
0.2499999999999931
 40
0.3749999999999746
 40
0.3749999999999746
 40
0.4999999999999563
 40
0.4999999999999563
 40
0.7499999999999194
 40
0.7499999999999194
 40
0.8749999999999296
 40
0.8749999999999296
 40
0.9374999999999648
 40
0.9374999999999648
 40
1.0
 40
1.0
 40
1.0
 40
1.0
 10
-3.910709900635412
 20
-603.7928932188582
 30
0.0
 10
-3.989224311469253
 20
-603.8302047111191
 30
0.0
 10
-4.065158552924608
 20
-603.8704919811362
 30
0.0
 10
-4.212479604319197
 20
-603.9464214973872
 30
0.0
 10
-4.28409507161337
 20
-603.9823249867462
 30
0.0
 10
-4.495488906743783
 20
-604.0849807831107
 30
0.0
 10
-4.63256188539779
 20
-604.145959607878
 30
0.0
 10
-4.897639272424648
 20
-604.2420957992031
 30
0.0
 10
-5.026817747327772
 20
-604.2783866183597
 30
0.0
 10
-5.284403357027401
 20
-604.3270212921465
 30
0.0
 10
-5.413695624295944
 20
-604.339386315282
 30
0.0
 10
-5.794915592731542
 20
-604.3394073636492
 30
0.0
 10
-6.043523894088687
 20
-604.2911115343353
 30
0.0
 10
-6.378301323125168
 20
-604.1458189228374
 30
0.0
 10
-6.480629696751505
 20
-604.0861392073563
 30
0.0
 10
-6.611614199866889
 20
-603.9833751617185
 30
0.0
 10
-6.651539231620096
 20
-603.9470151091351
 30
0.0
 10
-6.721887175910268
 20
-603.8713162215654
 30
0.0
 10
-6.750894821003495
 20
-603.8312949349702
 30
0.0
 10
-6.775228948818213
 20
-603.7928932188582
 30
0.0
  0
SPLINE
  5
186
330
1F
100
AcDbEntity
  8
0
  6
SLD-Сплошная
 62
     7
370
    35
100
AcDbSpline
210
0.0
220
0.0
230
1.0
 70
     8
 71
     3
 72
     8
 73
     4
 74
     0
 42
0.000000001
 43
0.00000001
 40
0.0
 40
0.0
 40
0.0
 40
0.0
 40
1.0
 40
1.0
 40
1.0
 40
1.0
 10
-20.08510504845762
 20
-602.9443650814344
 30
0.0
 10
-20.1760458884867
 20
-603.0729748507771
 30
0.0
 10
-20.25564595889273
 20
-603.2176067158442
 30
0.0
 10
-20.3214793769691
 20
-603.37385289234
 30
0.0
  0
ARC
  5
187
330
1F
100
AcDbEntity
  8
0
  6
SLD-Сплошная
 62
     7
370
    35
100
AcDbCircle
 10
-17.8395205333
 20
-604.4149599445
 30
0.0
 40
2.691472384322843
100
AcDbArc
 50
157.2434168472
 51
165.7688719886
  0
SPLINE
  5
188
330
1F
100
AcDbEntity
  8
0
  6
SLD-Сплошная
 62
     7
370
    35
100
AcDbSpline
210
0.0
220
0.0
230
1.0
 70
     8
 71
     3
 72
     8
 73
     4
 74
     0
 42
0.000000001
 43
0.00000001
 40
0.0
 40
0.0
 40
0.0
 40
0.0
 40
1.0
 40
1.0
 40
1.0
 40
1.0
 10
-20.4483968373505
 20
-603.7533044254511
 30
0.0
 10
-20.55542139242228
 20
-604.1727743084263
 30
0.0
 10
-20.56934434775315
 20
-604.6386909465256
 30
0.0
 10
-20.48772668396392
 20
-605.0694351947924
 30
0.0
  0
LINE
  5
189
330
1F
100
AcDbEntity
  8
0
  6
SLD-Сплошная
 62
     7
370
    35
100
AcDbLine
 10
-14.5995711425
 20
-608.8133513653
 30
0.0
 11
110.5583291275
 21
-608.8133513653
 31
0.0
  0
LINE
  5
18A
330
1F
100
AcDbEntity
  8
0
  6
SLD-Сплошная
 62
     7
370
    35
100
AcDbLine
 10
-2.6317230966
 20
-600.4795418537
 30
0.0
 11
-2.0317230967
 21
-601.328069991
 31
0.0
  0
SPLINE
  5
18B
330
1F
100
AcDbEntity
  8
0
  6
SLD-Сплошная
 62
     7
370
    35
100
AcDbSpline
210
0.0
220
0.0
230
1.0
 70
     8
 71
     3
 72
     9
 73
     5
 74
     0
 42
0.000000001
 43
0.00000001
 40
0.0
 40
0.0
 40
0.0
 40
0.0
 40
0.0066027594858413
 40
0.0260230094849562
 40
0.0260230094849562
 40
0.0260230094849562
 40
0.0260230094849562
 10
-2.021865085177488
 20
-601.2807857249819
 30
0.0
 10
-2.02263728170371
 20
-601.2848156195432
 30
0.0
 10
-2.025773018374422
 20
-601.3006521937142
 30
0.0
 10
-2.029180321137525
 20
-601.316352951275
 30
0.0
 10
-2.031723096658111
 20
-601.3280699910441
 30
0.0
  0
SPLINE
  5
18C
330
1F
100
AcDbEntity
  8
0
  6
SLD-Сплошная
 62
     7
370
    35
100
AcDbSpline
210
0.0
220
0.0
230
1.0
 70
     8
 71
     3
 72
    16
 73
    12
 74
     0
 42
0.000000001
 43
0.00000001
 40
0.0
 40
0.0
 40
0.0
 40
0.0
 40
0.1250000000000301
 40
0.1250000000000301
 40
0.2500000000000602
 40
0.2500000000000602
 40
0.5000000000000402
 40
0.5000000000000402
 40
0.7500000000000201
 40
0.7500000000000201
 40
1.0
 40
1.0
 40
1.0
 40
1.0
 10
-3.035991100129032
 20
-599.7724350724336
 30
0.0
 10
-2.955708051374017
 20
-599.7877965784711
 30
0.0
 10
-2.875495560192787
 20
-599.8034814781871
 30
0.0
 10
-2.72136440958215
 20
-599.8631535346211
 30
0.0
 10
-2.646600143927036
 20
-599.9052683143335
 30
0.0
 10
-2.435667712784695
 20
-600.0530097096527
 30
0.0
 10
-2.315417125398012
 20
-600.1817280090623
 30
0.0
 10
-2.127557130773006
 20
-600.4781803937653
 30
0.0
 10
-2.063474057744208
 20
-600.6394456905545
 30
0.0
 10
-1.996191577561701
 20
-600.9676478184623
 30
0.0
 10
-1.993582761509405
 20
-601.1303005728754
 30
0.0
 10
-2.021865085177432
 20
-601.2807857249819
 30
0.0
  0
SPLINE
  5
18D
330
1F
100
AcDbEntity
  8
0
  6
SLD-Сплошная
 62
     7
370
    35
100
AcDbSpline
210
0.0
220
0.0
230
1.0
 70
     8
 71
     3
 72
     9
 73
     5
 74
     0
 42
0.000000001
 43
0.00000001
 40
0.0
 40
0.0
 40
0.0
 40
0.0
 40
0.6152343009271632
 40
1.0
 40
1.0
 40
1.0
 40
1.0
 10
-3.236420768122139
 20
-599.9659948335642
 30
0.0
 10
-3.061882898478474
 20
-600.0463251158768
 30
0.0
 10
-2.778189565092015
 20
-600.1768937174513
 30
0.0
 10
-2.672419709201068
 20
-600.3954492004269
 30
0.0
 10
-2.631723096658267
 20
-600.4795418536204
 30
0.0
  0
ARC
  5
18E
330
1F
100
AcDbEntity
  8
0
  6
SLD-Сплошная
 62
     7
370
    35
100
AcDbCircle
 10
112.221222878
 20
-599.8199669805
 30
0.0
 40
2.721583392163478
100
AcDbArc
 50
326.3493899529
 51
1.0007101734
  0
LINE
  5
18F
330
1F
100
AcDbEntity
  8
0
  6
SLD-Сплошная
 62
     7
370
    35
100
AcDbLine
 10
-4.5107099006
 20
-602.9443650814
 30
0.0
 11
-3.9107099006
 21
-603.7928932189
 31
0.0
  0
SPLINE
  5
190
330
1F
100
AcDbEntity
  8
0
  6
SLD-Сплошная
 62
     7
370
    35
100
AcDbSpline
210
0.0
220
0.0
230
1.0
 70
     8
 71
     3
 72
    11
 73
     7
 74
     0
 42
0.000000001
 43
0.00000001
 40
0.0
 40
0.0
 40
0.0
 40
0.0
 40
0.0446010548107628
 40
0.3626864875299812
 40
0.6811641852898768
 40
1.0
 40
1.0
 40
1.0
 40
1.0
 10
-6.597615091556042
 20
-604.1042110556274
 30
0.0
 10
-6.577954314734679
 20
-604.1141649294505
 30
0.0
 10
-6.418076972871667
 20
-604.1951077580346
 30
0.0
 10
-6.048700962159481
 20
-604.1169562864742
 30
0.0
 10
-5.573301721013557
 20
-603.8528123417718
 30
0.0
 10
-5.245843597347976
 20
-603.566370332245
 30
0.0
 10
-5.082022533461128
 20
-603.4230688492423
 30
0.0
  0
SPLINE
  5
191
330
1F
100
AcDbEntity
  8
0
  6
SLD-Сплошная
 62
     7
370
    35
100
AcDbSpline
210
0.0
220
0.0
230
1.0
 70
     8
 71
     3
 72
     8
 73
     4
 74
     0
 42
0.000000001
 43
0.00000001
 40
0.0
 40
0.0
 40
0.0
 40
0.0
 40
1.0
 40
1.0
 40
1.0
 40
1.0
 10
-4.808391865925632
 20
-603.1861054183654
 30
0.0
 10
-4.901221744797624
 20
-603.2654525294165
 30
0.0
 10
-4.992115231268635
 20
-603.3447067366051
 30
0.0
 10
-5.082022533461017
 20
-603.4230688492422
 30
0.0
  0
SPLINE
  5
192
330
1F
100
AcDbEntity
  8
0
  6
SLD-Сплошная
 62
     7
370
    35
100
AcDbSpline
210
0.0
220
0.0
230
1.0
 70
     8
 71
     3
 72
     9
 73
     5
 74
     0
 42
0.000000001
 43
0.00000001
 40
0.9250461524477328
 40
0.9250461524477328
 40
0.9250461524477328
 40
0.9250461524477328
 40
0.9403746966207426
 40
1.0
 40
1.0
 40
1.0
 40
1.0
 10
-4.808391865928019
 20
-603.1861054183672
 30
0.0
 10
-4.78844513246246
 20
-603.1693401442111
 30
0.0
 10
-4.690390324224413
 20
-603.0877901271988
 30
0.0
 10
-4.590317326403525
 20
-603.0079095592129
 30
0.0
 10
-4.510709900635456
 20
-602.9443650814344
 30
0.0
  0
LINE
  5
193
330
1F
100
AcDbEntity
  8
0
  6
SLD-Сплошная
 62
     7
370
    35
100
AcDbLine
 10
114.4867562522
 20
-601.328069991
 30
0.0
 11
112.7438630334
 21
-603.7928932189
 31
0.0
  0
ARC
  5
194
330
1F
100
AcDbEntity
  8
0
  6
SLD-Сплошная
 62
     7
370
    35
100
AcDbCircle
 10
-5.4554692006
 20
-600.6666833025
 30
0.0
 40
3.487043122189109
100
AcDbArc
 50
296.2954354578
 51
349.0664866524
  0
ARC
  5
195
330
1F
100
AcDbEntity
  8
0
  6
SLD-Сплошная
 62
     7
370
    35
100
AcDbCircle
 10
-6.0554692006
 20
-599.8181551651
 30
0.0
 40
3.487043122188123
100
AcDbArc
 50
296.2954354578
 51
349.0664866524
  0
LINE
  5
196
330
1F
100
AcDbEntity
  8
0
  6
SLD-Сплошная
 62
     7
370
    35
100
AcDbLine
 10
-164.7186979222
 20
-591.1866486348
 30
0.0
 11
-178.7186979222
 21
-591.1866486348
 31
0.0
  0
ARC
  5
197
330
1F
100
AcDbEntity
  8
0
  6
SLD-Сплошная
 62
     7
370
    35
100
AcDbCircle
 10
110.7366717039
 20
-606.994003141
 30
0.0
 40
1.828068389248705
100
AcDbArc
 50
264.4014372542
 51
320.183624625
  0
LINE
  5
198
330
1F
100
AcDbEntity
  8
0
  6
SLD-Сплошная
 62
     7
370
    35
100
AcDbLine
 10
-174.9686979222
 20
-593.9866486347
 30
0.0
 11
-168.4686979222
 21
-593.9866486347
 31
0.0
  0
LINE
  5
199
330
1F
100
AcDbEntity
  8
0
  6
SLD-Сплошная
 62
     7
370
    35
100
AcDbLine
 10
115.7048706527
 20
-593.3866486348
 30
0.0
 11
115.7048706527
 21
-592.1866486348
 31
0.0
  0
LINE
  5
19A
330
1F
100
AcDbEntity
  8
0
  6
SLD-Сплошная
 62
     7
370
    35
100
AcDbLine
 10
114.7723968983
 20
-593.3866486348
 30
0.0
 11
115.7048706527
 21
-593.3866486348
 31
0.0
  0
LINE
  5
19B
330
1F
100
AcDbEntity
  8
0
  6
SLD-Сплошная
 62
     7
370
    35
100
AcDbLine
 10
113.3867562522
 20
-592.1866486348
 30
0.0
 11
115.7048706527
 21
-592.1866486348
 31
0.0
  0
LINE
  5
19C
330
1F
100
AcDbEntity
  8
0
  6
SLD-Сплошная
 62
     7
370
    35
100
AcDbLine
 10
316.5418433136
 20
-593.3866486348
 30
0.0
 11
316.5418433136
 21
-592.1866486348
 31
0.0
  0
LINE
  5
19D
330
1F
100
AcDbEntity
  8
0
  6
SLD-Сплошная
 62
     7
370
    35
100
AcDbLine
 10
316.5418433136
 20
-593.3866486348
 30
0.0
 11
115.7048706527
 21
-593.3866486348
 31
0.0
  0
LINE
  5
19E
330
1F
100
AcDbEntity
  8
0
  6
SLD-Сплошная
 62
     7
370
    35
100
AcDbLine
 10
316.5418433136
 20
-592.1866486348
 30
0.0
 11
115.7048706527
 21
-592.1866486348
 31
0.0
  0
LINE
  5
19F
330
1F
100
AcDbEntity
  8
0
  6
SLD-Сплошная
 62
     7
370
    35
100
AcDbLine
 10
-320.9684812842
 20
-593.3866486348
 30
0.0
 11
-319.5040151902
 21
-593.3866486348
 31
0.0
  0
LINE
  5
1A0
330
1F
100
AcDbEntity
  8
0
  6
SLD-Сплошная
 62
     7
370
    35
100
AcDbLine
 10
-319.5040151902
 20
-592.1866486348
 30
0.0
 11
-320.9684812842
 21
-592.1866486348
 31
0.0
  0
SPLINE
  5
1A1
330
1F
100
AcDbEntity
  8
0
  6
SLD-Сплошная
 62
     7
370
    35
100
AcDbSpline
210
0.0
220
0.0
230
1.0
 70
     8
 71
     3
 72
    14
 73
    10
 74
     0
 42
0.000000001
 43
0.00000001
 40
0.0
 40
0.0
 40
0.0
 40
0.0
 40
0.25
 40
0.25
 40
0.5
 40
0.5
 40
0.75
 40
0.75
 40
1.0
 40
1.0
 40
1.0
 40
1.0
 10
-302.738380182829
 20
-603.7928932188682
 30
0.0
 10
-302.6719965677731
 20
-603.886773827591
 30
0.0
 10
-302.6197395415883
 20
-603.9975083311487
 30
0.0
 10
-302.5463033446206
 20
-604.2410298632857
 30
0.0
 10
-302.5257840234661
 20
-604.3727725365267
 30
0.0
 10
-302.516035086783
 20
-604.6344728260755
 30
0.0
 10
-302.5267990223514
 20
-604.7661355104661
 30
0.0
 10
-302.572868195667
 20
-605.0055062429333
 30
0.0
 10
-302.6083687383998
 20
-605.1155384814969
 30
0.0
 10
-302.6524663265453
 20
-605.2071067812296
 30
0.0
  0
ARC
  5
1A2
330
1F
100
AcDbEntity
  8
0
  6
SLD-Сплошная
 62
     7
370
    35
100
AcDbCircle
 10
-300.9800485404
 20
-606.3295018776
 30
0.0
 40
2.014138029922489
100
AcDbArc
 50
146.1335991323
 51
209.3278932608
  0
LWPOLYLINE
  5
1A3
330
1F
100
AcDbEntity
  8
0
  6
SLD-Сплошная
 62
     7
370
    35
100
AcDbPolyline
 90
        9
 70
   128
 43
0.0
 10
-300.5535534543
 20
-608.8133513653
 10
-301.1114457393
 20
-608.7632063275
 10
-301.5825968824
 20
-608.6141936443
 10
-301.953642061
 20
-608.3705402566
 10
-302.2140560899
 20
-608.0391577136
 10
-302.3564519821
 20
-607.6294461177
 10
-302.3767904907
 20
-607.1530274778
 10
-302.2744946871
 20
-606.6234160361
 10
-302.0524663265
 20
-606.0556349186
  0
SPLINE
  5
1A4
330
1F
100
AcDbEntity
  8
0
  6
SLD-Сплошная
 62
     7
370
    35
100
AcDbSpline
210
0.0
220
0.0
230
1.0
 70
     8
 71
     3
 72
    10
 73
     6
 74
     0
 42
0.000000001
 43
0.00000001
 40
0.0
 40
0.0
 40
0.0
 40
0.0
 40
0.5
 40
0.5
 40
1.0
 40
1.0
 40
1.0
 40
1.0
 10
-302.0524663264965
 20
-606.0556349186479
 30
0.0
 10
-301.9877261288048
 20
-605.9212024003115
 30
0.0
 10
-301.927537510736
 20
-605.7709908109287
 30
0.0
 10
-301.8192912393434
 20
-605.4383106629405
 30
0.0
 10
-301.7721348726224
 20
-605.257692209319
 30
0.0
 10
-301.7364608159091
 20
-605.0694092874245
 30
0.0
  0
SPLINE
  5
1A5
330
1F
100
AcDbEntity
  8
0
  6
SLD-Сплошная
 62
     7
370
    35
100
AcDbSpline
210
0.0
220
0.0
230
1.0
 70
     8
 71
     3
 72
    10
 73
     6
 74
     0
 42
0.000000001
 43
0.00000001
 40
0.0
 40
0.0
 40
0.0
 40
0.0
 40
0.5
 40
0.5
 40
1.0
 40
1.0
 40
1.0
 40
1.0
 10
-169.5074913342506
 20
-605.0694018992704
 30
0.0
 10
-169.5431597412515
 20
-605.2576567862184
 30
0.0
 10
-169.6014060431037
 20
-605.4349203352875
 30
0.0
 10
-169.7657386667673
 20
-605.7679546696294
 30
0.0
 10
-169.8713442036538
 20
-605.9211809389826
 30
0.0
 10
-169.9967403121486
 20
-606.0556349186537
 30
0.0
  0
ARC
  5
1A6
330
1F
100
AcDbEntity
  8
0
  6
SLD-Сплошная
 62
     7
370
    35
100
AcDbCircle
 10
-172.2966528511
 20
-604.4971995771
 30
0.0
 40
2.847250860853888
100
AcDbArc
 50
348.4065112019
 51
33.0506550418
  0
SPLINE
  5
1A7
330
1F
100
AcDbEntity
  8
0
  6
SLD-Сплошная
 62
     7
370
    35
100
AcDbSpline
210
0.0
220
0.0
230
1.0
 70
     8
 71
     3
 72
    26
 73
    22
 74
     0
 42
0.000000001
 43
0.00000001
 40
0.0
 40
0.0
 40
0.0
 40
0.0
 40
0.0625
 40
0.0625
 40
0.1250000000000001
 40
0.1250000000000001
 40
0.2500000000000002
 40
0.2500000000000002
 40
0.3750000000000002
 40
0.3750000000000002
 40
0.5000000000000003
 40
0.5000000000000003
 40
0.6250000000000004
 40
0.6250000000000004
 40
0.7500000000000004
 40
0.7500000000000004
 40
0.8750000000000006
 40
0.8750000000000006
 40
0.9375000000000003
 40
0.9375000000000003
 40
1.0
 40
1.0
 40
1.0
 40
1.0
 10
-286.5646922124754
 20
-602.9443650814344
 30
0.0
 10
-286.5584292094895
 20
-603.0082540304356
 30
0.0
 10
-286.5564077817233
 20
-603.0755072605036
 30
0.0
 10
-286.5681424961277
 20
-603.2118992525787
 30
0.0
 10
-286.5809455022833
 20
-603.282038201277
 30
0.0
 10
-286.6389979258386
 20
-603.4890631784353
 30
0.0
 10
-286.7038667109654
 20
-603.6230295415417
 30
0.0
 10
-286.8852913408397
 20
-603.8625613840504
 30
0.0
 10
-286.9994137195429
 20
-603.964377526627
 30
0.0
 10
-287.2623492020543
 20
-604.1072546845077
 30
0.0
 10
-287.4079905353707
 20
-604.1463643403594
 30
0.0
 10
-287.7113589431215
 20
-604.1469442338813
 30
0.0
 10
-287.864445495823
 20
-604.1086718772955
 30
0.0
 10
-288.1719676700955
 20
-603.9662867598794
 30
0.0
 10
-288.3220640258298
 20
-603.8649444174949
 30
0.0
 10
-288.6286101701887
 20
-603.6250617619141
 30
0.0
 10
-288.7805216018773
 20
-603.4903344231071
 30
0.0
 10
-289.0184885909808
 20
-603.2832244143275
 30
0.0
 10
-289.0994559345903
 20
-603.2130567044328
 30
0.0
 10
-289.2618617711377
 20
-603.0755169948244
 30
0.0
 10
-289.3440192891164
 20
-603.007976713659
 30
0.0
 10
-289.4292112606572
 20
-602.9443650814344
 30
0.0
  0
ARC
  5
1A8
330
1F
100
AcDbEntity
  8
0
  6
SLD-Сплошная
 62
     7
370
    35
100
AcDbCircle
 10
-304.5256220576
 20
-604.4971999424
 30
0.0
 40
2.847252002673789
100
AcDbArc
 50
348.4063716793
 51
33.0506488599
  0
LINE
  5
1A9
330
1F
100
AcDbEntity
  8
0
  6
SLD-Сплошная
 62
     7
370
    35
100
AcDbLine
 10
-302.1390873603
 20
-602.9443650814
 30
0.0
 11
-303.8819805791
 21
-600.4795418536
 31
0.0
  0
LINE
  5
1AA
330
1F
100
AcDbEntity
  8
0
  6
SLD-Сплошная
 62
     7
370
    35
100
AcDbLine
 10
-302.7390873603
 20
-603.7928932189
 30
0.0
 11
-304.4819805791
 21
-601.3280699911
 31
0.0
  0
ARC
  5
1AB
330
1F
100
AcDbEntity
  8
0
  6
SLD-Сплошная
 62
     7
370
    35
100
AcDbCircle
 10
-287.8844519607
 20
-599.8181551651
 30
0.0
 40
3.487043122189457
100
AcDbArc
 50
190.9335133477
 51
243.7045645422
  0
ARC
  5
1AC
330
1F
100
AcDbEntity
  8
0
  6
SLD-Сплошная
 62
     7
370
    35
100
AcDbCircle
 10
-176.2006956546
 20
-600.5735686698
 30
0.0
 40
8.279016381617359
100
AcDbArc
 50
275.5801962512
 51
318.5348819782
  0
LINE
  5
1AD
330
1F
100
AcDbEntity
  8
0
  6
SLD-Сплошная
 62
     7
370
    35
100
AcDbLine
 10
-300.5535534543
 20
-608.8133513653
 30
0.0
 11
-175.3956531843
 21
-608.8133513653
 31
0.0
  0
ARC
  5
1AE
330
1F
100
AcDbEntity
  8
0
  6
SLD-Сплошная
 62
     7
370
    35
100
AcDbCircle
 10
-170.5119990112
 20
-594.381250545
 30
0.0
 40
1.348131074563001
100
AcDbArc
 50
162.9801542416
 51
180.2294202649
  0
ARC
  5
1AF
330
1F
100
AcDbEntity
  8
0
  6
SLD-Сплошная
 62
     7
370
    35
100
AcDbCircle
 10
-303.2052038838
 20
-594.2616486348
 30
0.0
 40
0.8926785535557438
100
AcDbArc
 50
101.4217536589
 51
188.0494669764
  0
SPLINE
  5
1B0
330
1F
100
AcDbEntity
  8
0
  6
SLD-Сплошная
 62
     7
370
    35
100
AcDbSpline
210
0.0
220
0.0
230
1.0
 70
     8
 71
     3
 72
     9
 73
     5
 74
     0
 42
0.000000001
 43
0.00000001
 40
0.0
 40
0.0
 40
0.0
 40
0.0
 40
0.2200762247160549
 40
1.0
 40
1.0
 40
1.0
 40
1.0
 10
-304.7573098434425
 20
-593.3866486348068
 30
0.0
 10
-304.7759259506639
 20
-593.4292102074554
 30
0.0
 10
-304.8605153116704
 20
-593.6226048946992
 30
0.0
 10
-304.8919117985053
 20
-593.8484211049532
 30
0.0
 10
-304.9163986650483
 20
-594.0245405361749
 30
0.0
  0
SPLINE
  5
1B1
330
1F
100
AcDbEntity
  8
0
  6
SLD-Сплошная
 62
     7
370
    35
100
AcDbSpline
210
0.0
220
0.0
230
1.0
 70
     8
 71
     3
 72
     8
 73
     4
 74
     0
 42
0.000000001
 43
0.00000001
 40
0.0
 40
0.0
 40
0.0
 40
0.0
 40
1.0
 40
1.0
 40
1.0
 40
1.0
 10
-304.9323022157781
 20
-594.2049740747764
 30
0.0
 10
-304.9358423859667
 20
-594.2653942287052
 30
0.0
 10
-304.9376154977211
 20
-594.3260214081615
 30
0.0
 10
-304.9376154977211
 20
-594.3866486348069
 30
0.0
  0
ARC
  5
1B2
330
1F
100
AcDbEntity
  8
0
  6
SLD-Сплошная
 62
     7
370
    35
100
AcDbCircle
 10
-301.8626761447
 20
-594.3846156303
 30
0.0
 40
3.074878095916891
100
AcDbArc
 50
173.275106413
 51
176.6507397137
  0
SPLINE
  5
1B3
330
1F
100
AcDbEntity
  8
0
  6
SLD-Сплошная
 62
     7
370
    35
100
AcDbSpline
210
0.0
220
0.0
230
1.0
 70
     8
 71
     3
 72
    16
 73
    12
 74
     0
 42
0.000000001
 43
0.00000001
 40
0.0
 40
0.0
 40
0.0
 40
0.0
 40
0.1250000000000048
 40
0.1250000000000048
 40
0.2500000000000096
 40
0.2500000000000096
 40
0.5000000000000064
 40
0.5000000000000064
 40
0.7500000000000032
 40
0.7500000000000032
 40
1.0
 40
1.0
 40
1.0
 40
1.0
 10
-290.0554019237459
 20
-599.7724350724337
 30
0.0
 10
-290.1219356603272
 20
-599.7781754586277
 30
0.0
 10
-290.1884570364999
 20
-599.783918732955
 30
0.0
 10
-290.3204831038738
 20
-599.803695382749
 30
0.0
 10
-290.3859454874328
 20
-599.817930849876
 30
0.0
 10
-290.5799921822679
 20
-599.8707592625872
 30
0.0
 10
-290.7055538364851
 20
-599.9193131576363
 30
0.0
 10
-290.934758289192
 20
-600.0428922310509
 30
0.0
 10
-291.0393254855648
 20
-600.1178233985377
 30
0.0
 10
-291.2113685303642
 20
-600.290271180818
 30
0.0
 10
-291.2756754351701
 20
-600.3870944968429
 30
0.0
 10
-291.3081980646348
 20
-600.4795418536203
 30
0.0
  0
ARC
  5
1B4
330
1F
100
AcDbEntity
  8
0
  6
SLD-Сплошная
 62
     7
370
    35
100
AcDbCircle
 10
-302.8521926817
 20
-599.7940404851
 30
0.0
 40
1.237083360161253
100
AcDbArc
 50
178.9992898289
 51
213.6506100471
  0
SPLINE
  5
1B5
330
1F
100
AcDbEntity
  8
0
  6
SLD-Сплошная
 62
     7
370
    35
100
AcDbSpline
210
0.0
220
0.0
230
1.0
 70
     8
 71
     3
 72
    26
 73
    22
 74
     0
 42
0.000000001
 43
0.00000001
 40
0.0
 40
0.0
 40
0.0
 40
0.0
 40
0.0526315789473925
 40
0.105263157894726
 40
0.1578947368420936
 40
0.2105263157894531
 40
0.2631578947368404
 40
0.315789473684205
 40
0.3684210526315833
 40
0.4210526315789449
 40
0.4736842105263581
 40
0.5263157894737102
 40
0.5789473684210643
 40
0.6315789473684315
 40
0.6842105263158049
 40
0.7368421052631674
 40
0.7894736842105294
 40
0.8421052631579025
 40
0.8947368421052985
 40
0.9473684210526578
 40
1.0
 40
1.0
 40
1.0
 40
1.0
 10
-304.4819805791106
 20
-601.3280699910441
 30
0.0
 10
-304.4969564952562
 20
-601.3063792123743
 30
0.0
 10
-304.5269083275475
 20
-601.2629976550346
 30
0.0
 10
-304.5693764207615
 20
-601.1946665688797
 30
0.0
 10
-304.6099507980319
 20
-601.1240964438136
 30
0.0
 10
-304.648391054417
 20
-601.051165897972
 30
0.0
 10
-304.6846773572749
 20
-600.9760643622063
 30
0.0
 10
-304.7187354287991
 20
-600.8989027750209
 30
0.0
 10
-304.7505103725219
 20
-600.8198176202948
 30
0.0
 10
-304.7799470200458
 20
-600.7389427664913
 30
0.0
 10
-304.8069953139341
 20
-600.6564167211271
 30
0.0
 10
-304.8316089857416
 20
-600.5723803890214
 30
0.0
 10
-304.8537459763961
 20
-600.4869773688316
 30
0.0
 10
-304.8733685502181
 20
-600.4003535637559
 30
0.0
 10
-304.8904428494029
 20
-600.312656970835
 30
0.0
 10
-304.9049409496667
 20
-600.224037417765
 30
0.0
 10
-304.9168334267346
 20
-600.1346463096896
 30
0.0
 10
-304.9261173336949
 20
-600.0446363697844
 30
0.0
 10
-304.9327119789176
 20
-599.9541613785304
 30
0.0
 10
-304.9368480452994
 20
-599.8633759109306
 30
0.0
 10
-304.9373596802471
 20
-599.8027486852659
 30
0.0
 10
-304.937615497721
 20
-599.7724350724337
 30
0.0
  0
LINE
  5
1B6
330
1F
100
AcDbEntity
  8
0
  6
SLD-Сплошная
 62
     7
370
    35
100
AcDbLine
 10
-290.0554019237
 20
-599.7724350724
 30
0.0
 11
-289.8385015494
 21
-599.7724350724
 31
0.0
  0
LINE
  5
1B7
330
1F
100
AcDbEntity
  8
0
  6
SLD-Сплошная
 62
     7
370
    35
100
AcDbLine
 10
-171.8601192784
 20
-594.3866486348
 30
0.0
 11
-171.8601192784
 21
-599.7724350724
 31
0.0
  0
LINE
  5
1B8
330
1F
100
AcDbEntity
  8
0
  6
SLD-Сплошная
 62
     7
370
    35
100
AcDbLine
 10
-304.0890873603
 20
-599.7724350724
 30
0.0
 11
-304.0890873603
 21
-594.3866486348
 31
0.0
  0
LINE
  5
1B9
330
1F
100
AcDbEntity
  8
0
  6
SLD-Сплошная
 62
     7
370
    35
100
AcDbLine
 10
-304.9376154977
 20
-599.7724350724
 30
0.0
 11
-304.9376154977
 21
-594.3866486348
 31
0.0
  0
LINE
  5
1BA
330
1F
100
AcDbEntity
  8
0
  6
SLD-Сплошная
 62
     7
370
    35
100
AcDbLine
 10
-287.1646922125
 20
-603.7928932189
 30
0.0
 11
-286.5646922125
 21
-602.9443650814
 31
0.0
  0
SPLINE
  5
1BB
330
1F
100
AcDbEntity
  8
0
  6
SLD-Сплошная
 62
     7
370
    35
100
AcDbSpline
210
0.0
220
0.0
230
1.0
 70
     8
 71
     3
 72
     9
 73
     5
 74
     0
 42
0.000000001
 43
0.00000001
 40
0.0
 40
0.0
 40
0.0
 40
0.0
 40
0.2088673298090661
 40
1.0
 40
1.0
 40
1.0
 40
1.0
 10
-287.4957321386744
 20
-604.0773139883413
 30
0.0
 10
-287.462102153465
 20
-604.0650446426691
 30
0.0
 10
-287.3010909257149
 20
-604.006302350692
 30
0.0
 10
-287.2249387145976
 20
-603.8871547658226
 30
0.0
 10
-287.1646922124753
 20
-603.7928932188582
 30
0.0
  0
ARC
  5
1BC
330
1F
100
AcDbEntity
  8
0
  6
SLD-Сплошная
 62
     7
370
    35
100
AcDbCircle
 10
-289.5618453788
 20
-603.1420446962
 30
0.0
 40
3.003665149844668
100
AcDbArc
 50
3.7735231058
 51
62.4265286421
  0
LINE
  5
1BD
330
1F
100
AcDbEntity
  8
0
  6
SLD-Сплошная
 62
     7
370
    35
100
AcDbLine
 10
-288.7714918461
 20
-601.3280699911
 30
0.0
 11
-288.1714918461
 21
-600.4795418536
 31
0.0
  0
ARC
  5
1BE
330
1F
100
AcDbEntity
  8
0
  6
SLD-Сплошная
 62
     7
370
    35
100
AcDbCircle
 10
-290.1618453788
 20
-603.9905728336
 30
0.0
 40
3.003665149844673
100
AcDbArc
 50
3.7735231058
 51
62.4265286421
  0
LINE
  5
1BF
330
1F
100
AcDbEntity
  8
0
  6
SLD-Сплошная
 62
     7
370
    35
100
AcDbLine
 10
-171.6530124972
 20
-600.4795418536
 30
0.0
 11
-169.9101192784
 21
-602.9443650814
 31
0.0
  0
SPLINE
  5
1C0
330
1F
100
AcDbEntity
  8
0
  6
SLD-Сплошная
 62
     7
370
    35
100
AcDbSpline
210
0.0
220
0.0
230
1.0
 70
     8
 71
     3
 72
    10
 73
     6
 74
     0
 42
0.000000001
 43
0.00000001
 40
0.0
 40
0.0
 40
0.0
 40
0.0
 40
0.2565560513080826
 40
0.5898555227479653
 40
1.0
 40
1.0
 40
1.0
 40
1.0
 10
-289.0663649048694
 20
-601.0588433439408
 30
0.0
 10
-289.0418705165926
 20
-601.0828031536439
 30
0.0
 10
-288.9855547519564
 20
-601.137889853043
 30
0.0
 10
-288.8882744454853
 20
-601.2291042090653
 30
0.0
 10
-288.8130124934282
 20
-601.2928838986712
 30
0.0
 10
-288.7714918461248
 20
-601.3280699910441
 30
0.0
  0
SPLINE
  5
1C1
330
1F
100
AcDbEntity
  8
0
  6
SLD-Сплошная
 62
     7
370
    35
100
AcDbSpline
210
0.0
220
0.0
230
1.0
 70
     8
 71
     3
 72
    16
 73
    12
 74
     0
 42
0.000000001
 43
0.00000001
 40
0.0
 40
0.0
 40
0.0
 40
0.0
 40
0.1249999999999996
 40
0.1249999999999996
 40
0.2499999999999992
 40
0.2499999999999992
 40
0.4999999999999994
 40
0.4999999999999994
 40
0.7499999999999997
 40
0.7499999999999997
 40
1.0
 40
1.0
 40
1.0
 40
1.0
 10
-288.1714918461248
 20
-600.4795418536203
 30
0.0
 10
-288.2530725267986
 20
-600.4348446726731
 30
0.0
 10
-288.3308593920462
 20
-600.3860860347598
 30
0.0
 10
-288.4818033100512
 20
-600.2934595511265
 30
0.0
 10
-288.5551076415617
 20
-600.248842531818
 30
0.0
 10
-288.7713669287681
 20
-600.1197512898998
 30
0.0
 10
-288.9086085894035
 20
-600.0432449430201
 30
0.0
 10
-289.1759155127425
 20
-599.9193050229885
 30
0.0
 10
-289.3075805935729
 20
-599.8705327331068
 30
0.0
 10
-289.5729193408044
 20
-599.8007635404526
 30
0.0
 10
-289.7051333620499
 20
-599.7806439682524
 30
0.0
 10
-289.8385015493876
 20
-599.7724350724337
 30
0.0
  0
SPLINE
  5
1C2
330
1F
100
AcDbEntity
  8
0
  6
SLD-Сплошная
 62
     7
370
    35
100
AcDbSpline
210
0.0
220
0.0
230
1.0
 70
     8
 71
     3
 72
     9
 73
     5
 74
     0
 42
0.000000001
 43
0.00000001
 40
0.0
 40
0.0
 40
0.0
 40
0.0
 40
0.5441314721401177
 40
1.0
 40
1.0
 40
1.0
 40
1.0
 10
-289.3346653222285
 20
-600.7860571273653
 30
0.0
 10
-289.501620024684
 20
-600.6021864035295
 30
0.0
 10
-289.8084478981
 20
-600.2642704158498
 30
0.0
 10
-290.1111608423484
 20
-600.0391795838522
 30
0.0
 10
-290.249158146607
 20
-599.9365677576346
 30
0.0
  0
SPLINE
  5
1C3
330
1F
100
AcDbEntity
  8
0
  6
SLD-Сплошная
 62
     7
370
    35
100
AcDbSpline
210
0.0
220
0.0
230
1.0
 70
     8
 71
     3
 72
     8
 73
     4
 74
     0
 42
0.000000001
 43
0.00000001
 40
0.0
 40
0.0
 40
0.0
 40
0.0
 40
1.0
 40
1.0
 40
1.0
 40
1.0
 10
-289.0663649048694
 20
-601.0588433439407
 30
0.0
 10
-289.1580351050883
 20
-600.9689537523294
 30
0.0
 10
-289.2471626200218
 20
-600.8777662796371
 30
0.0
 10
-289.3346653222284
 20
-600.7860571273653
 30
0.0
  0
ARC
  5
1C4
330
1F
100
AcDbEntity
  8
0
  6
SLD-Сплошная
 62
     7
370
    35
100
AcDbCircle
 10
-170.6232245997
 20
-599.7940404851
 30
0.0
 40
1.237083360230758
100
AcDbArc
 50
178.999289828
 51
213.6506100443
  0
LINE
  5
1C5
330
1F
100
AcDbEntity
  8
0
  6
SLD-Сплошная
 62
     7
370
    35
100
AcDbLine
 10
316.5634812842
 20
-593.3866486348
 30
0.0
 11
316.5634812842
 21
-592.1866486348
 31
0.0
  0
SPLINE
  5
1C6
330
1F
100
AcDbEntity
  8
0
  6
SLD-Сплошная
 62
     7
370
    35
100
AcDbSpline
210
0.0
220
0.0
230
1.0
 70
     8
 71
     3
 72
    10
 73
     6
 74
     0
 42
0.000000001
 43
0.00000001
 40
0.0
 40
0.0
 40
0.0
 40
0.0
 40
0.5
 40
0.5
 40
1.0
 40
1.0
 40
1.0
 40
1.0
 10
-81.87880226914413
 20
-606.0556349186518
 30
0.0
 10
-81.74436886004138
 20
-605.9212015095491
 30
0.0
 10
-81.62845146019276
 20
-605.770988823918
 30
0.0
 10
-81.43529266711435
 20
-605.4383060397582
 30
0.0
 10
-81.35985100775855
 20
-605.2576862429761
 30
0.0
 10
-81.30940036991518
 20
-605.0694018992701
 30
0.0
  0
SPLINE
  5
1C7
330
1F
100
AcDbEntity
  8
0
  6
SLD-Сплошная
 62
     7
370
    35
100
AcDbSpline
210
0.0
220
0.0
230
1.0
 70
     8
 71
     3
 72
    14
 73
    10
 74
     0
 42
0.000000001
 43
0.00000001
 40
0.0
 40
0.0
 40
0.0
 40
0.0
 40
0.25
 40
0.25
 40
0.5
 40
0.5
 40
0.75
 40
0.75
 40
1.0
 40
1.0
 40
1.0
 40
1.0
 10
-82.72733040656487
 20
-603.7928932188586
 30
0.0
 10
-82.63344979784087
 20
-603.8867738275826
 30
0.0
 10
-82.55988518114154
 20
-603.9975083311483
 30
0.0
 10
-82.45961743115926
 20
-604.2410298632851
 30
0.0
 10
-82.43396971820505
 20
-604.3727725365261
 30
0.0
 10
-82.4349177811598
 20
-604.6344728260754
 30
0.0
 10
-82.46181098570726
 20
-604.7661355104664
 30
0.0
 10
-82.56191596897783
 20
-605.0055062429338
 30
0.0
 10
-82.63576210683144
 20
-605.115538481498
 30
0.0
 10
-82.72733040656388
 20
-605.2071067812306
 30
0.0
  0
LINE
  5
1C8
330
1F
100
AcDbEntity
  8
0
  6
SLD-Сплошная
 62
     7
370
    35
100
AcDbLine
 10
-82.7273304066
 20
-605.2071067812
 30
0.0
 11
-85.4850468532
 21
-607.9648232279
 31
0.0
  0
LINE
  5
1C9
330
1F
100
AcDbEntity
  8
0
  6
SLD-Сплошная
 62
     7
370
    35
100
AcDbLine
 10
-85.4850468532
 20
-607.9648232279
 30
0.0
 11
-84.6365187158
 21
-608.8133513653
 31
0.0
  0
LINE
  5
1CA
330
1F
100
AcDbEntity
  8
0
  6
SLD-Сплошная
 62
     7
370
    35
100
AcDbLine
 10
-84.6365187158
 20
-608.8133513653
 30
0.0
 11
-81.8788022691
 21
-606.0556349187
 31
0.0
  0
LINE
  5
1CB
330
1F
100
AcDbEntity
  8
0
  6
SLD-Сплошная
 62
     7
370
    35
100
AcDbLine
 10
317.0057648376
 20
-606.0556349187
 30
0.0
 11
319.7634812842
 21
-608.8133513653
 31
0.0
  0
LINE
  5
1CC
330
1F
100
AcDbEntity
  8
0
  6
SLD-Сплошная
 62
     7
370
    35
100
AcDbLine
 10
319.7634812842
 20
-608.8133513653
 30
0.0
 11
320.6120094217
 21
-607.9648232279
 31
0.0
  0
LINE
  5
1CD
330
1F
100
AcDbEntity
  8
0
  6
SLD-Сплошная
 62
     7
370
    35
100
AcDbLine
 10
320.6120094217
 20
-607.9648232279
 30
0.0
 11
317.854292975
 21
-605.2071067813
 31
0.0
  0
SPLINE
  5
1CE
330
1F
100
AcDbEntity
  8
0
  6
SLD-Сплошная
 62
     7
370
    35
100
AcDbSpline
210
0.0
220
0.0
230
1.0
 70
     8
 71
     3
 72
    14
 73
    10
 74
     0
 42
0.000000001
 43
0.00000001
 40
0.0
 40
0.0
 40
0.0
 40
0.0
 40
0.25
 40
0.25
 40
0.5
 40
0.5
 40
0.75
 40
0.75
 40
1.0
 40
1.0
 40
1.0
 40
1.0
 10
317.854292974953
 20
-605.2071067813065
 30
0.0
 10
317.7627364400158
 20
-605.1155502463695
 30
0.0
 10
317.6896396553747
 20
-605.007019227194
 30
0.0
 10
317.5887110620569
 20
-604.7662909581596
 30
0.0
 10
317.5619852552819
 20
-604.6352914196686
 30
0.0
 10
317.5608336099272
 20
-604.3735069180151
 30
0.0
 10
317.5866424102193
 20
-604.2411906674554
 30
0.0
 10
317.6860966184956
 20
-603.9990223844702
 30
0.0
 10
317.7604118337193
 20
-603.8867743601669
 30
0.0
 10
317.854292975028
 20
-603.7928932188582
 30
0.0
  0
LINE
  5
1CF
330
1F
100
AcDbEntity
  8
0
  6
SLD-Сплошная
 62
     7
370
    35
100
AcDbLine
 10
317.854292975
 20
-603.7928932189
 30
0.0
 11
320.3191162028
 21
-601.328069991
 31
0.0
  0
SPLINE
  5
1D0
330
1F
100
AcDbEntity
  8
0
  6
SLD-Сплошная
 62
     7
370
    35
100
AcDbSpline
210
0.0
220
0.0
230
1.0
 70
     8
 71
     3
 72
     8
 73
     4
 74
     0
 42
0.000000001
 43
0.00000001
 40
0.0
 40
0.0
 40
0.0
 40
0.0
 40
1.0
 40
1.0
 40
1.0
 40
1.0
 10
320.3191162028013
 20
-601.3280699910032
 30
0.0
 10
320.4772712963424
 20
-601.1699148974619
 30
0.0
 10
320.608260783077
 20
-600.9917851730481
 30
0.0
 10
320.7120864494966
 20
-600.7936783881537
 30
0.0
  0
SPLINE
  5
1D1
330
1F
100
AcDbEntity
  8
0
  6
SLD-Сплошная
 62
     7
370
    35
100
AcDbSpline
210
0.0
220
0.0
230
1.0
 70
     8
 71
     3
 72
    10
 73
     6
 74
     0
 42
0.000000001
 43
0.00000001
 40
0.0
 40
0.0
 40
0.0
 40
0.0
 40
0.5
 40
0.5
 40
1.0
 40
1.0
 40
1.0
 40
1.0
 10
316.4363629383785
 20
-605.0694018992701
 30
0.0
 10
316.4868056833074
 20
-605.2576567862183
 30
0.0
 10
316.5606681780553
 20
-605.4349203352874
 30
0.0
 10
316.7532808892778
 20
-605.7679546696295
 30
0.0
 10
316.8713108579473
 20
-605.9211809390009
 30
0.0
 10
317.0057648376193
 20
-606.0556349186704
 30
0.0
  0
ARC
  5
1D2
330
1F
100
AcDbEntity
  8
0
  6
SLD-Сплошная
 62
     7
370
    35
100
AcDbCircle
 10
-83.4344371878
 20
-604.5
 30
0.0
 40
2.199999999999986
100
AcDbArc
 50
345.0
 51
45.0
  0
LINE
  5
1D3
330
1F
100
AcDbEntity
  8
0
  6
SLD-Сплошная
 62
     7
370
    35
100
AcDbLine
 10
-85.1921536344
 20
-601.328069991
 30
0.0
 11
-82.7273304066
 21
-603.7928932189
 31
0.0
  0
LINE
  5
1D4
330
1F
100
AcDbEntity
  8
0
  6
SLD-Сплошная
 62
     7
370
    35
100
AcDbLine
 10
-84.343625497
 20
-600.4795418536
 30
0.0
 11
-81.8788022691
 21
-602.9443650814
 31
0.0
  0
LINE
  5
1D5
330
1F
100
AcDbEntity
  8
0
  6
SLD-Сплошная
 62
     7
370
    35
100
AcDbLine
 10
318.7634812842
 20
-593.3866486348
 30
0.0
 11
316.5634812842
 21
-593.3866486348
 31
0.0
  0
LINE
  5
1D6
330
1F
100
AcDbEntity
  8
0
  6
SLD-Сплошная
 62
     7
370
    35
100
AcDbLine
 10
318.7634812842
 20
-592.1866486348
 30
0.0
 11
316.5634812842
 21
-592.1866486348
 31
0.0
  0
ARC
  5
1D7
330
1F
100
AcDbEntity
  8
0
  6
SLD-Сплошная
 62
     7
370
    35
100
AcDbCircle
 10
-83.6365187158
 20
-599.7724350724
 30
0.0
 40
1.00000000000042
100
AcDbArc
 50
180.0
 51
225.0
  0
ARC
  5
1D8
330
1F
100
AcDbEntity
  8
0
  6
SLD-Сплошная
 62
     7
370
    35
100
AcDbCircle
 10
-83.6365187158
 20
-599.7724350724
 30
0.0
 40
2.199999999999974
100
AcDbArc
 50
180.0
 51
225.0
  0
LINE
  5
1D9
330
1F
100
AcDbEntity
  8
0
  6
SLD-Сплошная
 62
     7
370
    35
100
AcDbLine
 10
-84.6365187158
 20
-594.3866486348
 30
0.0
 11
-84.6365187158
 21
-599.7724350724
 31
0.0
  0
LINE
  5
1DA
330
1F
100
AcDbEntity
  8
0
  6
SLD-Сплошная
 62
     7
370
    35
100
AcDbLine
 10
-85.8365187158
 20
-594.3866486348
 30
0.0
 11
-85.8365187158
 21
-599.7724350724
 31
0.0
  0
ARC
  5
1DB
330
1F
100
AcDbEntity
  8
0
  6
SLD-Сплошная
 62
     7
370
    35
100
AcDbCircle
 10
318.5613997562
 20
-604.5
 30
0.0
 40
2.200000000058067
100
AcDbArc
 50
135.0
 51
195.0
  0
LINE
  5
1DC
330
1F
100
AcDbEntity
  8
0
  6
SLD-Сплошная
 62
     7
370
    35
100
AcDbLine
 10
319.4705880654
 20
-600.4795418536
 30
0.0
 11
317.0057648376
 21
-602.9443650814
 31
0.0
  0
ARC
  5
1DD
330
1F
100
AcDbEntity
  8
0
  6
SLD-Сплошная
 62
     7
370
    35
100
AcDbCircle
 10
-83.6365187158
 20
-594.3866486348
 30
0.0
 40
2.200000000000005
100
AcDbArc
 50
152.9643082105
 51
180.0
  0
ARC
  5
1DE
330
1F
100
AcDbEntity
  8
0
  6
SLD-Сплошная
 62
     7
370
    35
100
AcDbCircle
 10
-83.6365187158
 20
-594.3866486348
 30
0.0
 40
1.0
100
AcDbArc
 50
90.0
 51
180.0
  0
ARC
  5
1DF
330
1F
100
AcDbEntity
  8
0
  6
SLD-Сплошная
 62
     7
370
    35
100
AcDbCircle
 10
318.7634812842
 20
-599.7724350724
 30
0.0
 40
1.0
100
AcDbArc
 50
315.0
 51
360.0
  0
ARC
  5
1E0
330
1F
100
AcDbEntity
  8
0
  6
SLD-Сплошная
 62
     7
370
    35
100
AcDbCircle
 10
318.7634812842
 20
-599.7724350724
 30
0.0
 40
2.200000000000045
100
AcDbArc
 50
332.3414428027
 51
360.0
  0
LINE
  5
1E1
330
1F
100
AcDbEntity
  8
0
  6
SLD-Сплошная
 62
     7
370
    35
100
AcDbLine
 10
320.9634812842
 20
-594.3866486348
 30
0.0
 11
320.9634812842
 21
-599.7724350724
 31
0.0
  0
LINE
  5
1E2
330
1F
100
AcDbEntity
  8
0
  6
SLD-Сплошная
 62
     7
370
    35
100
AcDbLine
 10
319.7634812842
 20
-594.3866486348
 30
0.0
 11
319.7634812842
 21
-599.7724350724
 31
0.0
  0
ARC
  5
1E3
330
1F
100
AcDbEntity
  8
0
  6
SLD-Сплошная
 62
     7
370
    35
100
AcDbCircle
 10
318.7634812842
 20
-594.3866486348
 30
0.0
 40
1.0
100
AcDbArc
 50
360.0
 51
90.0
  0
ARC
  5
1E4
330
1F
100
AcDbEntity
  8
0
  6
SLD-Сплошная
 62
     7
370
    35
100
AcDbCircle
 10
318.7634812842
 20
-594.3866486348
 30
0.0
 40
2.200000000000045
100
AcDbArc
 50
0.0
 51
90.0
  0
LINE
  5
1E5
330
1F
100
AcDbEntity
  8
0
  6
SLD-Сплошная
 62
     7
370
    35
100
AcDbLine
 10
124.5634812842
 20
-591.1866486347
 30
0.0
 11
110.5634812842
 21
-591.1866486347
 31
0.0
  0
LINE
  5
1E6
330
1F
100
AcDbEntity
  8
0
  6
SLD-Сплошная
 62
     7
370
    35
100
AcDbLine
 10
114.9164621063
 20
-593.9866486349
 30
0.0
 11
120.8134812842
 21
-593.9866486349
 31
0.0
  0
ENDSEC
  0
SECTION
  2
OBJECTS
  0
DICTIONARY
  5
C
330
0
100
AcDbDictionary
281
     1
  3
ACAD_DETAILVIEWSTYLE
350
1EE
  3
ACAD_GROUP
350
D
  3
ACAD_LAYOUT
350
1A
  3
ACAD_MATERIAL
350
43
  3
ACAD_MLEADERSTYLE
350
6B
  3
ACAD_MLINESTYLE
350
17
  3
ACAD_PLOTSETTINGS
350
19
  3
ACAD_PLOTSTYLENAME
350
E
  3
ACAD_SCALELIST
350
47
  3
ACAD_SECTIONVIEWSTYLE
350
1EF
  3
ACAD_TABLESTYLE
350
69
  3
ACAD_VISUALSTYLE
350
2A
  3
ACDB_RECOMPOSE_DATA
350
1EB
  3
AcDbVariableDictionary
350
1E7
  0
SUN
  5
6D
330
29
100
AcDbSun
 90
        1
290
     0
 63
     7
421
 16777215
 40
1.0
291
     1
 91
  2455826
 92
 54000000
292
     0
 70
     2
 71
   256
280
     1
  0
DICTIONARY
  5
1EE
102
{ACAD_REACTORS
330
C
102
}
330
C
100
AcDbDictionary
281
     1
  0
DICTIONARY
  5
D
102
{ACAD_REACTORS
330
C
102
}
330
C
100
AcDbDictionary
281
     1
  0
DICTIONARY
  5
1A
102
{ACAD_REACTORS
330
C
102
}
330
C
100
AcDbDictionary
281
     1
  3
Layout1
350
1E
  3
Layout2
350
26
  3
Model
350
22
  0
DICTIONARY
  5
43
102
{ACAD_REACTORS
330
C
102
}
330
C
100
AcDbDictionary
281
     1
  3
ByBlock
350
45
  3
ByLayer
350
44
  3
Global
350
46
  0
DICTIONARY
  5
6B
102
{ACAD_REACTORS
330
C
102
}
330
C
100
AcDbDictionary
281
     1
  3
Standard
350
6C
  0
DICTIONARY
  5
17
102
{ACAD_REACTORS
330
C
102
}
330
C
100
AcDbDictionary
281
     1
  3
Standard
350
18
  0
DICTIONARY
  5
19
102
{ACAD_REACTORS
330
C
102
}
330
C
100
AcDbDictionary
281
     1
  0
ACDBDICTIONARYWDFLT
  5
E
102
{ACAD_REACTORS
330
C
102
}
330
C
100
AcDbDictionary
281
     1
  3
Normal
350
F
100
AcDbDictionaryWithDefault
340
F
  0
DICTIONARY
  5
47
102
{ACAD_REACTORS
330
C
102
}
330
C
100
AcDbDictionary
281
     1
  3
A0
350
48
  3
A1
350
49
  3
A2
350
4A
  3
A3
350
4B
  3
A4
350
4C
  3
A5
350
4D
  3
A6
350
4E
  3
A7
350
4F
  3
A8
350
50
  3
A9
350
51
  3
B0
350
52
  3
B1
350
53
  3
B2
350
54
  3
B3
350
55
  3
B4
350
56
  3
B5
350
57
  3
B6
350
58
  3
B7
350
59
  3
B8
350
5A
  3
B9
350
5B
  3
C0
350
5C
  3
C1
350
5D
  3
C2
350
5E
  3
C3
350
5F
  3
C4
350
60
  3
C5
350
61
  3
C6
350
62
  3
C7
350
63
  3
C8
350
64
  3
C9
350
65
  3
D0
350
66
  3
D1
350
67
  3
D2
350
68
  0
DICTIONARY
  5
1EF
102
{ACAD_REACTORS
330
C
102
}
330
C
100
AcDbDictionary
281
     1
  0
DICTIONARY
  5
69
102
{ACAD_REACTORS
330
C
102
}
330
C
100
AcDbDictionary
281
     1
  3
Standard
350
6A
  0
DICTIONARY
  5
2A
102
{ACAD_REACTORS
330
C
102
}
330
C
100
AcDbDictionary
281
     1
  3
2dWireframe
350
2F
  3
Basic
350
32
  3
Brighten
350
36
  3
ColorChange
350
3A
  3
Conceptual
350
34
  3
Dim
350
35
  3
EdgeColorOff
350
3D
  3
Facepattern
350
39
  3
Flat
350
2B
  3
FlatWithEdges
350
2C
  3
Gouraud
350
2D
  3
GouraudWithEdges
350
2E
  3
Hidden
350
31
  3
JitterOff
350
3B
  3
Linepattern
350
38
  3
OverhangOff
350
3C
  3
Realistic
350
33
  3
Shaded
350
42
  3
Shaded with edges
350
41
  3
Shades of Gray
350
3E
  3
Sketchy
350
3F
  3
Thicken
350
37
  3
Wireframe
350
30
  3
X-Ray
350
40
  0
XRECORD
  5
1EB
102
{ACAD_REACTORS
330
C
102
}
330
C
100
AcDbXrecord
280
     1
 90
        1
330
6A
  0
DICTIONARY
  5
1E7
102
{ACAD_REACTORS
330
C
102
}
330
C
100
AcDbDictionary
281
     1
  3
CANNOSCALE
350
1E8
  3
CMLEADERSTYLE
350
1ED
  3
CTABLESTYLE
350
1EC
  0
LAYOUT
  5
1E
102
{ACAD_REACTORS
330
1A
102
}
330
1A
100
AcDbPlotSettings
  1

  2
none_device
  4

  6

 40
0.0
 41
0.0
 42
0.0
 43
0.0
 44
0.0
 45
0.0
 46
0.0
 47
0.0
 48
0.0
 49
0.0
140
0.0
141
0.0
142
1.0
143
1.0
 70
   688
 72
     1
 73
     0
 74
     5
  7

 75
    16
 76
     0
 77
     2
 78
   300
147
1.0
148
0.0
149
0.0
100
AcDbLayout
  1
Layout1
 70
     1
 71
     1
 10
0.0
 20
0.0
 11
420.0
 21
297.0
 12
0.0
 22
0.0
 32
0.0
 14
1.0000000000E+20
 24
1.0000000000E+20
 34
1.0000000000E+20
 15
-1.0000000000E+20
 25
-1.0000000000E+20
 35
-1.0000000000E+20
146
0.0
 13
0.0
 23
0.0
 33
0.0
 16
1.0
 26
0.0
 36
0.0
 17
0.0
 27
1.0
 37
0.0
 76
     0
330
1B
  0
LAYOUT
  5
26
102
{ACAD_REACTORS
330
1A
102
}
330
1A
100
AcDbPlotSettings
  1

  2
none_device
  4

  6

 40
0.0
 41
0.0
 42
0.0
 43
0.0
 44
0.0
 45
0.0
 46
0.0
 47
0.0
 48
0.0
 49
0.0
140
0.0
141
0.0
142
1.0
143
1.0
 70
   688
 72
     1
 73
     0
 74
     5
  7

 75
    16
 76
     0
 77
     2
 78
   300
147
1.0
148
0.0
149
0.0
100
AcDbLayout
  1
Layout2
 70
     1
 71
     2
 10
0.0
 20
0.0
 11
0.0
 21
0.0
 12
0.0
 22
0.0
 32
0.0
 14
0.0
 24
0.0
 34
0.0
 15
0.0
 25
0.0
 35
0.0
146
0.0
 13
0.0
 23
0.0
 33
0.0
 16
1.0
 26
0.0
 36
0.0
 17
0.0
 27
1.0
 37
0.0
 76
     0
330
23
  0
LAYOUT
  5
22
102
{ACAD_REACTORS
330
1A
102
}
330
1A
100
AcDbPlotSettings
  1

  2
none_device
  4
Letter_(8.50_x_11.00_Inches)
  6

 40
6.35
 41
6.35
 42
6.35000508
 43
6.35000508
 44
215.9
 45
279.4
 46
0.0
 47
0.0
 48
0.0
 49
0.0
140
0.0
141
0.0
142
1.0
143
1.0
 70
  1712
 72
     1
 73
     0
 74
     0
  7

 75
     0
 76
     0
 77
     2
 78
   300
147
1.0
148
0.0
149
0.0
100
AcDbLayout
  1
Model
 70
     1
 71
     0
 10
0.0
 20
0.0
 11
1420.0
 21
1297.0
 12
0.0
 22
0.0
 32
0.0
 14
0.0
 24
0.0
 34
0.0
 15
1420.0
 25
1297.0
 35
0.0
146
0.0
 13
0.0
 23
0.0
 33
0.0
 16
1.0
 26
0.0
 36
0.0
 17
0.0
 27
1.0
 37
0.0
 76
     0
330
1F
331
29
  0
MATERIAL
  5
45
102
{ACAD_REACTORS
330
43
102
}
330
43
100
AcDbMaterial
  1
ByBlock
 72
     1
 94
      127
  0
MATERIAL
  5
44
102
{ACAD_REACTORS
330
43
102
}
330
43
100
AcDbMaterial
  1
ByLayer
 72
     1
 94
      127
  0
MATERIAL
  5
46
102
{ACAD_REACTORS
330
43
102
}
330
43
100
AcDbMaterial
  1
Global
 72
     1
 94
      127
  0
MLEADERSTYLE
  5
6C
102
{ACAD_REACTORS
330
6B
102
}
330
6B
100
AcDbMLeaderStyle
179
     2
170
     2
171
     1
172
     0
 90
        2
 40
0.0
 41
0.0
173
     1
 91
-1056964608
340
14
 92
       -2
290
     1
 42
2.0
291
     1
 43
8.0
  3
Standard
341
0
 44
4.0
300

342
11
174
     1
178
     6
175
     1
176
     0
 93
-1056964608
 45
4.0
292
     0
297
     0
 46
4.0
343
0
 94
-1056964608
 47
1.0
 49
1.0
140
1.0
293
     1
141
0.0
294
     1
177
     0
142
1.0
295
     0
296
     0
143
3.75
271
     0
272
     9
273
     9
298
     0
  0
MLINESTYLE
  5
18
102
{ACAD_REACTORS
330
17
102
}
330
17
100
AcDbMlineStyle
  2
Standard
 70
     0
  3

 62
   256
 51
90.0
 52
90.0
 71
     2
 49
0.5
 62
   256
  6
BYLAYER
 49
-0.5
 62
   256
  6
BYLAYER
  0
ACDBPLACEHOLDER
  5
F
102
{ACAD_REACTORS
330
E
102
}
330
E
  0
SCALE
  5
48
102
{ACAD_REACTORS
330
47
102
}
330
47
100
AcDbScale
 70
     0
300
1:1
140
1.0
141
1.0
290
     1
  0
SCALE
  5
49
102
{ACAD_REACTORS
330
47
102
}
330
47
100
AcDbScale
 70
     0
300
1:2
140
1.0
141
2.0
290
     0
  0
SCALE
  5
4A
102
{ACAD_REACTORS
330
47
102
}
330
47
100
AcDbScale
 70
     0
300
1:4
140
1.0
141
4.0
290
     0
  0
SCALE
  5
4B
102
{ACAD_REACTORS
330
47
102
}
330
47
100
AcDbScale
 70
     0
300
1:5
140
1.0
141
5.0
290
     0
  0
SCALE
  5
4C
102
{ACAD_REACTORS
330
47
102
}
330
47
100
AcDbScale
 70
     0
300
1:8
140
1.0
141
8.0
290
     0
  0
SCALE
  5
4D
102
{ACAD_REACTORS
330
47
102
}
330
47
100
AcDbScale
 70
     0
300
1:10
140
1.0
141
10.0
290
     0
  0
SCALE
  5
4E
102
{ACAD_REACTORS
330
47
102
}
330
47
100
AcDbScale
 70
     0
300
1:16
140
1.0
141
16.0
290
     0
  0
SCALE
  5
4F
102
{ACAD_REACTORS
330
47
102
}
330
47
100
AcDbScale
 70
     0
300
1:20
140
1.0
141
20.0
290
     0
  0
SCALE
  5
50
102
{ACAD_REACTORS
330
47
102
}
330
47
100
AcDbScale
 70
     0
300
1:30
140
1.0
141
30.0
290
     0
  0
SCALE
  5
51
102
{ACAD_REACTORS
330
47
102
}
330
47
100
AcDbScale
 70
     0
300
1:40
140
1.0
141
40.0
290
     0
  0
SCALE
  5
52
102
{ACAD_REACTORS
330
47
102
}
330
47
100
AcDbScale
 70
     0
300
1:50
140
1.0
141
50.0
290
     0
  0
SCALE
  5
53
102
{ACAD_REACTORS
330
47
102
}
330
47
100
AcDbScale
 70
     0
300
1:100
140
1.0
141
100.0
290
     0
  0
SCALE
  5
54
102
{ACAD_REACTORS
330
47
102
}
330
47
100
AcDbScale
 70
     0
300
2:1
140
2.0
141
1.0
290
     0
  0
SCALE
  5
55
102
{ACAD_REACTORS
330
47
102
}
330
47
100
AcDbScale
 70
     0
300
4:1
140
4.0
141
1.0
290
     0
  0
SCALE
  5
56
102
{ACAD_REACTORS
330
47
102
}
330
47
100
AcDbScale
 70
     0
300
8:1
140
8.0
141
1.0
290
     0
  0
SCALE
  5
57
102
{ACAD_REACTORS
330
47
102
}
330
47
100
AcDbScale
 70
     0
300
10:1
140
10.0
141
1.0
290
     0
  0
SCALE
  5
58
102
{ACAD_REACTORS
330
47
102
}
330
47
100
AcDbScale
 70
     0
300
100:1
140
100.0
141
1.0
290
     0
  0
SCALE
  5
59
102
{ACAD_REACTORS
330
47
102
}
330
47
100
AcDbScale
 70
     0
300
1/128" = 1'-0"
140
0.0078125
141
12.0
290
     0
  0
SCALE
  5
5A
102
{ACAD_REACTORS
330
47
102
}
330
47
100
AcDbScale
 70
     0
300
1/64" = 1'-0"
140
0.015625
141
12.0
290
     0
  0
SCALE
  5
5B
102
{ACAD_REACTORS
330
47
102
}
330
47
100
AcDbScale
 70
     0
300
1/32" = 1'-0"
140
0.03125
141
12.0
290
     0
  0
SCALE
  5
5C
102
{ACAD_REACTORS
330
47
102
}
330
47
100
AcDbScale
 70
     0
300
1/16" = 1'-0"
140
0.0625
141
12.0
290
     0
  0
SCALE
  5
5D
102
{ACAD_REACTORS
330
47
102
}
330
47
100
AcDbScale
 70
     0
300
3/32" = 1'-0"
140
0.09375
141
12.0
290
     0
  0
SCALE
  5
5E
102
{ACAD_REACTORS
330
47
102
}
330
47
100
AcDbScale
 70
     0
300
1/8" = 1'-0"
140
0.125
141
12.0
290
     0
  0
SCALE
  5
5F
102
{ACAD_REACTORS
330
47
102
}
330
47
100
AcDbScale
 70
     0
300
3/16" = 1'-0"
140
0.1875
141
12.0
290
     0
  0
SCALE
  5
60
102
{ACAD_REACTORS
330
47
102
}
330
47
100
AcDbScale
 70
     0
300
1/4" = 1'-0"
140
0.25
141
12.0
290
     0
  0
SCALE
  5
61
102
{ACAD_REACTORS
330
47
102
}
330
47
100
AcDbScale
 70
     0
300
3/8" = 1'-0"
140
0.375
141
12.0
290
     0
  0
SCALE
  5
62
102
{ACAD_REACTORS
330
47
102
}
330
47
100
AcDbScale
 70
     0
300
1/2" = 1'-0"
140
0.5
141
12.0
290
     0
  0
SCALE
  5
63
102
{ACAD_REACTORS
330
47
102
}
330
47
100
AcDbScale
 70
     0
300
3/4" = 1'-0"
140
0.75
141
12.0
290
     0
  0
SCALE
  5
64
102
{ACAD_REACTORS
330
47
102
}
330
47
100
AcDbScale
 70
     0
300
1" = 1'-0"
140
1.0
141
12.0
290
     0
  0
SCALE
  5
65
102
{ACAD_REACTORS
330
47
102
}
330
47
100
AcDbScale
 70
     0
300
1-1/2" = 1'-0"
140
1.5
141
12.0
290
     0
  0
SCALE
  5
66
102
{ACAD_REACTORS
330
47
102
}
330
47
100
AcDbScale
 70
     0
300
3" = 1'-0"
140
3.0
141
12.0
290
     0
  0
SCALE
  5
67
102
{ACAD_REACTORS
330
47
102
}
330
47
100
AcDbScale
 70
     0
300
6" = 1'-0"
140
6.0
141
12.0
290
     0
  0
SCALE
  5
68
102
{ACAD_REACTORS
330
47
102
}
330
47
100
AcDbScale
 70
     0
300
1'-0" = 1'-0"
140
12.0
141
12.0
290
     0
  0
TABLESTYLE
  5
6A
102
{ACAD_REACTORS
330
69
102
}
102
{ACAD_XDICTIONARY
360
1E9
102
}
330
69
100
AcDbTableStyle
  3
Standard
 70
     0
 71
     0
 40
0.06
 41
0.06
280
     0
281
     0
  7
Standard
140
4.5
170
     2
 62
     0
 63
   257
283
     0
 90
        4
 91
        0
  1

274
    -2
284
     1
 64
     0
275
    -2
285
     1
 65
     0
276
    -2
286
     1
 66
     0
277
    -2
287
     1
 67
     0
278
    -2
288
     1
 68
     0
279
    -2
289
     1
 69
     0
  7
Standard
140
6.0
170
     5
 62
     0
 63
   257
283
     0
 90
        4
 91
        0
  1

274
    -2
284
     1
 64
     0
275
    -2
285
     1
 65
     0
276
    -2
286
     1
 66
     0
277
    -2
287
     1
 67
     0
278
    -2
288
     1
 68
     0
279
    -2
289
     1
 69
     0
  7
Standard
140
4.5
170
     5
 62
     0
 63
   257
283
     0
 90
        4
 91
        0
  1

274
    -2
284
     1
 64
     0
275
    -2
285
     1
 65
     0
276
    -2
286
     1
 66
     0
277
    -2
287
     1
 67
     0
278
    -2
288
     1
 68
     0
279
    -2
289
     1
 69
     0
  0
VISUALSTYLE
  5
2F
102
{ACAD_REACTORS
330
2A
102
}
330
2A
100
AcDbVisualStyle
  2
2dWireframe
 70
     4
177
     3
291
     0
 70
    58
 90
        0
176
     1
 90
        2
176
     1
 90
        0
176
     1
 90
        0
176
     1
 40
0.6
176
     1
 40
30.0
176
     1
 62
     7
420
 16777215
176
     1
 90
        1
176
     1
 90
        4
176
     1
 62
     7
176
     1
 62
   257
176
     1
 90
        1
176
     1
 90
        1
176
     1
 40
1.0
176
     1
 90
        0
176
     1
 62
   257
176
     1
 40
1.0
176
     1
 90
        1
176
     1
 90
        6
176
     1
 90
        2
176
     1
 62
     7
176
     1
 90
        5
176
     1
 90
        0
176
     1
 90
        0
176
     1
290
     0
176
     1
 90
        1
176
     1
 40
0.0
176
     1
 90
        0
176
     1
290
     1
176
     1
290
     1
176
     1
290
     0
176
     1
290
     0
176
     1
290
     0
176
     1
290
     0
176
     1
290
     0
176
     1
290
     0
176
     1
290
     0
176
     1
 90
       50
176
     1
 40
0.0
176
     1
 40
1.0
176
     1
 90
        0
176
     1
 62
    18
420
        0
176
     1
 90
       50
176
     1
 90
        3
176
     1
 62
     5
420
      255
176
     1
290
     0
176
     1
 90
       50
176
     1
 90
       50
176
     1
 90
       50
176
     1
290
     0
176
     1
 90
       50
176
     1
 62
   256
176
     0
 40
1.0
176
     0
 90
        2
176
     1
  1
strokes_ogs.tif
176
     1
290
     0
176
     1
 40
1.0
176
     1
 40
1.0
176
     1
  0
VISUALSTYLE
  5
32
102
{ACAD_REACTORS
330
2A
102
}
330
2A
100
AcDbVisualStyle
  2
Basic
 70
     7
177
     3
291
     1
 70
    58
 90
        1
176
     1
 90
        0
176
     1
 90
        1
176
     1
 90
        0
176
     1
 40
0.6
176
     1
 40
30.0
176
     1
 62
     7
420
 16777215
176
     1
 90
        0
176
     1
 90
        4
176
     1
 62
     7
176
     1
 62
   257
176
     1
 90
        1
176
     1
 90
        1
176
     1
 40
1.0
176
     1
 90
        8
176
     1
 62
     7
176
     1
 40
1.0
176
     1
 90
        1
176
     1
 90
        6
176
     1
 90
        2
176
     1
 62
     7
176
     1
 90
        5
176
     1
 90
        0
176
     1
 90
        0
176
     1
290
     0
176
     1
 90
        1
176
     1
 40
0.0
176
     1
 90
        0
176
     1
290
     0
176
     1
290
     1
176
     1
290
     1
176
     1
290
     0
176
     1
290
     0
176
     1
290
     0
176
     1
290
     0
176
     1
290
     0
176
     1
290
     0
176
     1
 90
       50
176
     1
 40
0.0
176
     1
 40
1.0
176
     1
 90
        0
176
     1
 62
    18
420
        0
176
     1
 90
       50
176
     1
 90
        3
176
     1
 62
     5
420
      255
176
     1
290
     0
176
     1
 90
       50
176
     1
 90
       50
176
     1
 90
       50
176
     1
290
     0
176
     1
 90
       50
176
     1
 62
   256
176
     0
 40
1.0
176
     0
 90
        2
176
     1
  1
strokes_ogs.tif
176
     1
290
     0
176
     1
 40
1.0
176
     1
 40
1.0
176
     1
  0
VISUALSTYLE
  5
36
102
{ACAD_REACTORS
330
2A
102
}
330
2A
100
AcDbVisualStyle
  2
Brighten
 70
    12
177
     3
291
     1
 70
    58
 90
        2
176
     1
 90
        2
176
     1
 90
        0
176
     1
 90
        0
176
     1
 40
0.6
176
     1
 40
30.0
176
     1
 62
     7
420
 16777215
176
     1
 90
        1
176
     1
 90
        4
176
     1
 62
     7
176
     1
 62
   257
176
     1
 90
        1
176
     1
 90
        1
176
     1
 40
1.0
176
     1
 90
        8
176
     1
 62
     7
176
     1
 40
1.0
176
     1
 90
        1
176
     1
 90
        6
176
     1
 90
        2
176
     1
 62
     7
176
     1
 90
        5
176
     1
 90
        0
176
     1
 90
        0
176
     1
290
     0
176
     1
 90
        1
176
     1
 40
50.0
176
     1
 90
        0
176
     1
290
     0
176
     1
290
     1
176
     1
290
     1
176
     1
290
     0
176
     1
290
     0
176
     1
290
     0
176
     1
290
     0
176
     1
290
     0
176
     1
290
     0
176
     1
 90
       50
176
     1
 40
0.0
176
     1
 40
1.0
176
     1
 90
        0
176
     1
 62
    18
420
        0
176
     1
 90
       50
176
     1
 90
        3
176
     1
 62
     5
420
      255
176
     1
290
     0
176
     1
 90
       50
176
     1
 90
       50
176
     1
 90
       50
176
     1
290
     0
176
     1
 90
       50
176
     1
 62
   256
176
     0
 40
1.0
176
     0
 90
        2
176
     1
  1
strokes_ogs.tif
176
     1
290
     0
176
     1
 40
1.0
176
     1
 40
1.0
176
     1
  0
VISUALSTYLE
  5
3A
102
{ACAD_REACTORS
330
2A
102
}
330
2A
100
AcDbVisualStyle
  2
ColorChange
 70
    16
177
     3
291
     1
 70
    58
 90
        2
176
     1
 90
        2
176
     1
 90
        3
176
     1
 90
        0
176
     1
 40
0.6
176
     1
 40
30.0
176
     1
 62
     8
420
  8421504
176
     1
 90
        1
176
     1
 90
        4
176
     1
 62
     7
176
     1
 62
   257
176
     1
 90
        1
176
     1
 90
        1
176
     1
 40
1.0
176
     1
 90
        8
176
     1
 62
     8
420
  8421504
176
     1
 40
1.0
176
     1
 90
        1
176
     1
 90
        6
176
     1
 90
        2
176
     1
 62
     7
176
     1
 90
        5
176
     1
 90
        0
176
     1
 90
        0
176
     1
290
     0
176
     1
 90
        1
176
     1
 40
0.0
176
     1
 90
        0
176
     1
290
     0
176
     1
290
     1
176
     1
290
     1
176
     1
290
     0
176
     1
290
     0
176
     1
290
     0
176
     1
290
     0
176
     1
290
     0
176
     1
290
     0
176
     1
 90
       50
176
     1
 40
0.0
176
     1
 40
1.0
176
     1
 90
        0
176
     1
 62
    18
420
        0
176
     1
 90
       50
176
     1
 90
        3
176
     1
 62
     5
420
      255
176
     1
290
     0
176
     1
 90
       50
176
     1
 90
       50
176
     1
 90
       50
176
     1
290
     0
176
     1
 90
       50
176
     1
 62
   256
176
     0
 40
1.0
176
     0
 90
        2
176
     1
  1
strokes_ogs.tif
176
     1
290
     0
176
     1
 40
1.0
176
     1
 40
1.0
176
     1
  0
VISUALSTYLE
  5
34
102
{ACAD_REACTORS
330
2A
102
}
330
2A
100
AcDbVisualStyle
  2
Conceptual
 70
     9
177
     3
291
     0
 70
    58
 90
        3
176
     1
 90
        2
176
     1
 90
        0
176
     1
 90
        0
176
     1
 40
0.6
176
     1
 40
30.0
176
     1
 62
     7
420
 16777215
176
     1
 90
        2
176
     1
 90
        2
176
     1
 62
     7
176
     1
 62
   257
176
     1
 90
        1
176
     1
 90
        1
176
     1
 40
179.0
176
     1
 90
        8
176
     1
 62
     7
176
     1
 40
1.0
176
     1
 90
        1
176
     1
 90
        6
176
     1
 90
        2
176
     1
 62
     7
176
     1
 90
        3
176
     1
 90
        0
176
     1
 90
        0
176
     1
290
     0
176
     1
 90
        1
176
     1
 40
0.0
176
     1
 90
        0
176
     1
290
     0
176
     1
290
     1
176
     1
290
     1
176
     1
290
     0
176
     1
290
     0
176
     1
290
     0
176
     1
290
     0
176
     1
290
     0
176
     1
290
     0
176
     1
 90
       50
176
     1
 40
0.0
176
     1
 40
1.0
176
     1
 90
        0
176
     1
 62
    18
420
        0
176
     1
 90
       50
176
     1
 90
        3
176
     1
 62
     5
420
      255
176
     1
290
     0
176
     1
 90
       50
176
     1
 90
       50
176
     1
 90
       50
176
     1
290
     0
176
     1
 90
       50
176
     1
 62
   256
176
     0
 40
1.0
176
     0
 90
        2
176
     1
  1
strokes_ogs.tif
176
     1
290
     0
176
     1
 40
1.0
176
     1
 40
1.0
176
     1
  0
VISUALSTYLE
  5
35
102
{ACAD_REACTORS
330
2A
102
}
330
2A
100
AcDbVisualStyle
  2
Dim
 70
    11
177
     3
291
     1
 70
    58
 90
        2
176
     1
 90
        2
176
     1
 90
        0
176
     1
 90
        0
176
     1
 40
0.6
176
     1
 40
30.0
176
     1
 62
     7
420
 16777215
176
     1
 90
        1
176
     1
 90
        4
176
     1
 62
     7
176
     1
 62
   257
176
     1
 90
        1
176
     1
 90
        1
176
     1
 40
1.0
176
     1
 90
        8
176
     1
 62
     7
176
     1
 40
1.0
176
     1
 90
        1
176
     1
 90
        6
176
     1
 90
        2
176
     1
 62
     7
176
     1
 90
        5
176
     1
 90
        0
176
     1
 90
        0
176
     1
290
     0
176
     1
 90
        1
176
     1
 40
-50.0
176
     1
 90
        0
176
     1
290
     0
176
     1
290
     1
176
     1
290
     1
176
     1
290
     0
176
     1
290
     0
176
     1
290
     0
176
     1
290
     0
176
     1
290
     0
176
     1
290
     0
176
     1
 90
       50
176
     1
 40
0.0
176
     1
 40
1.0
176
     1
 90
        0
176
     1
 62
    18
420
        0
176
     1
 90
       50
176
     1
 90
        3
176
     1
 62
     5
420
      255
176
     1
290
     0
176
     1
 90
       50
176
     1
 90
       50
176
     1
 90
       50
176
     1
290
     0
176
     1
 90
       50
176
     1
 62
   256
176
     0
 40
1.0
176
     0
 90
        2
176
     1
  1
strokes_ogs.tif
176
     1
290
     0
176
     1
 40
1.0
176
     1
 40
1.0
176
     1
  0
VISUALSTYLE
  5
3D
102
{ACAD_REACTORS
330
2A
102
}
330
2A
100
AcDbVisualStyle
  2
EdgeColorOff
 70
    22
177
     3
291
     1
 70
    58
 90
        2
176
     0
 90
        2
176
     0
 90
        0
176
     0
 90
        0
176
     0
 40
0.6
176
     0
 40
30.0
176
     0
 62
     7
420
 16777215
176
     0
 90
        1
176
     0
 90
        4
176
     0
 62
     7
176
     0
 62
   257
176
     0
 90
        1
176
     0
 90
        1
176
     0
 40
1.0
176
     0
 90
        8
176
     2
 62
     7
176
     0
 40
1.0
176
     0
 90
        1
176
     0
 90
        6
176
     0
 90
        2
176
     0
 62
     7
176
     0
 90
        5
176
     0
 90
        0
176
     0
 90
        0
176
     0
290
     0
176
     0
 90
        1
176
     0
 40
0.0
176
     0
 90
        0
176
     0
290
     0
176
     0
290
     1
176
     0
290
     1
176
     0
290
     0
176
     0
290
     0
176
     0
290
     0
176
     0
290
     0
176
     0
290
     0
176
     0
290
     0
176
     0
 90
       50
176
     0
 40
0.0
176
     0
 40
1.0
176
     0
 90
        0
176
     0
 62
    18
420
        0
176
     0
 90
       50
176
     0
 90
        3
176
     0
 62
     5
420
      255
176
     0
290
     0
176
     0
 90
       50
176
     0
 90
       50
176
     0
 90
       50
176
     0
290
     0
176
     0
 90
       50
176
     0
 62
   256
176
     0
 40
1.0
176
     0
 90
        2
176
     0
  1
strokes_ogs.tif
176
     0
290
     0
176
     0
 40
1.0
176
     0
 40
1.0
176
     0
  0
VISUALSTYLE
  5
39
102
{ACAD_REACTORS
330
2A
102
}
330
2A
100
AcDbVisualStyle
  2
Facepattern
 70
    15
177
     3
291
     1
 70
    58
 90
        2
176
     1
 90
        2
176
     1
 90
        0
176
     1
 90
        0
176
     1
 40
0.6
176
     1
 40
30.0
176
     1
 62
     7
420
 16777215
176
     1
 90
        1
176
     1
 90
        4
176
     1
 62
     7
176
     1
 62
   257
176
     1
 90
        1
176
     1
 90
        1
176
     1
 40
1.0
176
     1
 90
        8
176
     1
 62
     7
176
     1
 40
1.0
176
     1
 90
        1
176
     1
 90
        6
176
     1
 90
        2
176
     1
 62
     7
176
     1
 90
        5
176
     1
 90
        0
176
     1
 90
        0
176
     1
290
     0
176
     1
 90
        1
176
     1
 40
0.0
176
     1
 90
        0
176
     1
290
     0
176
     1
290
     1
176
     1
290
     1
176
     1
290
     0
176
     1
290
     0
176
     1
290
     0
176
     1
290
     0
176
     1
290
     0
176
     1
290
     0
176
     1
 90
       50
176
     1
 40
0.0
176
     1
 40
1.0
176
     1
 90
        0
176
     1
 62
    18
420
        0
176
     1
 90
       50
176
     1
 90
        3
176
     1
 62
     5
420
      255
176
     1
290
     0
176
     1
 90
       50
176
     1
 90
       50
176
     1
 90
       50
176
     1
290
     0
176
     1
 90
       50
176
     1
 62
   256
176
     0
 40
1.0
176
     0
 90
        2
176
     1
  1
strokes_ogs.tif
176
     1
290
     0
176
     1
 40
1.0
176
     1
 40
1.0
176
     1
  0
VISUALSTYLE
  5
2B
102
{ACAD_REACTORS
330
2A
102
}
330
2A
100
AcDbVisualStyle
  2
Flat
 70
     0
177
     3
291
     1
 70
    58
 90
        2
176
     1
 90
        1
176
     1
 90
        1
176
     1
 90
        2
176
     1
 40
0.6
176
     1
 40
30.0
176
     1
 62
     7
420
 16777215
176
     1
 90
        0
176
     1
 90
        0
176
     1
 62
     7
176
     1
 62
   257
176
     1
 90
        1
176
     1
 90
        1
176
     1
 40
1.0
176
     1
 90
        8
176
     1
 62
     7
176
     1
 40
1.0
176
     1
 90
        1
176
     1
 90
        6
176
     1
 90
        2
176
     1
 62
     7
176
     1
 90
        5
176
     1
 90
        0
176
     1
 90
        0
176
     1
290
     0
176
     1
 90
       13
176
     1
 40
0.0
176
     1
 90
        0
176
     1
290
     0
176
     1
290
     1
176
     1
290
     1
176
     1
290
     0
176
     1
290
     0
176
     1
290
     0
176
     1
290
     0
176
     1
290
     0
176
     1
290
     0
176
     1
 90
       50
176
     1
 40
0.0
176
     1
 40
1.0
176
     1
 90
        0
176
     1
 62
    18
420
        0
176
     1
 90
       50
176
     1
 90
        3
176
     1
 62
     5
420
      255
176
     1
290
     0
176
     1
 90
       50
176
     1
 90
       50
176
     1
 90
       50
176
     1
290
     0
176
     1
 90
       50
176
     1
 62
   256
176
     0
 40
1.0
176
     0
 90
        2
176
     1
  1
strokes_ogs.tif
176
     1
290
     0
176
     1
 40
1.0
176
     1
 40
1.0
176
     1
  0
VISUALSTYLE
  5
2C
102
{ACAD_REACTORS
330
2A
102
}
330
2A
100
AcDbVisualStyle
  2
FlatWithEdges
 70
     1
177
     3
291
     1
 70
    58
 90
        2
176
     1
 90
        1
176
     1
 90
        1
176
     1
 90
        2
176
     1
 40
0.6
176
     1
 40
30.0
176
     1
 62
     7
420
 16777215
176
     1
 90
        1
176
     1
 90
        0
176
     1
 62
     7
176
     1
 62
   257
176
     1
 90
        1
176
     1
 90
        1
176
     1
 40
1.0
176
     1
 90
        0
176
     1
 62
   257
176
     1
 40
1.0
176
     1
 90
        1
176
     1
 90
        6
176
     1
 90
        2
176
     1
 62
     7
176
     1
 90
        5
176
     1
 90
        0
176
     1
 90
        0
176
     1
290
     0
176
     1
 90
       13
176
     1
 40
0.0
176
     1
 90
        0
176
     1
290
     0
176
     1
290
     1
176
     1
290
     1
176
     1
290
     0
176
     1
290
     0
176
     1
290
     0
176
     1
290
     0
176
     1
290
     0
176
     1
290
     0
176
     1
 90
       50
176
     1
 40
0.0
176
     1
 40
1.0
176
     1
 90
        0
176
     1
 62
    18
420
        0
176
     1
 90
       50
176
     1
 90
        3
176
     1
 62
     5
420
      255
176
     1
290
     0
176
     1
 90
       50
176
     1
 90
       50
176
     1
 90
       50
176
     1
290
     0
176
     1
 90
       50
176
     1
 62
   256
176
     0
 40
1.0
176
     0
 90
        2
176
     1
  1
strokes_ogs.tif
176
     1
290
     0
176
     1
 40
1.0
176
     1
 40
1.0
176
     1
  0
VISUALSTYLE
  5
2D
102
{ACAD_REACTORS
330
2A
102
}
330
2A
100
AcDbVisualStyle
  2
Gouraud
 70
     2
177
     3
291
     1
 70
    58
 90
        2
176
     1
 90
        2
176
     1
 90
        1
176
     1
 90
        2
176
     1
 40
0.6
176
     1
 40
30.0
176
     1
 62
     7
420
 16777215
176
     1
 90
        0
176
     1
 90
        0
176
     1
 62
     7
176
     1
 62
   257
176
     1
 90
        1
176
     1
 90
        1
176
     1
 40
1.0
176
     1
 90
        0
176
     1
 62
     7
176
     1
 40
1.0
176
     1
 90
        1
176
     1
 90
        6
176
     1
 90
        2
176
     1
 62
     7
176
     1
 90
        5
176
     1
 90
        0
176
     1
 90
        0
176
     1
290
     0
176
     1
 90
       13
176
     1
 40
0.0
176
     1
 90
        0
176
     1
290
     0
176
     1
290
     1
176
     1
290
     1
176
     1
290
     0
176
     1
290
     0
176
     1
290
     0
176
     1
290
     0
176
     1
290
     0
176
     1
290
     0
176
     1
 90
       50
176
     1
 40
0.0
176
     1
 40
1.0
176
     1
 90
        0
176
     1
 62
    18
420
        0
176
     1
 90
       50
176
     1
 90
        3
176
     1
 62
     5
420
      255
176
     1
290
     0
176
     1
 90
       50
176
     1
 90
       50
176
     1
 90
       50
176
     1
290
     0
176
     1
 90
       50
176
     1
 62
   256
176
     0
 40
1.0
176
     0
 90
        2
176
     1
  1
strokes_ogs.tif
176
     1
290
     0
176
     1
 40
1.0
176
     1
 40
1.0
176
     1
  0
VISUALSTYLE
  5
2E
102
{ACAD_REACTORS
330
2A
102
}
330
2A
100
AcDbVisualStyle
  2
GouraudWithEdges
 70
     3
177
     3
291
     1
 70
    58
 90
        2
176
     1
 90
        2
176
     1
 90
        1
176
     1
 90
        2
176
     1
 40
0.6
176
     1
 40
30.0
176
     1
 62
     7
420
 16777215
176
     1
 90
        1
176
     1
 90
        0
176
     1
 62
     7
176
     1
 62
   257
176
     1
 90
        1
176
     1
 90
        1
176
     1
 40
1.0
176
     1
 90
        0
176
     1
 62
   257
176
     1
 40
1.0
176
     1
 90
        1
176
     1
 90
        6
176
     1
 90
        2
176
     1
 62
     7
176
     1
 90
        5
176
     1
 90
        0
176
     1
 90
        0
176
     1
290
     0
176
     1
 90
       13
176
     1
 40
0.0
176
     1
 90
        0
176
     1
290
     0
176
     1
290
     1
176
     1
290
     1
176
     1
290
     0
176
     1
290
     0
176
     1
290
     0
176
     1
290
     0
176
     1
290
     0
176
     1
290
     0
176
     1
 90
       50
176
     1
 40
0.0
176
     1
 40
1.0
176
     1
 90
        0
176
     1
 62
    18
420
        0
176
     1
 90
       50
176
     1
 90
        3
176
     1
 62
     5
420
      255
176
     1
290
     0
176
     1
 90
       50
176
     1
 90
       50
176
     1
 90
       50
176
     1
290
     0
176
     1
 90
       50
176
     1
 62
   256
176
     0
 40
1.0
176
     0
 90
        2
176
     1
  1
strokes_ogs.tif
176
     1
290
     0
176
     1
 40
1.0
176
     1
 40
1.0
176
     1
  0
VISUALSTYLE
  5
31
102
{ACAD_REACTORS
330
2A
102
}
330
2A
100
AcDbVisualStyle
  2
Hidden
 70
     6
177
     3
291
     0
 70
    58
 90
        1
176
     1
 90
        2
176
     1
 90
        2
176
     1
 90
        0
176
     1
 40
0.6
176
     1
 40
30.0
176
     1
 62
     7
420
 16777215
176
     1
 90
        2
176
     1
 90
        2
176
     1
 62
     7
176
     1
 62
   257
176
     1
 90
        2
176
     1
 90
        1
176
     1
 40
40.0
176
     1
 90
        0
176
     1
 62
   257
176
     1
 40
1.0
176
     1
 90
        1
176
     1
 90
        6
176
     1
 90
        2
176
     1
 62
     7
176
     1
 90
        3
176
     1
 90
        0
176
     1
 90
        0
176
     1
290
     0
176
     1
 90
        1
176
     1
 40
0.0
176
     1
 90
        0
176
     1
290
     0
176
     1
290
     1
176
     1
290
     1
176
     1
290
     0
176
     1
290
     0
176
     1
290
     0
176
     1
290
     0
176
     1
290
     0
176
     1
290
     0
176
     1
 90
       50
176
     1
 40
0.0
176
     1
 40
1.0
176
     1
 90
        0
176
     1
 62
    18
420
        0
176
     1
 90
       50
176
     1
 90
        3
176
     1
 62
     5
420
      255
176
     1
290
     0
176
     1
 90
       50
176
     1
 90
       50
176
     1
 90
       50
176
     1
290
     0
176
     1
 90
       50
176
     1
 62
   256
176
     0
 40
1.0
176
     0
 90
        2
176
     1
  1
strokes_ogs.tif
176
     1
290
     0
176
     1
 40
1.0
176
     1
 40
1.0
176
     1
  0
VISUALSTYLE
  5
3B
102
{ACAD_REACTORS
330
2A
102
}
330
2A
100
AcDbVisualStyle
  2
JitterOff
 70
    20
177
     3
291
     1
 70
    58
 90
        2
176
     0
 90
        2
176
     0
 90
        0
176
     0
 90
        0
176
     0
 40
0.6
176
     0
 40
30.0
176
     0
 62
     7
420
 16777215
176
     0
 90
        1
176
     0
 90
        4
176
     0
 62
     7
176
     0
 62
   257
176
     0
 90
        1
176
     0
 90
        1
176
     0
 40
1.0
176
     0
 90
       10
176
     2
 62
     7
176
     0
 40
1.0
176
     0
 90
        1
176
     0
 90
        6
176
     0
 90
        2
176
     0
 62
     7
176
     0
 90
        5
176
     0
 90
        0
176
     0
 90
        0
176
     0
290
     0
176
     0
 90
        1
176
     0
 40
0.0
176
     0
 90
        0
176
     0
290
     0
176
     0
290
     1
176
     0
290
     1
176
     0
290
     0
176
     0
290
     0
176
     0
290
     0
176
     0
290
     0
176
     0
290
     0
176
     0
290
     0
176
     0
 90
       50
176
     0
 40
0.0
176
     0
 40
1.0
176
     0
 90
        0
176
     0
 62
    18
420
        0
176
     0
 90
       50
176
     0
 90
        3
176
     0
 62
     5
420
      255
176
     0
290
     0
176
     0
 90
       50
176
     0
 90
       50
176
     0
 90
       50
176
     0
290
     0
176
     0
 90
       50
176
     0
 62
   256
176
     0
 40
1.0
176
     0
 90
        2
176
     0
  1
strokes_ogs.tif
176
     0
290
     0
176
     0
 40
1.0
176
     0
 40
1.0
176
     0
  0
VISUALSTYLE
  5
38
102
{ACAD_REACTORS
330
2A
102
}
330
2A
100
AcDbVisualStyle
  2
Linepattern
 70
    14
177
     3
291
     1
 70
    58
 90
        2
176
     1
 90
        2
176
     1
 90
        0
176
     1
 90
        0
176
     1
 40
0.6
176
     1
 40
30.0
176
     1
 62
     7
420
 16777215
176
     1
 90
        1
176
     1
 90
        4
176
     1
 62
     7
176
     1
 62
   257
176
     1
 90
        7
176
     1
 90
        7
176
     1
 40
1.0
176
     1
 90
        8
176
     1
 62
     7
176
     1
 40
1.0
176
     1
 90
        1
176
     1
 90
        6
176
     1
 90
        2
176
     1
 62
     7
176
     1
 90
        5
176
     1
 90
        0
176
     1
 90
        0
176
     1
290
     0
176
     1
 90
        1
176
     1
 40
0.0
176
     1
 90
        0
176
     1
290
     0
176
     1
290
     1
176
     1
290
     1
176
     1
290
     0
176
     1
290
     0
176
     1
290
     0
176
     1
290
     0
176
     1
290
     0
176
     1
290
     0
176
     1
 90
       50
176
     1
 40
0.0
176
     1
 40
1.0
176
     1
 90
        0
176
     1
 62
    18
420
        0
176
     1
 90
       50
176
     1
 90
        3
176
     1
 62
     5
420
      255
176
     1
290
     0
176
     1
 90
       50
176
     1
 90
       50
176
     1
 90
       50
176
     1
290
     0
176
     1
 90
       50
176
     1
 62
   256
176
     0
 40
1.0
176
     0
 90
        2
176
     1
  1
strokes_ogs.tif
176
     1
290
     0
176
     1
 40
1.0
176
     1
 40
1.0
176
     1
  0
VISUALSTYLE
  5
3C
102
{ACAD_REACTORS
330
2A
102
}
330
2A
100
AcDbVisualStyle
  2
OverhangOff
 70
    21
177
     3
291
     1
 70
    58
 90
        2
176
     0
 90
        2
176
     0
 90
        0
176
     0
 90
        0
176
     0
 40
0.6
176
     0
 40
30.0
176
     0
 62
     7
420
 16777215
176
     0
 90
        1
176
     0
 90
        4
176
     0
 62
     7
176
     0
 62
   257
176
     0
 90
        1
176
     0
 90
        1
176
     0
 40
1.0
176
     0
 90
        9
176
     2
 62
     7
176
     0
 40
1.0
176
     0
 90
        1
176
     0
 90
        6
176
     0
 90
        2
176
     0
 62
     7
176
     0
 90
        5
176
     0
 90
        0
176
     0
 90
        0
176
     0
290
     0
176
     0
 90
        1
176
     0
 40
0.0
176
     0
 90
        0
176
     0
290
     0
176
     0
290
     1
176
     0
290
     1
176
     0
290
     0
176
     0
290
     0
176
     0
290
     0
176
     0
290
     0
176
     0
290
     0
176
     0
290
     0
176
     0
 90
       50
176
     0
 40
0.0
176
     0
 40
1.0
176
     0
 90
        0
176
     0
 62
    18
420
        0
176
     0
 90
       50
176
     0
 90
        3
176
     0
 62
     5
420
      255
176
     0
290
     0
176
     0
 90
       50
176
     0
 90
       50
176
     0
 90
       50
176
     0
290
     0
176
     0
 90
       50
176
     0
 62
   256
176
     0
 40
1.0
176
     0
 90
        2
176
     0
  1
strokes_ogs.tif
176
     0
290
     0
176
     0
 40
1.0
176
     0
 40
1.0
176
     0
  0
VISUALSTYLE
  5
33
102
{ACAD_REACTORS
330
2A
102
}
330
2A
100
AcDbVisualStyle
  2
Realistic
 70
     8
177
     3
291
     0
 70
    58
 90
        2
176
     1
 90
        3
176
     1
 90
        0
176
     1
 90
        2
176
     1
 40
0.6
176
     1
 40
30.0
176
     1
 62
     7
420
 16777215
176
     1
 90
        0
176
     1
 90
        0
176
     1
 62
     7
176
     1
 62
   257
176
     1
 90
        1
176
     1
 90
        1
176
     1
 40
1.0
176
     1
 90
        8
176
     1
 62
   257
176
     1
 40
1.0
176
     1
 90
        1
176
     1
 90
        6
176
     1
 90
        2
176
     1
 62
     7
176
     1
 90
        3
176
     1
 90
        0
176
     1
 90
        0
176
     1
290
     0
176
     1
 90
       13
176
     1
 40
0.0
176
     1
 90
        0
176
     1
290
     0
176
     1
290
     1
176
     1
290
     1
176
     1
290
     0
176
     1
290
     0
176
     1
290
     0
176
     1
290
     0
176
     1
290
     0
176
     1
290
     0
176
     1
 90
       50
176
     1
 40
0.0
176
     1
 40
1.0
176
     1
 90
        0
176
     1
 62
    18
420
        0
176
     1
 90
       50
176
     1
 90
        3
176
     1
 62
     5
420
      255
176
     1
290
     0
176
     1
 90
       50
176
     1
 90
       50
176
     1
 90
       50
176
     1
290
     0
176
     1
 90
       50
176
     1
 62
   256
176
     0
 40
1.0
176
     0
 90
        2
176
     1
  1
strokes_ogs.tif
176
     1
290
     0
176
     1
 40
1.0
176
     1
 40
1.0
176
     1
  0
VISUALSTYLE
  5
42
102
{ACAD_REACTORS
330
2A
102
}
330
2A
100
AcDbVisualStyle
  2
Shaded
 70
    27
177
     3
291
     0
 70
    58
 90
        2
176
     1
 90
        2
176
     1
 90
        1
176
     1
 90
        2
176
     1
 40
0.6
176
     1
 40
30.0
176
     1
 62
     7
420
 16777215
176
     1
 90
        0
176
     1
 90
        4
176
     1
 62
     7
176
     1
 62
   257
176
     1
 90
        1
176
     1
 90
        1
176
     1
 40
1.0
176
     1
 90
        8
176
     1
 62
   257
176
     1
 40
1.0
176
     1
 90
        1
176
     1
 90
        6
176
     1
 90
        2
176
     1
 62
     8
420
  7895160
176
     1
 90
        3
176
     1
 90
        0
176
     1
 90
        0
176
     1
290
     0
176
     1
 90
        5
176
     1
 40
0.0
176
     1
 90
        0
176
     1
290
     0
176
     1
290
     1
176
     1
290
     1
176
     1
290
     0
176
     1
290
     0
176
     1
290
     0
176
     1
290
     0
176
     1
290
     0
176
     1
290
     0
176
     1
 90
       50
176
     1
 40
0.0
176
     1
 40
1.0
176
     1
 90
        0
176
     1
 62
    18
420
        0
176
     1
 90
       50
176
     1
 90
        3
176
     1
 62
     5
420
      255
176
     1
290
     0
176
     1
 90
       50
176
     1
 90
       50
176
     1
 90
       50
176
     1
290
     0
176
     1
 90
       50
176
     1
 62
   256
176
     0
 40
1.0
176
     0
 90
        2
176
     1
  1
strokes_ogs.tif
176
     1
290
     0
176
     1
 40
1.0
176
     1
 40
1.0
176
     1
  0
VISUALSTYLE
  5
41
102
{ACAD_REACTORS
330
2A
102
}
330
2A
100
AcDbVisualStyle
  2
Shaded with edges
 70
    26
177
     3
291
     0
 70
    58
 90
        2
176
     1
 90
        2
176
     1
 90
        1
176
     1
 90
        2
176
     1
 40
0.6
176
     1
 40
30.0
176
     1
 62
     7
420
 16777215
176
     1
 90
        1
176
     1
 90
       10
176
     1
 62
     7
176
     1
 62
   257
176
     1
 90
        2
176
     1
 90
        1
176
     1
 40
1.0
176
     1
 90
        8
176
     1
 62
   257
176
     1
 40
1.0
176
     1
 90
        1
176
     1
 90
        6
176
     1
 90
        2
176
     1
 62
     7
176
     1
 90
        3
176
     1
 90
        0
176
     1
 90
        0
176
     1
290
     0
176
     1
 90
        5
176
     1
 40
0.0
176
     1
 90
        0
176
     1
290
     0
176
     1
290
     1
176
     1
290
     1
176
     1
290
     0
176
     1
290
     0
176
     1
290
     0
176
     1
290
     0
176
     1
290
     0
176
     1
290
     0
176
     1
 90
       50
176
     1
 40
0.0
176
     1
 40
1.0
176
     1
 90
        0
176
     1
 62
    18
420
        0
176
     1
 90
       50
176
     1
 90
        3
176
     1
 62
     5
420
      255
176
     1
290
     0
176
     1
 90
       50
176
     1
 90
       50
176
     1
 90
       50
176
     1
290
     0
176
     1
 90
       50
176
     1
 62
   256
176
     0
 40
1.0
176
     0
 90
        2
176
     1
  1
strokes_ogs.tif
176
     1
290
     0
176
     1
 40
1.0
176
     1
 40
1.0
176
     1
  0
VISUALSTYLE
  5
3E
102
{ACAD_REACTORS
330
2A
102
}
330
2A
100
AcDbVisualStyle
  2
Shades of Gray
 70
    23
177
     3
291
     0
 70
    58
 90
        2
176
     1
 90
        2
176
     1
 90
        3
176
     1
 90
        0
176
     1
 40
0.6
176
     1
 40
30.0
176
     1
 62
     7
420
 16777215
176
     1
 90
        2
176
     1
 90
        2
176
     1
 62
     7
176
     1
 62
     7
176
     1
 90
        1
176
     1
 90
        1
176
     1
 40
40.0
176
     1
 90
        8
176
     1
 62
     7
176
     1
 40
1.0
176
     1
 90
        1
176
     1
 90
        6
176
     1
 90
        2
176
     1
 62
     7
176
     1
 90
        3
176
     1
 90
        0
176
     1
 90
        0
176
     1
290
     0
176
     1
 90
        1
176
     1
 40
0.0
176
     1
 90
        0
176
     1
290
     0
176
     1
290
     1
176
     1
290
     1
176
     1
290
     0
176
     1
290
     0
176
     1
290
     0
176
     1
290
     0
176
     1
290
     0
176
     1
290
     0
176
     1
 90
       50
176
     1
 40
0.0
176
     1
 40
1.0
176
     1
 90
        0
176
     1
 62
    18
420
        0
176
     1
 90
       50
176
     1
 90
        3
176
     1
 62
     5
420
      255
176
     1
290
     0
176
     1
 90
       50
176
     1
 90
       50
176
     1
 90
       50
176
     1
290
     0
176
     1
 90
       50
176
     1
 62
   256
176
     0
 40
1.0
176
     0
 90
        2
176
     1
  1
strokes_ogs.tif
176
     1
290
     0
176
     1
 40
1.0
176
     1
 40
1.0
176
     1
  0
VISUALSTYLE
  5
3F
102
{ACAD_REACTORS
330
2A
102
}
330
2A
100
AcDbVisualStyle
  2
Sketchy
 70
    24
177
     3
291
     0
 70
    58
 90
        1
176
     1
 90
        2
176
     1
 90
        2
176
     1
 90
        0
176
     1
 40
0.6
176
     1
 40
30.0
176
     1
 62
     7
420
 16777215
176
     1
 90
        2
176
     1
 90
        2
176
     1
 62
     7
176
     1
 62
     7
176
     1
 90
        1
176
     1
 90
        1
176
     1
 40
40.0
176
     1
 90
       11
176
     1
 62
     7
176
     1
 40
1.0
176
     1
 90
        1
176
     1
 90
        6
176
     1
 90
        2
176
     1
 62
     7
176
     1
 90
        6
176
     1
 90
        0
176
     1
 90
        0
176
     1
290
     0
176
     1
 90
        1
176
     1
 40
0.0
176
     1
 90
        0
176
     1
290
     0
176
     1
290
     1
176
     1
290
     1
176
     1
290
     0
176
     1
290
     0
176
     1
290
     0
176
     1
290
     0
176
     1
290
     0
176
     1
290
     0
176
     1
 90
       50
176
     1
 40
0.0
176
     1
 40
1.0
176
     1
 90
        0
176
     1
 62
    18
420
        0
176
     1
 90
       50
176
     1
 90
        3
176
     1
 62
     5
420
      255
176
     1
290
     0
176
     1
 90
       50
176
     1
 90
       50
176
     1
 90
       50
176
     1
290
     0
176
     1
 90
       50
176
     1
 62
   256
176
     0
 40
1.0
176
     0
 90
        2
176
     1
  1
strokes_ogs.tif
176
     1
290
     0
176
     1
 40
1.0
176
     1
 40
1.0
176
     1
  0
VISUALSTYLE
  5
37
102
{ACAD_REACTORS
330
2A
102
}
330
2A
100
AcDbVisualStyle
  2
Thicken
 70
    13
177
     3
291
     1
 70
    58
 90
        2
176
     1
 90
        2
176
     1
 90
        0
176
     1
 90
        0
176
     1
 40
0.6
176
     1
 40
30.0
176
     1
 62
     7
420
 16777215
176
     1
 90
        1
176
     1
 90
        4
176
     1
 62
     7
176
     1
 62
   257
176
     1
 90
        1
176
     1
 90
        1
176
     1
 40
1.0
176
     1
 90
       12
176
     1
 62
     7
176
     1
 40
1.0
176
     1
 90
        1
176
     1
 90
        6
176
     1
 90
        2
176
     1
 62
     7
176
     1
 90
        5
176
     1
 90
        0
176
     1
 90
        0
176
     1
290
     0
176
     1
 90
        1
176
     1
 40
0.0
176
     1
 90
        0
176
     1
290
     0
176
     1
290
     1
176
     1
290
     1
176
     1
290
     0
176
     1
290
     0
176
     1
290
     0
176
     1
290
     0
176
     1
290
     0
176
     1
290
     0
176
     1
 90
       50
176
     1
 40
0.0
176
     1
 40
1.0
176
     1
 90
        0
176
     1
 62
    18
420
        0
176
     1
 90
       50
176
     1
 90
        3
176
     1
 62
     5
420
      255
176
     1
290
     0
176
     1
 90
       50
176
     1
 90
       50
176
     1
 90
       50
176
     1
290
     0
176
     1
 90
       50
176
     1
 62
   256
176
     0
 40
1.0
176
     0
 90
        2
176
     1
  1
strokes_ogs.tif
176
     1
290
     0
176
     1
 40
1.0
176
     1
 40
1.0
176
     1
  0
VISUALSTYLE
  5
30
102
{ACAD_REACTORS
330
2A
102
}
330
2A
100
AcDbVisualStyle
  2
Wireframe
 70
     5
177
     3
291
     0
 70
    58
 90
        0
176
     1
 90
        2
176
     1
 90
        0
176
     1
 90
        0
176
     1
 40
0.6
176
     1
 40
30.0
176
     1
 62
     7
420
 16777215
176
     1
 90
        1
176
     1
 90
        4
176
     1
 62
     7
176
     1
 62
   257
176
     1
 90
        1
176
     1
 90
        1
176
     1
 40
1.0
176
     1
 90
        0
176
     1
 62
   257
176
     1
 40
1.0
176
     1
 90
        1
176
     1
 90
        6
176
     1
 90
        2
176
     1
 62
     7
176
     1
 90
        3
176
     1
 90
        0
176
     1
 90
        0
176
     1
290
     0
176
     1
 90
        1
176
     1
 40
0.0
176
     1
 90
        0
176
     1
290
     0
176
     1
290
     1
176
     1
290
     1
176
     1
290
     0
176
     1
290
     0
176
     1
290
     0
176
     1
290
     0
176
     1
290
     0
176
     1
290
     0
176
     1
 90
       50
176
     1
 40
0.0
176
     1
 40
1.0
176
     1
 90
        0
176
     1
 62
    18
420
        0
176
     1
 90
       50
176
     1
 90
        3
176
     1
 62
     5
420
      255
176
     1
290
     0
176
     1
 90
       50
176
     1
 90
       50
176
     1
 90
       50
176
     1
290
     0
176
     1
 90
       50
176
     1
 62
   256
176
     0
 40
1.0
176
     0
 90
        2
176
     1
  1
strokes_ogs.tif
176
     1
290
     0
176
     1
 40
1.0
176
     1
 40
1.0
176
     1
  0
VISUALSTYLE
  5
40
102
{ACAD_REACTORS
330
2A
102
}
330
2A
100
AcDbVisualStyle
  2
X-Ray
 70
    25
177
     3
291
     0
 70
    58
 90
        2
176
     1
 90
        2
176
     1
 90
        1
176
     1
 90
        1
176
     1
 40
0.5
176
     1
 40
30.0
176
     1
 62
     7
420
 16777215
176
     1
 90
        1
176
     1
 90
        0
176
     1
 62
     7
176
     1
 62
   257
176
     1
 90
        1
176
     1
 90
        1
176
     1
 40
1.0
176
     1
 90
        8
176
     1
 62
     7
176
     1
 40
1.0
176
     1
 90
        1
176
     1
 90
        6
176
     1
 90
        2
176
     1
 62
     7
176
     1
 90
        3
176
     1
 90
        0
176
     1
 90
        0
176
     1
290
     0
176
     1
 90
       13
176
     1
 40
0.0
176
     1
 90
        0
176
     1
290
     0
176
     1
290
     1
176
     1
290
     1
176
     1
290
     0
176
     1
290
     0
176
     1
290
     0
176
     1
290
     0
176
     1
290
     0
176
     1
290
     0
176
     1
 90
       50
176
     1
 40
0.0
176
     1
 40
1.0
176
     1
 90
        0
176
     1
 62
    18
420
        0
176
     1
 90
       50
176
     1
 90
        3
176
     1
 62
     5
420
      255
176
     1
290
     0
176
     1
 90
       50
176
     1
 90
       50
176
     1
 90
       50
176
     1
290
     0
176
     1
 90
       50
176
     1
 62
   256
176
     0
 40
1.0
176
     0
 90
        2
176
     1
  1
strokes_ogs.tif
176
     1
290
     0
176
     1
 40
1.0
176
     1
 40
1.0
176
     1
  0
DICTIONARYVAR
  5
1E8
102
{ACAD_REACTORS
330
1E7
102
}
330
1E7
100
DictionaryVariables
280
     0
  1
1:1
  0
DICTIONARYVAR
  5
1ED
102
{ACAD_REACTORS
330
1E7
102
}
330
1E7
100
DictionaryVariables
280
     0
  1
Standard
  0
DICTIONARYVAR
  5
1EC
102
{ACAD_REACTORS
330
1E7
102
}
330
1E7
100
DictionaryVariables
280
     0
  1
Standard
  0
DICTIONARY
  5
1E9
330
6A
100
AcDbDictionary
280
     1
281
     1
  3
ACAD_ROUNDTRIP_2008_TABLESTYLE_CELLSTYLEMAP
360
1EA
  0
CELLSTYLEMAP
  5
1EA
102
{ACAD_REACTORS
330
1E9
102
}
330
1E9
100
AcDbCellStyleMap
 90
        3
300
CELLSTYLE
  1
TABLEFORMAT_BEGIN
 90
        5
170
     1
 91
        0
 92
    32768
 62
   257
 93
        1
300
CONTENTFORMAT
  1
CONTENTFORMAT_BEGIN
 90
        0
 91
        0
 92
        4
 93
        0
300

 40
0.0
140
1.0
 94
        5
 62
     0
340
11
144
6.0
309
CONTENTFORMAT_END
171
     1
301
MARGIN
  1
CELLMARGIN_BEGIN
 40
1.5
 40
1.5
 40
1.5
 40
1.5
 40
1.5
 40
1.5
309
CELLMARGIN_END
 94
        6
 95
        1
302
GRIDFORMAT
  1
GRIDFORMAT_BEGIN
 90
        0
 91
        1
 62
     0
 92
       -2
340
14
 93
        0
 40
0.045
309
GRIDFORMAT_END
 95
        2
302
GRIDFORMAT
  1
GRIDFORMAT_BEGIN
 90
        0
 91
        1
 62
     0
 92
       -2
340
14
 93
        0
 40
0.045
309
GRIDFORMAT_END
 95
        4
302
GRIDFORMAT
  1
GRIDFORMAT_BEGIN
 90
        0
 91
        1
 62
     0
 92
       -2
340
14
 93
        0
 40
0.045
309
GRIDFORMAT_END
 95
        8
302
GRIDFORMAT
  1
GRIDFORMAT_BEGIN
 90
        0
 91
        1
 62
     0
 92
       -2
340
14
 93
        0
 40
0.045
309
GRIDFORMAT_END
 95
       16
302
GRIDFORMAT
  1
GRIDFORMAT_BEGIN
 90
        0
 91
        1
 62
     0
 92
       -2
340
14
 93
        0
 40
0.045
309
GRIDFORMAT_END
 95
       32
302
GRIDFORMAT
  1
GRIDFORMAT_BEGIN
 90
        0
 91
        1
 62
     0
 92
       -2
340
14
 93
        0
 40
0.045
309
GRIDFORMAT_END
309
TABLEFORMAT_END
  1
CELLSTYLE_BEGIN
 90
        1
 91
        1
300
_TITLE
309
CELLSTYLE_END
300
CELLSTYLE
  1
TABLEFORMAT_BEGIN
 90
        5
170
     1
 91
        0
 92
        0
 62
   257
 93
        1
300
CONTENTFORMAT
  1
CONTENTFORMAT_BEGIN
 90
        0
 91
        0
 92
        4
 93
        0
300

 40
0.0
140
1.0
 94
        5
 62
     0
340
11
144
4.5
309
CONTENTFORMAT_END
171
     1
301
MARGIN
  1
CELLMARGIN_BEGIN
 40
1.5
 40
1.5
 40
1.5
 40
1.5
 40
1.5
 40
1.5
309
CELLMARGIN_END
 94
        6
 95
        1
302
GRIDFORMAT
  1
GRIDFORMAT_BEGIN
 90
        0
 91
        1
 62
     0
 92
       -2
340
14
 93
        0
 40
0.045
309
GRIDFORMAT_END
 95
        2
302
GRIDFORMAT
  1
GRIDFORMAT_BEGIN
 90
        0
 91
        1
 62
     0
 92
       -2
340
14
 93
        0
 40
0.045
309
GRIDFORMAT_END
 95
        4
302
GRIDFORMAT
  1
GRIDFORMAT_BEGIN
 90
        0
 91
        1
 62
     0
 92
       -2
340
14
 93
        0
 40
0.045
309
GRIDFORMAT_END
 95
        8
302
GRIDFORMAT
  1
GRIDFORMAT_BEGIN
 90
        0
 91
        1
 62
     0
 92
       -2
340
14
 93
        0
 40
0.045
309
GRIDFORMAT_END
 95
       16
302
GRIDFORMAT
  1
GRIDFORMAT_BEGIN
 90
        0
 91
        1
 62
     0
 92
       -2
340
14
 93
        0
 40
0.045
309
GRIDFORMAT_END
 95
       32
302
GRIDFORMAT
  1
GRIDFORMAT_BEGIN
 90
        0
 91
        1
 62
     0
 92
       -2
340
14
 93
        0
 40
0.045
309
GRIDFORMAT_END
309
TABLEFORMAT_END
  1
CELLSTYLE_BEGIN
 90
        2
 91
        1
300
_HEADER
309
CELLSTYLE_END
300
CELLSTYLE
  1
TABLEFORMAT_BEGIN
 90
        5
170
     1
 91
        0
 92
        0
 62
   257
 93
        1
300
CONTENTFORMAT
  1
CONTENTFORMAT_BEGIN
 90
        0
 91
        0
 92
        4
 93
        0
300

 40
0.0
140
1.0
 94
        2
 62
     0
340
11
144
4.5
309
CONTENTFORMAT_END
171
     1
301
MARGIN
  1
CELLMARGIN_BEGIN
 40
1.5
 40
1.5
 40
1.5
 40
1.5
 40
1.5
 40
1.5
309
CELLMARGIN_END
 94
        6
 95
        1
302
GRIDFORMAT
  1
GRIDFORMAT_BEGIN
 90
        0
 91
        1
 62
     0
 92
       -2
340
14
 93
        0
 40
0.045
309
GRIDFORMAT_END
 95
        2
302
GRIDFORMAT
  1
GRIDFORMAT_BEGIN
 90
        0
 91
        1
 62
     0
 92
       -2
340
14
 93
        0
 40
0.045
309
GRIDFORMAT_END
 95
        4
302
GRIDFORMAT
  1
GRIDFORMAT_BEGIN
 90
        0
 91
        1
 62
     0
 92
       -2
340
14
 93
        0
 40
0.045
309
GRIDFORMAT_END
 95
        8
302
GRIDFORMAT
  1
GRIDFORMAT_BEGIN
 90
        0
 91
        1
 62
     0
 92
       -2
340
14
 93
        0
 40
0.045
309
GRIDFORMAT_END
 95
       16
302
GRIDFORMAT
  1
GRIDFORMAT_BEGIN
 90
        0
 91
        1
 62
     0
 92
       -2
340
14
 93
        0
 40
0.045
309
GRIDFORMAT_END
 95
       32
302
GRIDFORMAT
  1
GRIDFORMAT_BEGIN
 90
        0
 91
        1
 62
     0
 92
       -2
340
14
 93
        0
 40
0.045
309
GRIDFORMAT_END
309
TABLEFORMAT_END
  1
CELLSTYLE_BEGIN
 90
        3
 91
        2
300
_DATA
309
CELLSTYLE_END
  0
ENDSEC
  0
EOF
