  0
SECTION
  2
HEADER
  9
$ACADVER
  1
AC1027
  9
$ACADMAINTVER
 70
   105
  9
$DWGCODEPAGE
  3
ANSI_1251
  9
$REQUIREDVERSIONS
160
                 0
  9
$INSBASE
 10
0.0
 20
0.0
 30
0.0
  9
$EXTMIN
 10
0.0
 20
0.0
 30
0.0
  9
$EXTMAX
 10
1420.0
 20
1297.0
 30
0.0
  9
$LIMMIN
 10
0.0
 20
0.0
  9
$LIMMAX
 10
1420.0
 20
1297.0
  9
$ORTHOMODE
 70
     0
  9
$REGENMODE
 70
     1
  9
$FILLMODE
 70
     1
  9
$QTEXTMODE
 70
     0
  9
$MIRRTEXT
 70
     1
  9
$LTSCALE
 40
1.0
  9
$ATTMODE
 70
     1
  9
$TEXTSIZE
 40
5.0
  9
$TRACEWID
 40
1.0
  9
$TEXTSTYLE
  7
Standard
  9
$CLAYER
  8
0
  9
$CELTYPE
  6
ByLayer
  9
$CECOLOR
 62
   256
  9
$CELTSCALE
 40
1.0
  9
$DISPSILH
 70
     0
  9
$DIMSCALE
 40
1.0
  9
$DIMASZ
 40
5.0
  9
$DIMEXO
 40
0.0
  9
$DIMDLI
 40
3.75
  9
$DIMRND
 40
0.0
  9
$DIMDLE
 40
0.0
  9
$DIMEXE
 40
1.0
  9
$DIMTP
 40
0.0
  9
$DIMTM
 40
0.0
  9
$DIMTXT
 40
3.5
  9
$DIMCEN
 40
2.5
  9
$DIMTSZ
 40
0.0
  9
$DIMTOL
 70
     0
  9
$DIMLIM
 70
     0
  9
$DIMTIH
 70
     1
  9
$DIMTOH
 70
     1
  9
$DIMSE1
 70
     0
  9
$DIMSE2
 70
     0
  9
$DIMTAD
 70
     1
  9
$DIMZIN
 70
     0
  9
$DIMBLK
  1

  9
$DIMASO
 70
     1
  9
$DIMSHO
 70
     1
  9
$DIMPOST
  1

  9
$DIMAPOST
  1

  9
$DIMALT
 70
     0
  9
$DIMALTD
 70
     3
  9
$DIMALTF
 40
0.0393700787
  9
$DIMLFAC
 40
1.0
  9
$DIMTOFL
 70
     1
  9
$DIMTVP
 40
0.0
  9
$DIMTIX
 70
     0
  9
$DIMSOXD
 70
     0
  9
$DIMSAH
 70
     0
  9
$DIMBLK1
  1

  9
$DIMBLK2
  1

  9
$DIMSTYLE
  2
ISO-25
  9
$DIMCLRD
 70
     0
  9
$DIMCLRE
 70
     0
  9
$DIMCLRT
 70
     0
  9
$DIMTFAC
 40
1.0
  9
$DIMGAP
 40
1.5
  9
$DIMJUST
 70
     0
  9
$DIMSD1
 70
     0
  9
$DIMSD2
 70
     0
  9
$DIMTOLJ
 70
     0
  9
$DIMTZIN
 70
     0
  9
$DIMALTZ
 70
     0
  9
$DIMALTTZ
 70
     0
  9
$DIMUPT
 70
     0
  9
$DIMDEC
 70
     1
  9
$DIMTDEC
 70
     1
  9
$DIMALTU
 70
     2
  9
$DIMALTTD
 70
     3
  9
$DIMTXSTY
  7
Standard
  9
$DIMAUNIT
 70
     0
  9
$DIMADEC
 70
     2
  9
$DIMALTRND
 40
0.0
  9
$DIMAZIN
 70
     0
  9
$DIMDSEP
 70
    44
  9
$DIMATFIT
 70
     3
  9
$DIMFRAC
 70
     0
  9
$DIMLDRBLK
  1

  9
$DIMLUNIT
 70
     2
  9
$DIMLWD
 70
    -2
  9
$DIMLWE
 70
    -2
  9
$DIMTMOVE
 70
     0
  9
$DIMFXL
 40
1.0
  9
$DIMFXLON
 70
     0
  9
$DIMJOGANG
 40
0.7853981634
  9
$DIMTFILL
 70
     0
  9
$DIMTFILLCLR
 70
     0
  9
$DIMARCSYM
 70
     0
  9
$DIMLTYPE
  6

  9
$DIMLTEX1
  6

  9
$DIMLTEX2
  6

  9
$DIMTXTDIRECTION
 70
     0
  9
$LUNITS
 70
     2
  9
$LUPREC
 70
     1
  9
$SKETCHINC
 40
1.0
  9
$FILLETRAD
 40
10.0
  9
$AUNITS
 70
     0
  9
$AUPREC
 70
     2
  9
$MENU
  1
.
  9
$ELEVATION
 40
0.0
  9
$PELEVATION
 40
0.0
  9
$THICKNESS
 40
0.0
  9
$LIMCHECK
 70
     0
  9
$CHAMFERA
 40
0.0
  9
$CHAMFERB
 40
0.0
  9
$CHAMFERC
 40
0.0
  9
$CHAMFERD
 40
0.0
  9
$SKPOLY
 70
     0
  9
$TDCREATE
 40
2459607.523610753
  9
$TDUCREATE
 40
2459607.398610753
  9
$TDUPDATE
 40
2459607.523611076
  9
$TDUUPDATE
 40
2459607.398611076
  9
$TDINDWG
 40
0.0000000116
  9
$TDUSRTIMER
 40
0.0000000116
  9
$USRTIMER
 70
     1
  9
$ANGBASE
 50
0.0
  9
$ANGDIR
 70
     0
  9
$PDMODE
 70
     0
  9
$PDSIZE
 40
-1.0
  9
$PLINEWID
 40
0.0
  9
$SPLFRAME
 70
     0
  9
$SPLINETYPE
 70
     6
  9
$SPLINESEGS
 70
     8
  9
$HANDSEED
  5
1EC
  9
$SURFTAB1
 70
     6
  9
$SURFTAB2
 70
     6
  9
$SURFTYPE
 70
     6
  9
$SURFU
 70
     6
  9
$SURFV
 70
     6
  9
$UCSBASE
  2

  9
$UCSNAME
  2

  9
$UCSORG
 10
0.0
 20
0.0
 30
0.0
  9
$UCSXDIR
 10
1.0
 20
0.0
 30
0.0
  9
$UCSYDIR
 10
0.0
 20
1.0
 30
0.0
  9
$UCSORTHOREF
  2

  9
$UCSORTHOVIEW
 70
     0
  9
$UCSORGTOP
 10
0.0
 20
0.0
 30
0.0
  9
$UCSORGBOTTOM
 10
0.0
 20
0.0
 30
0.0
  9
$UCSORGLEFT
 10
0.0
 20
0.0
 30
0.0
  9
$UCSORGRIGHT
 10
0.0
 20
0.0
 30
0.0
  9
$UCSORGFRONT
 10
0.0
 20
0.0
 30
0.0
  9
$UCSORGBACK
 10
0.0
 20
0.0
 30
0.0
  9
$PUCSBASE
  2

  9
$PUCSNAME
  2

  9
$PUCSORG
 10
0.0
 20
0.0
 30
0.0
  9
$PUCSXDIR
 10
1.0
 20
0.0
 30
0.0
  9
$PUCSYDIR
 10
0.0
 20
1.0
 30
0.0
  9
$PUCSORTHOREF
  2

  9
$PUCSORTHOVIEW
 70
     0
  9
$PUCSORGTOP
 10
0.0
 20
0.0
 30
0.0
  9
$PUCSORGBOTTOM
 10
0.0
 20
0.0
 30
0.0
  9
$PUCSORGLEFT
 10
0.0
 20
0.0
 30
0.0
  9
$PUCSORGRIGHT
 10
0.0
 20
0.0
 30
0.0
  9
$PUCSORGFRONT
 10
0.0
 20
0.0
 30
0.0
  9
$PUCSORGBACK
 10
0.0
 20
0.0
 30
0.0
  9
$USERI1
 70
     0
  9
$USERI2
 70
     0
  9
$USERI3
 70
     0
  9
$USERI4
 70
     0
  9
$USERI5
 70
     0
  9
$USERR1
 40
0.0
  9
$USERR2
 40
0.0
  9
$USERR3
 40
0.0
  9
$USERR4
 40
0.0
  9
$USERR5
 40
0.0
  9
$WORLDVIEW
 70
     1
  9
$SHADEDGE
 70
     3
  9
$SHADEDIF
 70
    70
  9
$TILEMODE
 70
     1
  9
$MAXACTVP
 70
    64
  9
$PINSBASE
 10
0.0
 20
0.0
 30
0.0
  9
$PLIMCHECK
 70
     0
  9
$PEXTMIN
 10
1.0000000000E+20
 20
1.0000000000E+20
 30
1.0000000000E+20
  9
$PEXTMAX
 10
-1.0000000000E+20
 20
-1.0000000000E+20
 30
-1.0000000000E+20
  9
$PLIMMIN
 10
0.0
 20
0.0
  9
$PLIMMAX
 10
420.0
 20
297.0
  9
$UNITMODE
 70
     0
  9
$VISRETAIN
 70
     1
  9
$PLINEGEN
 70
     0
  9
$PSLTSCALE
 70
     1
  9
$TREEDEPTH
 70
  3020
  9
$CMLSTYLE
  2
Standard
  9
$CMLJUST
 70
     0
  9
$CMLSCALE
 40
20.0
  9
$PROXYGRAPHICS
 70
     1
  9
$MEASUREMENT
 70
     1
  9
$CELWEIGHT
370
    -1
  9
$ENDCAPS
280
     0
  9
$JOINSTYLE
280
     0
  9
$LWDISPLAY
290
     1
  9
$INSUNITS
 70
     4
  9
$HYPERLINKBASE
  1

  9
$STYLESHEET
  1

  9
$XEDIT
290
     1
  9
$CEPSNTYPE
380
     0
  9
$PSTYLEMODE
290
     1
  9
$FINGERPRINTGUID
  2
{6E390953-643A-45BA-AB0B-5DCAF3CC4258}
  9
$VERSIONGUID
  2
{FAEB1C32-E019-11D5-929B-00C0DF256EC4}
  9
$EXTNAMES
290
     1
  9
$PSVPSCALE
 40
0.0
  9
$OLESTARTUP
290
     0
  9
$SORTENTS
280
   127
  9
$INDEXCTL
280
     0
  9
$HIDETEXT
280
     1
  9
$XCLIPFRAME
280
     2
  9
$HALOGAP
280
     0
  9
$OBSCOLOR
 70
   257
  9
$OBSLTYPE
280
     0
  9
$INTERSECTIONDISPLAY
280
     0
  9
$INTERSECTIONCOLOR
 70
   257
  9
$DIMASSOC
280
     2
  9
$PROJECTNAME
  1

  9
$CAMERADISPLAY
290
     0
  9
$LENSLENGTH
 40
50.0
  9
$CAMERAHEIGHT
 40
0.0
  9
$STEPSPERSEC
 40
2.0
  9
$STEPSIZE
 40
6.0
  9
$3DDWFPREC
 40
2.0
  9
$PSOLWIDTH
 40
5.0
  9
$PSOLHEIGHT
 40
80.0
  9
$LOFTANG1
 40
1.5707963268
  9
$LOFTANG2
 40
1.5707963268
  9
$LOFTMAG1
 40
0.0
  9
$LOFTMAG2
 40
0.0
  9
$LOFTPARAM
 70
     7
  9
$LOFTNORMALS
280
     1
  9
$LATITUDE
 40
37.795
  9
$LONGITUDE
 40
-122.394
  9
$NORTHDIRECTION
 40
0.0
  9
$TIMEZONE
 70
 -8000
  9
$LIGHTGLYPHDISPLAY
280
     1
  9
$TILEMODELIGHTSYNCH
280
     1
  9
$CMATERIAL
347
44
  9
$SOLIDHIST
280
     0
  9
$SHOWHIST
280
     1
  9
$DWFFRAME
280
     2
  9
$DGNFRAME
280
     2
  9
$REALWORLDSCALE
290
     1
  9
$INTERFERECOLOR
 62
   256
  9
$CSHADOW
280
     0
  9
$SHADOWPLANELOCATION
 40
0.0
  0
ENDSEC
  0
SECTION
  2
CLASSES
  0
CLASS
  1
ACDBDICTIONARYWDFLT
  2
AcDbDictionaryWithDefault
  3
ObjectDBX Classes
 90
        0
 91
        4
280
     0
281
     0
  0
CLASS
  1
VISUALSTYLE
  2
AcDbVisualStyle
  3
ObjectDBX Classes
 90
     4095
 91
        4
280
     0
281
     0
  0
CLASS
  1
MATERIAL
  2
AcDbMaterial
  3
ObjectDBX Classes
 90
     1153
 91
        4
280
     0
281
     0
  0
CLASS
  1
SCALE
  2
AcDbScale
  3
ObjectDBX Classes
 90
     1153
 91
        4
280
     0
281
     0
  0
CLASS
  1
TABLESTYLE
  2
AcDbTableStyle
  3
ObjectDBX Classes
 90
     4095
 91
        4
280
     0
281
     0
  0
CLASS
  1
MLEADERSTYLE
  2
AcDbMLeaderStyle
  3
ACDB_MLEADERSTYLE_CLASS
 90
     4095
 91
        4
280
     0
281
     0
  0
CLASS
  1
SUN
  2
AcDbSun
  3
SCENEOE
 90
     1153
 91
        4
280
     0
281
     0
  0
CLASS
  1
DICTIONARYVAR
  2
AcDbDictionaryVar
  3
ObjectDBX Classes
 90
        0
 91
        4
280
     0
281
     0
  0
CLASS
  1
CELLSTYLEMAP
  2
AcDbCellStyleMap
  3
ObjectDBX Classes
 90
     1152
 91
        4
280
     0
281
     0
  0
ENDSEC
  0
SECTION
  2
TABLES
  0
TABLE
  2
VPORT
  5
8
330
0
100
AcDbSymbolTable
 70
     1
  0
VPORT
  5
29
330
8
100
AcDbSymbolTableRecord
100
AcDbViewportTableRecord
  2
*Active
 70
     0
 10
0.0
 20
0.0
 11
1.0
 21
1.0
 12
710.0
 22
648.5
 13
0.0
 23
0.0
 14
10.0
 24
10.0
 15
10.0
 25
10.0
 16
0.0
 26
0.0
 36
1.0
 17
0.0
 27
0.0
 37
0.0
 40
1297.0
 41
1.0948342328
 42
50.0
 43
0.0
 44
0.0
 50
0.0
 51
0.0
 71
     0
 72
  2000
 73
     1
 74
     3
 75
     0
 76
     0
 77
     0
 78
     0
281
     0
 65
     1
110
0.0
120
0.0
130
0.0
111
1.0
121
0.0
131
0.0
112
0.0
122
1.0
132
0.0
 79
     0
146
0.0
348
2F
 60
     3
 61
     5
292
     1
282
     1
141
0.0
142
0.0
 63
   250
361
6D
  0
ENDTAB
  0
TABLE
  2
LTYPE
  5
5
330
0
100
AcDbSymbolTable
 70
     8
  0
LTYPE
  5
14
330
5
100
AcDbSymbolTableRecord
100
AcDbLinetypeTableRecord
  2
ByBlock
 70
     0
  3

 72
    65
 73
     0
 40
0.0
  0
LTYPE
  5
15
330
5
100
AcDbSymbolTableRecord
100
AcDbLinetypeTableRecord
  2
ByLayer
 70
     0
  3

 72
    65
 73
     0
 40
0.0
  0
LTYPE
  5
16
330
5
100
AcDbSymbolTableRecord
100
AcDbLinetypeTableRecord
  2
Continuous
 70
     0
  3
Solid line
 72
    65
 73
     0
 40
0.0
  0
LTYPE
  5
6E
330
5
100
AcDbSymbolTableRecord
100
AcDbLinetypeTableRecord
  2
SLD-Сплошная
 70
     0
  3
SolidWorks Line Style
 72
    65
 73
     0
 40
0.0
  0
LTYPE
  5
6F
330
5
100
AcDbSymbolTableRecord
100
AcDbLinetypeTableRecord
  2
SLD-Штриховая
 70
     0
  3
SolidWorks Line Style
 72
    65
 73
     2
 40
1.905
 49
1.27
 74
     0
 49
-0.635
 74
     0
  0
LTYPE
  5
70
330
5
100
AcDbSymbolTableRecord
100
AcDbLinetypeTableRecord
  2
SLD-Штрихпункт.-с-двумя-точками
 70
     0
  3
SolidWorks Line Style
 72
    65
 73
     6
 40
12.7
 49
6.35
 74
     0
 49
-1.27
 74
     0
 49
1.27
 74
     0
 49
-1.27
 74
     0
 49
1.27
 74
     0
 49
-1.27
 74
     0
  0
LTYPE
  5
71
330
5
100
AcDbSymbolTableRecord
100
AcDbLinetypeTableRecord
  2
SLD-Штрихпункт.-утолщ.
 70
     0
  3
SolidWorks Line Style
 72
    65
 73
     4
 40
10.16
 49
6.35
 74
     0
 49
-1.27
 74
     0
 49
1.27
 74
     0
 49
-1.27
 74
     0
  0
LTYPE
  5
72
330
5
100
AcDbSymbolTableRecord
100
AcDbLinetypeTableRecord
  2
SLD-Осевая
 70
     0
  3
SolidWorks Line Style
 72
    65
 73
     4
 40
19.05
 49
15.24
 74
     0
 49
-1.27
 74
     0
 49
1.27
 74
     0
 49
-1.27
 74
     0
  0
LTYPE
  5
73
330
5
100
AcDbSymbolTableRecord
100
AcDbLinetypeTableRecord
  2
SLD-Сшитая
 70
     0
  3
SolidWorks Line Style
 72
    65
 73
     2
 40
0.635
 49
0.0
 74
     0
 49
-0.635
 74
     0
  0
LTYPE
  5
74
330
5
100
AcDbSymbolTableRecord
100
AcDbLinetypeTableRecord
  2
SLD-Тонкая-Толстая
 70
     0
  3
SolidWorks Line Style
 72
    65
 73
     2
 40
5.080508
 49
0.000508
 74
     0
 49
-5.08
 74
     0
  0
ENDTAB
  0
TABLE
  2
LAYER
  5
2
330
0
100
AcDbSymbolTable
 70
     5
  0
LAYER
  5
10
330
2
100
AcDbSymbolTableRecord
100
AcDbLayerTableRecord
  2
0
 70
     0
 62
     7
  6
Continuous
370
    -3
390
F
347
46
348
0
  0
LAYER
  5
75
330
2
100
AcDbSymbolTableRecord
100
AcDbLayerTableRecord
  2
ОСНОВНОЙ
 70
     0
 62
   236
  6
SLD-Сплошная
370
    35
390
F
347
46
348
0
  0
LAYER
  5
76
330
2
100
AcDbSymbolTableRecord
100
AcDbLayerTableRecord
  2
HELP
 70
     0
 62
   -57
  6
SLD-Сплошная
290
     0
370
    -3
390
F
347
46
348
0
  0
LAYER
  5
77
330
2
100
AcDbSymbolTableRecord
100
AcDbLayerTableRecord
  2
ТЕКСТ
 70
     0
 62
   150
  6
SLD-Сплошная
370
    -3
390
F
347
46
348
0
  0
LAYER
  5
78
330
2
100
AcDbSymbolTableRecord
100
AcDbLayerTableRecord
  2
ТОНКИЙ
 70
     0
 62
   174
  6
SLD-Сплошная
370
    -3
390
F
347
46
348
0
  0
ENDTAB
  0
TABLE
  2
STYLE
  5
3
330
0
100
AcDbSymbolTable
 70
     1
  0
STYLE
  5
11
330
3
100
AcDbSymbolTableRecord
100
AcDbTextStyleTableRecord
  2
Standard
 70
     0
 40
0.0
 41
1.0
 50
0.0
 71
     0
 42
5.0
  3
txt
  4

  0
ENDTAB
  0
TABLE
  2
VIEW
  5
6
330
0
100
AcDbSymbolTable
 70
     0
  0
ENDTAB
  0
TABLE
  2
UCS
  5
7
330
0
100
AcDbSymbolTable
 70
     0
  0
ENDTAB
  0
TABLE
  2
APPID
  5
9
330
0
100
AcDbSymbolTable
 70
     1
  0
APPID
  5
12
330
9
100
AcDbSymbolTableRecord
100
AcDbRegAppTableRecord
  2
ACAD
 70
     0
  0
ENDTAB
  0
TABLE
  2
DIMSTYLE
  5
A
330
0
100
AcDbSymbolTable
 70
     1
100
AcDbDimStyleTable
  0
DIMSTYLE
105
27
330
A
100
AcDbSymbolTableRecord
100
AcDbDimStyleTableRecord
  2
ISO-25
 70
     0
 41
2.5
 42
0.625
 43
3.75
 44
1.25
 73
     0
 74
     0
 77
     1
 78
     8
140
2.5
141
2.5
143
0.0393700787
147
0.625
171
     3
172
     1
178
     0
271
     2
272
     2
274
     3
278
    44
283
     0
284
     8
340
11
  0
ENDTAB
  0
TABLE
  2
BLOCK_RECORD
  5
1
330
0
100
AcDbSymbolTable
 70
     1
  0
BLOCK_RECORD
  5
1F
330
1
100
AcDbSymbolTableRecord
100
AcDbBlockTableRecord
  2
*Model_Space
340
22
 70
     0
280
     1
281
     0
  0
BLOCK_RECORD
  5
1B
330
1
100
AcDbSymbolTableRecord
100
AcDbBlockTableRecord
  2
*Paper_Space
340
1E
 70
     0
280
     1
281
     0
  0
BLOCK_RECORD
  5
23
330
1
100
AcDbSymbolTableRecord
100
AcDbBlockTableRecord
  2
*Paper_Space0
340
26
 70
     0
280
     1
281
     0
  0
ENDTAB
  0
ENDSEC
  0
SECTION
  2
BLOCKS
  0
BLOCK
  5
20
330
1F
100
AcDbEntity
  8
0
100
AcDbBlockBegin
  2
*Model_Space
 70
     0
 10
0.0
 20
0.0
 30
0.0
  3
*Model_Space
  1

  0
ENDBLK
  5
21
330
1F
100
AcDbEntity
  8
0
100
AcDbBlockEnd
  0
BLOCK
  5
1C
330
1B
100
AcDbEntity
 67
     1
  8
0
100
AcDbBlockBegin
  2
*Paper_Space
 70
     0
 10
0.0
 20
0.0
 30
0.0
  3
*Paper_Space
  1

  0
ENDBLK
  5
1D
330
1B
100
AcDbEntity
 67
     1
  8
0
100
AcDbBlockEnd
  0
BLOCK
  5
24
330
23
100
AcDbEntity
  8
0
100
AcDbBlockBegin
  2
*Paper_Space0
 70
     0
 10
0.0
 20
0.0
 30
0.0
  3
*Paper_Space0
  1

  0
ENDBLK
  5
25
330
23
100
AcDbEntity
  8
0
100
AcDbBlockEnd
  0
ENDSEC
  0
SECTION
  2
ENTITIES
  0
CIRCLE
  5
79
330
1F
100
AcDbEntity
  8
0
  6
SLD-Сплошная
 62
     7
370
    35
100
AcDbCircle
 10
-186.3633588628
 20
282.0695885154
 30
0.0
 40
2.050000000000011
  0
CIRCLE
  5
7A
330
1F
100
AcDbEntity
  8
0
  6
SLD-Сплошная
 62
     7
370
    35
100
AcDbCircle
 10
117.5634812842
 20
-451.6747109368
 30
0.0
 40
2.050000000000011
  0
SPLINE
  5
7B
330
1F
100
AcDbEntity
  8
0
  6
SLD-Сплошная
 62
     7
370
    35
100
AcDbSpline
210
0.0
220
0.0
230
1.0
 70
    24
 71
     3
 72
    10
 73
     6
 74
     0
 42
0.000000001
 43
0.00000001
 40
0.0
 40
0.0
 40
0.0
 40
0.0
 40
0.5
 40
0.5
 40
1.0
 40
1.0
 40
1.0
 40
1.0
 10
-354.0433363351479
 20
93.17640760755502
 30
0.0
 10
-354.2701118434718
 20
92.94963209923112
 30
0.0
 10
-354.4704621562217
 20
92.74928178648123
 30
0.0
 10
-354.7731223472719
 20
92.44662159543104
 30
0.0
 10
-354.8751603511183
 20
92.34458359158442
 30
0.0
 10
-354.9163986650476
 20
92.30334527765521
 30
0.0
  0
LINE
  5
7C
330
1F
100
AcDbEntity
  8
0
  6
SLD-Сплошная
 62
     7
370
    35
100
AcDbLine
 10
-353.7638663749
 20
93.4558775678
 30
0.0
 11
-354.0433363352
 21
93.1764076076
 31
0.0
  0
SPLINE
  5
7D
330
1F
100
AcDbEntity
  8
0
  6
SLD-Сплошная
 62
     7
370
    35
100
AcDbSpline
210
0.0
220
0.0
230
1.0
 70
    24
 71
     3
 72
     8
 73
     4
 74
     0
 42
0.000000001
 43
0.00000001
 40
0.0
 40
0.0
 40
0.0
 40
0.0
 40
1.0
 40
1.0
 40
1.0
 40
1.0
 10
-353.3819805791107
 20
93.83776336359223
 30
0.0
 10
-353.5105903483809
 20
93.70915359432213
 30
0.0
 10
-353.6391920304089
 20
93.58055191229408
 30
0.0
 10
-353.7638663749413
 20
93.45587756776169
 30
0.0
  0
LINE
  5
7E
330
1F
100
AcDbEntity
  8
0
  6
SLD-Сплошная
 62
     7
370
    35
100
AcDbLine
 10
-221.1530124972
 20
-38.3912047183
 30
0.0
 11
-222.7086474158
 21
-39.9468396369
 31
0.0
  0
LINE
  5
7F
330
1F
100
AcDbEntity
  8
0
  6
SLD-Сплошная
 62
     7
370
    35
100
AcDbLine
 10
-354.9376154977
 20
92.282128445
 30
0.0
 11
-222.7086474158
 21
-39.9468396369
 31
0.0
  0
SPLINE
  5
80
330
1F
100
AcDbEntity
  8
0
  6
SLD-Сплошная
 62
     7
370
    35
100
AcDbSpline
210
0.0
220
0.0
230
1.0
 70
    24
 71
     3
 72
     8
 73
     4
 74
     0
 42
0.000000001
 43
0.00000001
 40
0.0
 40
0.0
 40
0.0
 40
0.0
 40
1.0
 40
1.0
 40
1.0
 40
1.0
 10
-354.9323022157776
 20
92.28744172692532
 30
0.0
 10
-354.9358423859666
 20
92.28390155673638
 30
0.0
 10
-354.9376154977211
 20
92.28212844498185
 30
0.0
 10
-354.9376154977211
 20
92.28212844498185
 30
0.0
  0
LINE
  5
81
330
1F
100
AcDbEntity
  8
0
  6
SLD-Сплошная
 62
     7
370
    35
100
AcDbLine
 10
-354.916398665
 20
92.3033452776
 30
0.0
 11
-354.9323022158
 21
92.2874417269
 31
0.0
  0
LINE
  5
82
330
1F
100
AcDbEntity
  8
0
  6
SLD-Сплошная
 62
     7
370
    35
100
AcDbLine
 10
-135.8365187158
 20
-436.6747109368
 30
0.0
 11
-135.8365187158
 21
-249.6747109368
 31
0.0
  0
LINE
  5
83
330
1F
100
AcDbEntity
  8
0
  6
SLD-Сплошная
 62
     7
370
    35
100
AcDbLine
 10
-133.6365187158
 20
-249.6747109368
 30
0.0
 11
-135.8365187158
 21
-249.6747109368
 31
0.0
  0
LINE
  5
84
330
1F
100
AcDbEntity
  8
0
  6
SLD-Сплошная
 62
     7
370
    35
100
AcDbLine
 10
-133.6365187158
 20
-436.6747109368
 30
0.0
 11
-135.8365187158
 21
-436.6747109368
 31
0.0
  0
LINE
  5
85
330
1F
100
AcDbEntity
  8
0
  6
SLD-Сплошная
 62
     7
370
    35
100
AcDbLine
 10
368.7634812842
 20
-249.6747109368
 30
0.0
 11
370.9634812842
 21
-249.6747109368
 31
0.0
  0
LINE
  5
86
330
1F
100
AcDbEntity
  8
0
  6
SLD-Сплошная
 62
     7
370
    35
100
AcDbLine
 10
370.9634812842
 20
-436.6747109368
 30
0.0
 11
370.9634812842
 21
-249.6747109368
 31
0.0
  0
LINE
  5
87
330
1F
100
AcDbEntity
  8
0
  6
SLD-Сплошная
 62
     7
370
    35
100
AcDbLine
 10
370.9634812842
 20
-436.6747109368
 30
0.0
 11
368.7634812842
 21
-436.6747109368
 31
0.0
  0
ARC
  5
88
330
1F
100
AcDbEntity
  8
0
  6
SLD-Сплошная
 62
     7
370
    35
100
AcDbCircle
 10
-126.4365187158
 20
-461.6747109368
 30
0.0
 40
5.000000000000057
100
AcDbArc
 50
180.0
 51
270.0
  0
LINE
  5
89
330
1F
100
AcDbEntity
  8
0
  6
SLD-Сплошная
 62
     7
370
    35
100
AcDbLine
 10
-131.4365187158
 20
-461.6747109368
 30
0.0
 11
-131.4365187158
 21
-436.6747109368
 31
0.0
  0
LINE
  5
8A
330
1F
100
AcDbEntity
  8
0
  6
SLD-Сплошная
 62
     7
370
    35
100
AcDbLine
 10
-131.4365187158
 20
-249.6747109368
 30
0.0
 11
-133.6365187158
 21
-249.6747109368
 31
0.0
  0
ARC
  5
8B
330
1F
100
AcDbEntity
  8
0
  6
SLD-Сплошная
 62
     7
370
    35
100
AcDbCircle
 10
-131.4490810081
 20
-246.9247396299
 30
0.0
 40
2.749999999999959
100
AcDbArc
 50
270.2617341224
 51
90.7852023671
  0
ARC
  5
8C
330
1F
100
AcDbEntity
  8
0
  6
SLD-Сплошная
 62
     7
370
    35
100
AcDbCircle
 10
-432.4365187158
 20
-249.6747109368
 30
0.0
 40
301.0000000000001
100
AcDbArc
 50
1.0469364894
 51
43.9530635106
  0
ARC
  5
8D
330
1F
100
AcDbEntity
  8
0
  6
SLD-Сплошная
 62
     7
370
    35
100
AcDbCircle
 10
-217.6617371015
 20
-38.788976041
 30
0.0
 40
2.750000000000008
100
AcDbArc
 50
314.2147976329
 51
134.7382658775
  0
LINE
  5
8E
330
1F
100
AcDbEntity
  8
0
  6
SLD-Сплошная
 62
     7
370
    35
100
AcDbLine
 10
-221.1530124972
 20
-38.3912047183
 30
0.0
 11
-219.5973775786
 21
-36.8355697997
 31
0.0
  0
LINE
  5
8F
330
1F
100
AcDbEntity
  8
0
  6
SLD-Сплошная
 62
     7
370
    35
100
AcDbLine
 10
-351.8263456605
 20
95.3933982822
 30
0.0
 11
-369.5040151902
 21
113.0710678119
 31
0.0
  0
ARC
  5
90
330
1F
100
AcDbEntity
  8
0
  6
SLD-Сплошная
 62
     7
370
    35
100
AcDbCircle
 10
-365.9684812842
 20
116.6066017178
 30
0.0
 40
5.00000000000003
100
AcDbArc
 50
135.0
 51
225.0
  0
LINE
  5
91
330
1F
100
AcDbEntity
  8
0
  6
SLD-Сплошная
 62
     7
370
    35
100
AcDbLine
 10
-24.4359059711
 20
465.2102448428
 30
0.0
 11
-369.5040151902
 21
120.1421356237
 31
0.0
  0
ARC
  5
92
330
1F
100
AcDbEntity
  8
0
  6
SLD-Сплошная
 62
     7
370
    35
100
AcDbCircle
 10
-20.9003720652
 20
461.6747109368
 30
0.0
 40
4.99999999999999
100
AcDbArc
 50
45.0
 51
135.0
  0
LINE
  5
93
330
1F
100
AcDbEntity
  8
0
  6
SLD-Сплошная
 62
     7
370
    35
100
AcDbLine
 10
-17.3648381593
 20
465.2102448428
 30
0.0
 11
0.3128313704
 21
447.5325753131
 31
0.0
  0
LINE
  5
94
330
1F
100
AcDbEntity
  8
0
  6
SLD-Сплошная
 62
     7
370
    35
100
AcDbLine
 10
132.5417994523
 20
315.3036072312
 30
0.0
 11
134.0974343709
 21
316.8592421498
 31
0.0
  0
ARC
  5
95
330
1F
100
AcDbEntity
  8
0
  6
SLD-Сплошная
 62
     7
370
    35
100
AcDbCircle
 10
134.4829938538
 20
313.355720095
 30
0.0
 40
2.750000000008077
100
AcDbArc
 50
134.9013995798
 51
314.7041987395
  0
ARC
  5
96
330
1F
100
AcDbEntity
  8
0
  6
SLD-Сплошная
 62
     7
370
    35
100
AcDbCircle
 10
-432.4365187158
 20
-249.6747109368
 30
0.0
 40
799.0000000000003
100
AcDbArc
 50
0.3944016807
 51
44.6055983193
  0
ARC
  5
97
330
1F
100
AcDbEntity
  8
0
  6
SLD-Сплошная
 62
     7
370
    35
100
AcDbCircle
 10
366.5587488061
 20
-246.9247150089
 30
0.0
 40
2.750000000008056
100
AcDbArc
 50
90.2958012605
 51
270.0986004202
  0
LINE
  5
98
330
1F
100
AcDbEntity
  8
0
  6
SLD-Сплошная
 62
     7
370
    35
100
AcDbLine
 10
368.7634812842
 20
-249.6747109368
 30
0.0
 11
366.5634812842
 21
-249.6747109368
 31
0.0
  0
LINE
  5
99
330
1F
100
AcDbEntity
  8
0
  6
SLD-Сплошная
 62
     7
370
    35
100
AcDbLine
 10
366.5634812842
 20
-436.6747109368
 30
0.0
 11
366.5634812842
 21
-461.6747109368
 31
0.0
  0
ARC
  5
9A
330
1F
100
AcDbEntity
  8
0
  6
SLD-Сплошная
 62
     7
370
    35
100
AcDbCircle
 10
361.5634812842
 20
-461.6747109368
 30
0.0
 40
5.0
100
AcDbArc
 50
270.0
 51
0.0
  0
LINE
  5
9B
330
1F
100
AcDbEntity
  8
0
  6
SLD-Сплошная
 62
     7
370
    35
100
AcDbLine
 10
-126.4365187158
 20
-466.6747109368
 30
0.0
 11
361.5634812842
 21
-466.6747109368
 31
0.0
  0
LINE
  5
9C
330
1F
100
AcDbEntity
  8
0
  6
SLD-Сплошная
 62
     7
370
    35
100
AcDbLine
 10
0.3128313704
 20
447.5325753131
 30
0.0
 11
1.868466289
 21
449.0882102317
 31
0.0
  0
LINE
  5
9D
330
1F
100
AcDbEntity
  8
0
  6
SLD-Сплошная
 62
     7
370
    35
100
AcDbLine
 10
368.7634812842
 20
-436.6747109368
 30
0.0
 11
366.5634812842
 21
-436.6747109368
 31
0.0
  0
LINE
  5
9E
330
1F
100
AcDbEntity
  8
0
  6
SLD-Сплошная
 62
     7
370
    35
100
AcDbLine
 10
-353.3819805791
 20
93.8377633636
 30
0.0
 11
-351.8263456605
 21
95.3933982822
 31
0.0
  0
LINE
  5
9F
330
1F
100
AcDbEntity
  8
0
  6
SLD-Сплошная
 62
     7
370
    35
100
AcDbLine
 10
-131.4365187158
 20
-436.6747109368
 30
0.0
 11
-133.6365187158
 21
-436.6747109368
 31
0.0
  0
LINE
  5
A0
330
1F
100
AcDbEntity
  8
0
  6
SLD-Сплошная
 62
     7
370
    35
100
AcDbLine
 10
134.0974343709
 20
316.8592421498
 30
0.0
 11
135.6530692895
 21
318.4148770684
 31
0.0
  0
LINE
  5
A1
330
1F
100
AcDbEntity
  8
0
  6
SLD-Сплошная
 62
     7
370
    35
100
AcDbLine
 10
3.4241012076
 20
450.6438451503
 30
0.0
 11
135.6530692895
 21
318.4148770684
 31
0.0
  0
LINE
  5
A2
330
1F
100
AcDbEntity
  8
0
  6
SLD-Сплошная
 62
     7
370
    35
100
AcDbLine
 10
3.4241012076
 20
450.6438451503
 30
0.0
 11
1.868466289
 21
449.0882102317
 31
0.0
  0
ARC
  5
A3
330
1F
100
AcDbEntity
  8
0
  6
SLD-Сплошная
 62
     7
370
    18
100
AcDbCircle
 10
117.5634812842
 20
-451.6747109368
 30
0.0
 40
2.256500000000033
100
AcDbArc
 50
255.0
 51
195.0
  0
LINE
  5
A4
330
1F
100
AcDbEntity
  8
0
  6
SLD-Сплошная
 62
     7
370
    35
100
AcDbLine
 10
608.1645688053
 20
-37.1452604982
 30
0.0
 11
607.3160406679
 21
-37.7452604982
 31
0.0
  0
ARC
  5
A5
330
1F
100
AcDbEntity
  8
0
  6
SLD-Сплошная
 62
     7
370
    35
100
AcDbCircle
 10
591.8866486348
 20
273.3240041032
 30
0.0
 40
0.2999999999999944
100
AcDbArc
 50
0.0
 51
45.0
  0
ARC
  5
A6
330
1F
100
AcDbEntity
  8
0
  6
SLD-Сплошная
 62
     7
370
    35
100
AcDbCircle
 10
591.8866486348
 20
290.8151729277
 30
0.0
 40
0.2999999999999944
100
AcDbArc
 50
315.0
 51
0.0
  0
LINE
  5
A7
330
1F
100
AcDbEntity
  8
0
  6
SLD-Сплошная
 62
     7
370
    35
100
AcDbLine
 10
592.0987806691
 20
273.5361361375
 30
0.0
 11
591.625988463
 21
274.0089283437
 31
0.0
  0
LINE
  5
A8
330
1F
100
AcDbEntity
  8
0
  6
SLD-Сплошная
 62
     7
370
    35
100
AcDbLine
 10
591.625988463
 20
290.1302486872
 30
0.0
 11
592.0987806691
 21
290.6030408934
 31
0.0
  0
ARC
  5
A9
330
1F
100
AcDbEntity
  8
0
  6
SLD-Сплошная
 62
     7
370
    35
100
AcDbCircle
 10
592.6866486348
 20
289.0695885154
 30
0.0
 40
1.500000000000012
100
AcDbArc
 50
135.0
 51
180.0
  0
ARC
  5
AA
330
1F
100
AcDbEntity
  8
0
  6
SLD-Сплошная
 62
     7
370
    35
100
AcDbCircle
 10
592.6866486348
 20
275.0695885154
 30
0.0
 40
1.5
100
AcDbArc
 50
180.0
 51
225.0
  0
LINE
  5
AB
330
1F
100
AcDbEntity
  8
0
  6
SLD-Сплошная
 62
     7
370
    35
100
AcDbLine
 10
593.9866486347
 20
278.8195885154
 30
0.0
 11
593.3866486348
 21
278.8195885154
 31
0.0
  0
LINE
  5
AC
330
1F
100
AcDbEntity
  8
0
  6
SLD-Сплошная
 62
     7
370
    35
100
AcDbLine
 10
593.3866486348
 20
285.3195885154
 30
0.0
 11
593.9866486347
 21
285.3195885154
 31
0.0
  0
LINE
  5
AD
330
1F
100
AcDbEntity
  8
0
  6
SLD-Сплошная
 62
     7
370
    35
100
AcDbLine
 10
592.1866486348
 20
466.6747109368
 30
0.0
 11
593.3866486348
 21
466.6747109368
 31
0.0
  0
LINE
  5
AE
330
1F
100
AcDbEntity
  8
0
  6
SLD-Сплошная
 62
     7
370
    35
100
AcDbLine
 10
607.3160406679
 20
448.4422660116
 30
0.0
 11
608.1645688053
 21
447.8422660116
 31
0.0
  0
LINE
  5
AF
330
1F
100
AcDbEntity
  8
0
  6
SLD-Сплошная
 62
     7
370
    35
100
AcDbLine
 10
604.053362353
 20
433.0388663302
 30
0.0
 11
604.0984911047
 21
433.042076163
 31
0.0
  0
ARC
  5
B0
330
1F
100
AcDbEntity
  8
0
  6
SLD-Сплошная
 62
     7
370
    35
100
AcDbCircle
 10
591.8866486347
 20
-460.4202953491
 30
0.0
 40
0.3000000000000748
100
AcDbArc
 50
0.0
 51
45.0
  0
ARC
  5
B1
330
1F
100
AcDbEntity
  8
0
  6
SLD-Сплошная
 62
     7
370
    35
100
AcDbCircle
 10
591.8866486347
 20
-442.9291265246
 30
0.0
 40
0.3000000000000346
100
AcDbArc
 50
315.0
 51
0.0
  0
LINE
  5
B2
330
1F
100
AcDbEntity
  8
0
  6
SLD-Сплошная
 62
     7
370
    35
100
AcDbLine
 10
592.0987806691
 20
-460.2081633147
 30
0.0
 11
591.625988463
 21
-459.7353711086
 31
0.0
  0
LINE
  5
B3
330
1F
100
AcDbEntity
  8
0
  6
SLD-Сплошная
 62
     7
370
    35
100
AcDbLine
 10
591.625988463
 20
-443.6140507651
 30
0.0
 11
592.0987806691
 21
-443.1412585589
 31
0.0
  0
ARC
  5
B4
330
1F
100
AcDbEntity
  8
0
  6
SLD-Сплошная
 62
     7
370
    35
100
AcDbCircle
 10
592.6866486347
 20
-444.6747109368
 30
0.0
 40
1.5
100
AcDbArc
 50
135.0
 51
180.0
  0
ARC
  5
B5
330
1F
100
AcDbEntity
  8
0
  6
SLD-Сплошная
 62
     7
370
    35
100
AcDbCircle
 10
592.6866486347
 20
-458.6747109368
 30
0.0
 40
1.5
100
AcDbArc
 50
180.0
 51
225.0
  0
LINE
  5
B6
330
1F
100
AcDbEntity
  8
0
  6
SLD-Сплошная
 62
     7
370
    35
100
AcDbLine
 10
593.3866486348
 20
-448.4247109368
 30
0.0
 11
593.9866486349
 21
-448.4247109368
 31
0.0
  0
LINE
  5
B7
330
1F
100
AcDbEntity
  8
0
  6
SLD-Сплошная
 62
     7
370
    35
100
AcDbLine
 10
593.9866486349
 20
-454.9247109368
 30
0.0
 11
593.3866486348
 21
-454.9247109368
 31
0.0
  0
LINE
  5
B8
330
1F
100
AcDbEntity
  8
0
  6
SLD-Сплошная
 62
     7
370
    35
100
AcDbLine
 10
592.1866486348
 20
120.1421356237
 30
0.0
 11
592.1866486348
 21
113.0710678119
 31
0.0
  0
LINE
  5
B9
330
1F
100
AcDbEntity
  8
0
  6
SLD-Сплошная
 62
     7
370
    35
100
AcDbLine
 10
593.3866486348
 20
113.0710678119
 30
0.0
 11
593.3866486348
 21
120.1421356237
 31
0.0
  0
LINE
  5
BA
330
1F
100
AcDbEntity
  8
0
  6
SLD-Сплошная
 62
     7
370
    35
100
AcDbLine
 10
593.3866486348
 20
95.3933982822
 30
0.0
 11
592.1866486348
 21
95.3933982822
 31
0.0
  0
LINE
  5
BB
330
1F
100
AcDbEntity
  8
0
  6
SLD-Сплошная
 62
     7
370
    35
100
AcDbLine
 10
592.1866486348
 20
95.3933982822
 30
0.0
 11
592.1866486348
 21
113.0710678119
 31
0.0
  0
LINE
  5
BC
330
1F
100
AcDbEntity
  8
0
  6
SLD-Сплошная
 62
     7
370
    35
100
AcDbLine
 10
593.3866486348
 20
95.3933982822
 30
0.0
 11
593.3866486348
 21
113.0710678119
 31
0.0
  0
LINE
  5
BD
330
1F
100
AcDbEntity
  8
0
  6
SLD-Сплошная
 62
     7
370
    35
100
AcDbLine
 10
592.1866486348
 20
465.2102448428
 30
0.0
 11
592.1866486348
 21
120.1421356237
 31
0.0
  0
LINE
  5
BE
330
1F
100
AcDbEntity
  8
0
  6
SLD-Сплошная
 62
     7
370
    35
100
AcDbLine
 10
593.3866486348
 20
465.2102448428
 30
0.0
 11
593.3866486348
 21
120.1421356237
 31
0.0
  0
SPLINE
  5
BF
330
1F
100
AcDbEntity
  8
0
  6
SLD-Сплошная
 62
     7
370
    35
100
AcDbSpline
210
0.0
220
0.0
230
1.0
 70
     8
 71
     3
 72
    10
 73
     6
 74
     0
 42
0.000000001
 43
0.00000001
 40
0.0
 40
0.0
 40
0.0
 40
0.0
 40
0.5
 40
0.5
 40
1.0
 40
1.0
 40
1.0
 40
1.0
 10
592.395363339349
 20
93.17640760755502
 30
0.0
 10
592.5459989997441
 20
92.94963209923112
 30
0.0
 10
592.7754499887336
 20
92.74928178648123
 30
0.0
 10
593.3402287734294
 20
92.44662159543104
 30
0.0
 10
593.6750492380494
 20
92.34458359158442
 30
0.0
 10
594.0245405361704
 20
92.30334527765521
 30
0.0
  0
ARC
  5
C0
330
1F
100
AcDbEntity
  8
0
  6
SLD-Сплошная
 62
     7
370
    35
100
AcDbCircle
 10
593.4711180165
 20
93.8961797335
 30
0.0
 40
1.294341546360675
100
AcDbArc
 50
199.887514256
 51
213.7859165644
  0
SPLINE
  5
C1
330
1F
100
AcDbEntity
  8
0
  6
SLD-Сплошная
 62
     7
370
    35
100
AcDbSpline
210
0.0
220
0.0
230
1.0
 70
     8
 71
     3
 72
     8
 73
     4
 74
     0
 42
0.000000001
 43
0.00000001
 40
0.0
 40
0.0
 40
0.0
 40
0.0
 40
1.0
 40
1.0
 40
1.0
 40
1.0
 10
592.1866486348084
 20
93.83776336359223
 30
0.0
 10
592.1866486348084
 20
93.70915359432213
 30
0.0
 10
592.2093187369413
 20
93.58055191229408
 30
0.0
 10
592.2539680497498
 20
93.45587756776169
 30
0.0
  0
ARC
  5
C2
330
1F
100
AcDbEntity
  8
0
  6
SLD-Сплошная
 62
     7
370
    35
100
AcDbCircle
 10
594.1116486348
 20
-38.0022959886
 30
0.0
 40
1.963892817849254
100
AcDbArc
 50
191.421753659
 51
278.0494669755
  0
SPLINE
  5
C3
330
1F
100
AcDbEntity
  8
0
  6
SLD-Сплошная
 62
     7
370
    35
100
AcDbSpline
210
0.0
220
0.0
230
1.0
 70
     8
 71
     3
 72
     8
 73
     4
 74
     0
 42
0.000000001
 43
0.00000001
 40
0.0
 40
0.0
 40
0.0
 40
0.0
 40
1.0
 40
1.0
 40
1.0
 40
1.0
 10
594.2049740747711
 20
92.28744172692532
 30
0.0
 10
594.2653942287021
 20
92.28390155673638
 30
0.0
 10
594.3260214081608
 20
92.28212844498185
 30
0.0
 10
594.3866486348084
 20
92.28212844498185
 30
0.0
  0
ARC
  5
C4
330
1F
100
AcDbEntity
  8
0
  6
SLD-Сплошная
 62
     7
370
    35
100
AcDbCircle
 10
594.3846156304
 20
95.3570677981
 30
0.0
 40
3.074878096007162
100
AcDbArc
 50
263.2751064114
 51
266.6507397119
  0
LINE
  5
C5
330
1F
100
AcDbEntity
  8
0
  6
SLD-Сплошная
 62
     7
370
    35
100
AcDbLine
 10
592.1866486348
 20
93.8377633636
 30
0.0
 11
592.1866486348
 21
-38.3912047183
 31
0.0
  0
ARC
  5
C6
330
1F
100
AcDbEntity
  8
0
  6
SLD-Сплошная
 62
     7
370
    35
100
AcDbCircle
 10
594.2616486348
 20
94.0145400589
 30
0.0
 40
0.892678553583862
100
AcDbArc
 50
191.421753659
 51
278.0494669744
  0
LINE
  5
C7
330
1F
100
AcDbEntity
  8
0
  6
SLD-Сплошная
 62
     7
370
    35
100
AcDbLine
 10
599.7724350724
 20
93.1306565824
 30
0.0
 11
594.3866486348
 21
93.1306565824
 31
0.0
  0
LINE
  5
C8
330
1F
100
AcDbEntity
  8
0
  6
SLD-Сплошная
 62
     7
370
    35
100
AcDbLine
 10
599.7724350724
 20
92.282128445
 30
0.0
 11
594.3866486348
 21
92.282128445
 31
0.0
  0
LINE
  5
C9
330
1F
100
AcDbEntity
  8
0
  6
SLD-Сплошная
 62
     7
370
    35
100
AcDbLine
 10
594.3866486348
 20
-39.9468396369
 30
0.0
 11
599.7724350724
 21
-39.9468396369
 31
0.0
  0
LINE
  5
CA
330
1F
100
AcDbEntity
  8
0
  6
SLD-Сплошная
 62
     7
370
    35
100
AcDbLine
 10
599.7724350724
 20
78.2484430084
 30
0.0
 11
599.7724350724
 21
78.0315426341
 31
0.0
  0
SPLINE
  5
CB
330
1F
100
AcDbEntity
  8
0
  6
SLD-Сплошная
 62
     7
370
    35
100
AcDbSpline
210
0.0
220
0.0
230
1.0
 70
     8
 71
     3
 72
    16
 73
    12
 74
     0
 42
0.000000001
 43
0.00000001
 40
0.0
 40
0.0
 40
0.0
 40
0.0
 40
0.1249999999999966
 40
0.1249999999999966
 40
0.2499999999999932
 40
0.2499999999999932
 40
0.4999999999999954
 40
0.4999999999999954
 40
0.7499999999999977
 40
0.7499999999999977
 40
1.0
 40
1.0
 40
1.0
 40
1.0
 10
599.7724350724354
 20
78.24844300842898
 30
0.0
 10
599.7882111250606
 20
78.33089258068732
 30
0.0
 10
599.8044468422373
 20
78.41326561097145
 30
0.0
 10
599.867072145742
 20
78.57378645121655
 30
0.0
 10
599.9111700811652
 20
78.6531767382036
 30
0.0
 10
600.0653189436292
 20
78.88701850151902
 30
0.0
 10
600.2003983749502
 20
79.03588803664807
 30
0.0
 10
600.5077402600335
 20
79.34130332701794
 30
0.0
 10
600.6744806199994
 20
79.49313437446726
 30
0.0
 10
601.0124357274547
 20
79.81836696386551
 30
0.0
 10
601.1773769226676
 20
79.98490411065457
 30
0.0
 10
601.3280699910457
 20
80.16398084911636
 30
0.0
  0
SPLINE
  5
CC
330
1F
100
AcDbEntity
  8
0
  6
SLD-Сплошная
 62
     7
370
    35
100
AcDbSpline
210
0.0
220
0.0
230
1.0
 70
     8
 71
     3
 72
     8
 73
     4
 74
     0
 42
0.000000001
 43
0.00000001
 40
0.0
 40
0.0
 40
0.0
 40
0.0
 40
1.0
 40
1.0
 40
1.0
 40
1.0
 10
600.7936783782969
 20
92.45989143018313
 30
0.0
 10
600.9917851682874
 20
92.53330726376629
 30
0.0
 10
601.1699148942614
 20
92.62522364462161
 30
0.0
 10
601.3280699910489
 20
92.73705618604222
 30
0.0
  0
SPLINE
  5
CD
330
1F
100
AcDbEntity
  8
0
  6
SLD-Сплошная
 62
     7
370
    35
100
AcDbSpline
210
0.0
220
0.0
230
1.0
 70
     8
 71
     3
 72
    19
 73
    15
 74
     0
 42
0.000000001
 43
0.00000001
 40
0.3853654066100267
 40
0.3853654066100267
 40
0.3853654066100267
 40
0.3853654066100267
 40
0.4210526315789523
 40
0.4736842105263486
 40
0.5263157894737178
 40
0.578947368421062
 40
0.6315789473684252
 40
0.6842105263157859
 40
0.7368421052631714
 40
0.789473684210509
 40
0.842105263157901
 40
0.8947368421052961
 40
0.947368421052658
 40
0.9999999999999999
 40
0.9999999999999999
 40
0.9999999999999999
 40
0.9999999999999999
 10
600.7936783782715
 20
92.45989143017368
 30
0.0
 10
600.7754727649107
 20
92.45314466897764
 30
0.0
 10
600.7300865465007
 20
92.43689425550473
 30
0.0
 10
600.6564167211288
 20
92.41274862876902
 30
0.0
 10
600.5723803890231
 20
92.38813495696118
 30
0.0
 10
600.4869773688333
 20
92.36599796630706
 30
0.0
 10
600.4003535637576
 20
92.34637539248469
 30
0.0
 10
600.3126569708365
 20
92.32930109330006
 30
0.0
 10
600.2240374177667
 20
92.31480299303607
 30
0.0
 10
600.1346463096912
 20
92.30291051596845
 30
0.0
 10
600.044636369786
 20
92.29362660900786
 30
0.0
 10
599.9541613785321
 20
92.28703196378547
 30
0.0
 10
599.8633759109322
 20
92.28289589740335
 30
0.0
 10
599.8027486852676
 20
92.28238426245572
 30
0.0
 10
599.7724350724354
 20
92.28212844498191
 30
0.0
  0
ARC
  5
CE
330
1F
100
AcDbEntity
  8
0
  6
SLD-Сплошная
 62
     7
370
    35
100
AcDbCircle
 10
599.7940404851
 20
94.367551261
 30
0.0
 40
1.2370833601544
100
AcDbArc
 50
268.9992898287
 51
303.6506100471
  0
LINE
  5
CF
330
1F
100
AcDbEntity
  8
0
  6
SLD-Сплошная
 62
     7
370
    35
100
AcDbLine
 10
601.3280699911
 20
92.737056186
 30
0.0
 11
603.7928932189
 21
94.4799494049
 31
0.0
  0
SPLINE
  5
D0
330
1F
100
AcDbEntity
  8
0
  6
SLD-Сплошная
 62
     7
370
    35
100
AcDbSpline
210
0.0
220
0.0
230
1.0
 70
     8
 71
     3
 72
    14
 73
    10
 74
     0
 42
0.000000001
 43
0.00000001
 40
0.0
 40
0.0
 40
0.0
 40
0.0
 40
0.25
 40
0.25
 40
0.5
 40
0.5
 40
0.75
 40
0.75
 40
1.0
 40
1.0
 40
1.0
 40
1.0
 10
603.79289321887
 20
94.47994940488525
 30
0.0
 10
603.8867738275927
 20
94.54633301993643
 30
0.0
 10
603.99750833115
 20
94.59811207242136
 30
0.0
 10
604.2410298632868
 20
94.66647588736105
 30
0.0
 10
604.3727725365279
 20
94.68222790971642
 30
0.0
 10
604.6344728260772
 20
94.67113820955497
 30
0.0
 10
604.7661355104682
 20
94.64386941052095
 30
0.0
 10
605.0055062429358
 20
94.54836875883981
 30
0.0
 10
605.1155384814973
 20
94.47943509189466
 30
0.0
 10
605.2071067812301
 20
94.39403554867542
 30
0.0
  0
ARC
  5
D1
330
1F
100
AcDbEntity
  8
0
  6
SLD-Сплошная
 62
     7
370
    35
100
AcDbCircle
 10
599.7250405324
 20
88.1900802063
 30
0.0
 40
8.279016381618401
100
AcDbArc
 50
5.5801962512
 51
48.5348819782
  0
ARC
  5
D2
330
1F
100
AcDbEntity
  8
0
  6
SLD-Сплошная
 62
     7
370
    35
100
AcDbCircle
 10
600.57356867
 20
88.7900802063
 30
0.0
 40
8.279016381488606
100
AcDbArc
 50
5.580196251
 51
48.5348819787
  0
SPLINE
  5
D3
330
1F
100
AcDbEntity
  8
0
  6
SLD-Сплошная
 62
     7
370
    35
100
AcDbSpline
210
0.0
220
0.0
230
1.0
 70
     8
 71
     3
 72
    10
 73
     6
 74
     0
 42
0.000000001
 43
0.00000001
 40
0.0
 40
0.0
 40
0.0
 40
0.0
 40
0.5
 40
0.5
 40
1.0
 40
1.0
 40
1.0
 40
1.0
 10
606.0556349186444
 20
94.99403554867753
 30
0.0
 10
605.921202400312
 20
95.11941164163723
 30
0.0
 10
605.7709908109384
 20
95.22315406432146
 30
0.0
 10
605.4383106629608
 20
95.38807450604054
 30
0.0
 10
605.257692209345
 20
95.44760875374492
 30
0.0
 10
605.0694092874566
 20
95.48328312673998
 30
0.0
  0
ARC
  5
D4
330
1F
100
AcDbEntity
  8
0
  6
SLD-Сплошная
 62
     7
370
    35
100
AcDbCircle
 10
603.9905728336
 20
78.7736273165
 30
0.0
 40
3.003665149844986
100
AcDbArc
 50
93.7735231058
 51
152.4265286421
  0
LINE
  5
D5
330
1F
100
AcDbEntity
  8
0
  6
SLD-Сплошная
 62
     7
370
    35
100
AcDbLine
 10
602.9443650814
 20
95.0806565824
 30
0.0
 11
600.4795418536
 21
93.3377633636
 31
0.0
  0
LINE
  5
D6
330
1F
100
AcDbEntity
  8
0
  6
SLD-Сплошная
 62
     7
370
    35
100
AcDbLine
 10
592.1866486348
 20
93.8377633636
 30
0.0
 11
592.1866486348
 21
95.3933982822
 31
0.0
  0
LINE
  5
D7
330
1F
100
AcDbEntity
  8
0
  6
SLD-Сплошная
 62
     7
370
    35
100
AcDbLine
 10
593.3866486348
 20
93.8377633636
 30
0.0
 11
593.3866486348
 21
95.3933982822
 31
0.0
  0
LWPOLYLINE
  5
D8
330
1F
100
AcDbEntity
  8
0
  6
SLD-Сплошная
 62
     7
370
    35
100
AcDbPolyline
 90
        9
 70
   128
 43
0.0
 10
607.9648232279
 20
-36.1627775935
 10
607.9146781901
 20
-36.7206698786
 10
607.7656655069
 20
-37.1918210217
 10
607.5220121192
 20
-37.5628662003
 10
607.1906295762
 20
-37.8232802291
 10
606.7809179803
 20
-37.9656761213
 10
606.3044993404
 20
-37.98601463
 10
605.7748878987
 20
-37.8837188264
 10
605.2071067812
 20
-37.6616904658
  0
LINE
  5
D9
330
1F
100
AcDbEntity
  8
0
  6
SLD-Сплошная
 62
     7
370
    35
100
AcDbLine
 10
607.9648232279
 20
88.9951226765
 30
0.0
 11
607.9648232279
 21
-36.1627775935
 31
0.0
  0
SPLINE
  5
DA
330
1F
100
AcDbEntity
  8
0
  6
SLD-Сплошная
 62
     7
370
    35
100
AcDbSpline
210
0.0
220
0.0
230
1.0
 70
     8
 71
     3
 72
     8
 73
     4
 74
     0
 42
0.000000001
 43
0.00000001
 40
0.0
 40
0.0
 40
0.0
 40
0.0
 40
1.0
 40
1.0
 40
1.0
 40
1.0
 10
603.7928932188598
 20
81.77078048276576
 30
0.0
 10
603.8281904021351
 20
81.74642252886805
 30
0.0
 10
603.8662622664311
 20
81.72019949415909
 30
0.0
 10
603.9027751901904
 20
81.68798455677867
 30
0.0
  0
SPLINE
  5
DB
330
1F
100
AcDbEntity
  8
0
  6
SLD-Сплошная
 62
     7
370
    35
100
AcDbSpline
210
0.0
220
0.0
230
1.0
 70
     8
 71
     3
 72
     9
 73
     5
 74
     0
 42
0.000000001
 43
0.00000001
 40
0.0
 40
0.0
 40
0.0
 40
0.0
 40
0.5177941431426752
 40
1.0
 40
1.0
 40
1.0
 40
1.0
 10
604.0104858406015
 20
81.5725680868593
 30
0.0
 10
603.9926039203754
 20
81.59430322842987
 30
0.0
 10
603.958069114482
 20
81.63627964291526
 30
0.0
 10
603.9207639560685
 20
81.67116340324066
 30
0.0
 10
603.9027751901905
 20
81.68798455677879
 30
0.0
  0
SPLINE
  5
DC
330
1F
100
AcDbEntity
  8
0
  6
SLD-Сплошная
 62
     7
370
    35
100
AcDbSpline
210
0.0
220
0.0
230
1.0
 70
     8
 71
     3
 72
    18
 73
    14
 74
     0
 42
0.000000001
 43
0.00000001
 40
0.0
 40
0.0
 40
0.0
 40
0.0
 40
0.2500000000000119
 40
0.2500000000000119
 40
0.5000000000000238
 40
0.5000000000000238
 40
0.6250000000000178
 40
0.6250000000000178
 40
0.7500000000000119
 40
0.7500000000000119
 40
0.8750000000000059
 40
0.8750000000000059
 40
1.0
 40
1.0
 40
1.0
 40
1.0
 10
604.0104858406015
 20
81.5725680868593
 30
0.0
 10
604.132738262842
 20
81.41885894014372
 30
0.0
 10
604.2254778886131
 20
81.2228700092012
 30
0.0
 10
604.3348599199184
 20
80.79900206081142
 30
0.0
 10
604.3515484903994
 20
80.57690211865042
 30
0.0
 10
604.3205442643994
 20
80.23903473856942
 30
0.0
 10
604.3005748425767
 20
80.12472977346258
 30
0.0
 10
604.2424150382143
 20
79.89637688694474
 30
0.0
 10
604.2041831646852
 20
79.78174049498138
 30
0.0
 10
604.1103257807481
 20
79.54673437908328
 30
0.0
 10
604.054036225144
 20
79.42536648832804
 30
0.0
 10
603.9293735825693
 20
79.17382088383451
 30
0.0
 10
603.8603187575488
 20
79.04434128424099
 30
0.0
 10
603.7928932188598
 20
78.90626143458384
 30
0.0
  0
SPLINE
  5
DD
330
1F
100
AcDbEntity
  8
0
  6
SLD-Сплошная
 62
     7
370
    35
100
AcDbSpline
210
0.0
220
0.0
230
1.0
 70
     8
 71
     3
 72
    14
 73
    10
 74
     0
 42
0.000000001
 43
0.00000001
 40
0.0
 40
0.0
 40
0.0
 40
0.0
 40
0.25
 40
0.25
 40
0.5
 40
0.5
 40
0.75
 40
0.75
 40
1.0
 40
1.0
 40
1.0
 40
1.0
 10
605.2071067812205
 20
-37.6616904657513
 30
0.0
 10
605.1155502462944
 20
-37.61759854331748
 30
0.0
 10
605.0070192271957
 20
-37.58245015405321
 30
0.0
 10
604.7662909581613
 20
-37.53598690808651
 30
0.0
 10
604.6352914196705
 20
-37.52528943239186
 30
0.0
 10
604.3735069180167
 20
-37.53492046338142
 30
0.0
 10
604.2411906674572
 20
-37.55556516173694
 30
0.0
 10
603.999022384472
 20
-37.62842152789256
 30
0.0
 10
603.8867743601686
 20
-37.68122033032825
 30
0.0
 10
603.7928932188598
 20
-37.74760432197316
 30
0.0
  0
ARC
  5
DE
330
1F
100
AcDbEntity
  8
0
  6
SLD-Сплошная
 62
     7
370
    35
100
AcDbCircle
 10
604.4971999423
 20
92.694121885
 30
0.0
 40
2.847252002727035
100
AcDbArc
 50
78.4063716776
 51
123.0506488577
  0
LINE
  5
DF
330
1F
100
AcDbEntity
  8
0
  6
SLD-Сплошная
 62
     7
370
    35
100
AcDbLine
 10
608.8133513653
 20
89.5951226765
 30
0.0
 11
608.8133513653
 21
-35.5627775935
 31
0.0
  0
SPLINE
  5
E0
330
1F
100
AcDbEntity
  8
0
  6
SLD-Сплошная
 62
     7
370
    35
100
AcDbSpline
210
0.0
220
0.0
230
1.0
 70
     8
 71
     3
 72
    10
 73
     6
 74
     0
 42
0.000000001
 43
0.00000001
 40
0.0
 40
0.0
 40
0.0
 40
0.0
 40
0.2565560513030941
 40
0.5898555227429625
 40
1.0
 40
1.0
 40
1.0
 40
1.0
 10
601.0588433439424
 20
76.99820087572795
 30
0.0
 10
601.0828031536452
 20
76.99877773000807
 30
0.0
 10
601.1378898530438
 20
77.00010399255841
 30
0.0
 10
601.229104209066
 20
77.00945108875234
 30
0.0
 10
601.2928838986725
 20
77.02093768487067
 30
0.0
 10
601.3280699910457
 20
77.02727463060633
 30
0.0
  0
LINE
  5
E1
330
1F
100
AcDbEntity
  8
0
  6
SLD-Сплошная
 62
     7
370
    35
100
AcDbLine
 10
601.3280699911
 20
77.0272746306
 30
0.0
 11
600.4795418536
 21
77.6272746306
 31
0.0
  0
SPLINE
  5
E2
330
1F
100
AcDbEntity
  8
0
  6
SLD-Сплошная
 62
     7
370
    35
100
AcDbSpline
210
0.0
220
0.0
230
1.0
 70
     8
 71
     3
 72
     9
 73
     5
 74
     0
 42
0.000000001
 43
0.00000001
 40
0.0
 40
0.0
 40
0.0
 40
0.0
 40
0.5099081270945895
 40
1.0
 40
1.0
 40
1.0
 40
1.0
 10
600.4795418536219
 20
77.62727463060625
 30
0.0
 10
600.3648924907907
 20
77.68821176441887
 30
0.0
 10
600.1400493146594
 20
77.80771786870444
 30
0.0
 10
600.0167184062423
 20
78.09859998827451
 30
0.0
 10
599.956274930349
 20
78.24115895104927
 30
0.0
  0
SPLINE
  5
E3
330
1F
100
AcDbEntity
  8
0
  6
SLD-Сплошная
 62
     7
370
    35
100
AcDbSpline
210
0.0
220
0.0
230
1.0
 70
     8
 71
     3
 72
    14
 73
    10
 74
     0
 42
0.000000001
 43
0.00000001
 40
0.0
 40
0.0
 40
0.0
 40
0.0
 40
0.25
 40
0.25
 40
0.5
 40
0.5
 40
0.75
 40
0.75
 40
1.0
 40
1.0
 40
1.0
 40
1.0
 10
599.7724350724354
 20
78.03154263407124
 30
0.0
 10
599.7887020552943
 20
77.91139810155279
 30
0.0
 10
599.825644935017
 20
77.79491126668253
 30
0.0
 10
599.9439951908109
 20
77.57458008625196
 30
0.0
 10
600.023712629598
 20
77.47209699847102
 30
0.0
 10
600.2096560514082
 20
77.29462856775588
 30
0.0
 10
600.3175758161187
 20
77.2181163000123
 30
0.0
 10
600.5444999302754
 20
77.09915507201076
 30
0.0
 10
600.664262826269
 20
77.05587557673577
 30
0.0
 10
600.7860571273652
 20
77.02908238310319
 30
0.0
  0
SPLINE
  5
E4
330
1F
100
AcDbEntity
  8
0
  6
SLD-Сплошная
 62
     7
370
    35
100
AcDbSpline
210
0.0
220
0.0
230
1.0
 70
     8
 71
     3
 72
     8
 73
     4
 74
     0
 42
0.000000001
 43
0.00000001
 40
0.0
 40
0.0
 40
0.0
 40
0.0
 40
1.0
 40
1.0
 40
1.0
 40
1.0
 10
601.0588433439415
 20
76.998200875728
 30
0.0
 10
600.9689537523299
 20
76.99824100391295
 30
0.0
 10
600.8777662796373
 20
77.008907538693
 30
0.0
 10
600.7860571273652
 20
77.02908238310336
 30
0.0
  0
ARC
  5
E5
330
1F
100
AcDbEntity
  8
0
  6
SLD-Сплошная
 62
     7
370
    35
100
AcDbCircle
 10
599.7842114941
 20
-36.9921065018
 30
0.0
 40
2.954756603115397
100
AcDbArc
 50
269.7716424283
 51
289.9769026646
  0
SPLINE
  5
E6
330
1F
100
AcDbEntity
  8
0
  6
SLD-Сплошная
 62
     7
370
    35
100
AcDbSpline
210
0.0
220
0.0
230
1.0
 70
     8
 71
     3
 72
     8
 73
     4
 74
     0
 42
0.000000001
 43
0.00000001
 40
0.0
 40
0.0
 40
0.0
 40
0.0
 40
1.0
 40
1.0
 40
1.0
 40
1.0
 10
601.3280699910558
 20
-39.49049754079353
 30
0.0
 10
601.1699148975088
 20
-39.60233007991987
 30
0.0
 10
600.9917851730482
 20
-39.69566081172099
 30
0.0
 10
600.7936783881528
 20
-39.76907664450763
 30
0.0
  0
LINE
  5
E7
330
1F
100
AcDbEntity
  8
0
  6
SLD-Сплошная
 62
     7
370
    35
100
AcDbLine
 10
603.7928932189
 20
78.9062614346
 30
0.0
 11
602.9443650814
 21
79.5062614346
 31
0.0
  0
SPLINE
  5
E8
330
1F
100
AcDbEntity
  8
0
  6
SLD-Сплошная
 62
     7
370
    35
100
AcDbSpline
210
0.0
220
0.0
230
1.0
 70
     8
 71
     3
 72
    12
 73
     8
 74
     0
 42
0.000000001
 43
0.00000001
 40
0.0
 40
0.0
 40
0.0
 40
0.0
 40
0.0940368505181916
 40
0.3070743339000143
 40
0.5368812386884847
 40
0.8216162182922518
 40
0.9999999999999999
 40
0.9999999999999999
 40
0.9999999999999999
 40
0.9999999999999999
 10
604.0930310065014
 20
81.59329183547858
 30
0.0
 10
604.114671611415
 20
81.53399148619472
 30
0.0
 10
604.1853383160358
 20
81.34034808835611
 30
0.0
 10
604.0823977502832
 20
80.95770512599127
 30
0.0
 10
603.7747411509449
 20
80.46396681133555
 30
0.0
 10
603.3322495753243
 20
79.98545041478489
 30
0.0
 10
603.0522248298323
 20
79.63951038795302
 30
0.0
 10
602.9443650814361
 20
79.506261434584
 30
0.0
  0
ARC
  5
E9
330
1F
100
AcDbEntity
  8
0
  6
SLD-Сплошная
 62
     7
370
    35
100
AcDbCircle
 10
600.6666833025
 20
80.4510207345
 30
0.0
 40
3.487043122189261
100
AcDbArc
 50
280.9335133477
 51
333.7045645422
  0
LINE
  5
EA
330
1F
100
AcDbEntity
  8
0
  6
SLD-Сплошная
 62
     7
370
    35
100
AcDbLine
 10
603.7928932189
 20
-37.747604322
 30
0.0
 11
601.3280699911
 21
-39.4904975408
 31
0.0
  0
ARC
  5
EB
330
1F
100
AcDbEntity
  8
0
  6
SLD-Сплошная
 62
     7
370
    35
100
AcDbCircle
 10
599.8181551651
 20
81.0510207345
 30
0.0
 40
3.487043122189211
100
AcDbArc
 50
280.9335133477
 51
333.7045645422
  0
ARC
  5
EC
330
1F
100
AcDbEntity
  8
0
  6
SLD-Сплошная
 62
     7
370
    35
100
AcDbCircle
 10
606.994003141
 20
-35.74112017
 30
0.0
 40
1.828068389248777
100
AcDbArc
 50
309.816375375
 51
5.5985627458
  0
LINE
  5
ED
330
1F
100
AcDbEntity
  8
0
  6
SLD-Сплошная
 62
     7
370
    35
100
AcDbLine
 10
592.1866486348
 20
-40.7599849949
 30
0.0
 11
593.3866486348
 21
-40.7599849949
 31
0.0
  0
LINE
  5
EE
330
1F
100
AcDbEntity
  8
0
  6
SLD-Сплошная
 62
     7
370
    35
100
AcDbLine
 10
592.1866486348
 20
-40.7599849949
 30
0.0
 11
592.1866486348
 21
-38.3912047183
 31
0.0
  0
LINE
  5
EF
330
1F
100
AcDbEntity
  8
0
  6
SLD-Сплошная
 62
     7
370
    35
100
AcDbLine
 10
593.3866486348
 20
-40.7599849949
 30
0.0
 11
593.3866486348
 21
-39.7768453643
 31
0.0
  0
LINE
  5
F0
330
1F
100
AcDbEntity
  8
0
  6
SLD-Сплошная
 62
     7
370
    35
100
AcDbLine
 10
592.1866486348
 20
-244.1749978642
 30
0.0
 11
593.3866486348
 21
-244.1749978642
 31
0.0
  0
LINE
  5
F1
330
1F
100
AcDbEntity
  8
0
  6
SLD-Сплошная
 62
     7
370
    35
100
AcDbLine
 10
592.1866486348
 20
-40.7599849949
 30
0.0
 11
592.1866486348
 21
-244.1749978642
 31
0.0
  0
LINE
  5
F2
330
1F
100
AcDbEntity
  8
0
  6
SLD-Сплошная
 62
     7
370
    35
100
AcDbLine
 10
593.3866486348
 20
-40.7599849949
 30
0.0
 11
593.3866486348
 21
-244.1749978642
 31
0.0
  0
LINE
  5
F3
330
1F
100
AcDbEntity
  8
0
  6
SLD-Сплошная
 62
     7
370
    35
100
AcDbLine
 10
591.1866486348
 20
289.0695876723
 30
0.0
 11
591.1866486348
 21
275.0695885154
 31
0.0
  0
LINE
  5
F4
330
1F
100
AcDbEntity
  8
0
  6
SLD-Сплошная
 62
     7
370
    35
100
AcDbLine
 10
593.9866486347
 20
278.8195885154
 30
0.0
 11
593.9866486347
 21
285.3195885154
 31
0.0
  0
SPLINE
  5
F5
330
1F
100
AcDbEntity
  8
0
  6
SLD-Сплошная
 62
     7
370
    35
100
AcDbSpline
210
0.0
220
0.0
230
1.0
 70
     8
 71
     3
 72
     9
 73
     5
 74
     0
 42
0.000000001
 43
0.00000001
 40
0.8577255279202609
 40
0.8577255279202609
 40
0.8577255279202609
 40
0.8577255279202609
 40
0.9673841945286347
 40
1.0
 40
1.0
 40
1.0
 40
1.0
 10
601.3280699910457
 20
-418.89269717453
 30
0.0
 10
601.2599425762459
 20
-418.8462035204079
 30
0.0
 10
601.1715520069038
 20
-418.7858812467575
 30
0.0
 10
601.0800360756774
 20
-418.720177821246
 30
0.0
 10
601.0588433439444
 20
-418.7047486843329
 30
0.0
  0
SPLINE
  5
F6
330
1F
100
AcDbEntity
  8
0
  6
SLD-Сплошная
 62
     7
370
    35
100
AcDbSpline
210
0.0
220
0.0
230
1.0
 70
     8
 71
     3
 72
     8
 73
     4
 74
     0
 42
0.000000001
 43
0.00000001
 40
0.0
 40
0.0
 40
0.0
 40
0.0
 40
1.0
 40
1.0
 40
1.0
 40
1.0
 10
601.0588433439444
 20
-418.7047486843329
 30
0.0
 10
600.9689537523299
 20
-418.6398996892113
 30
0.0
 10
600.877766279634
 20
-418.5693346399343
 30
0.0
 10
600.7860571273587
 20
-418.4931951165366
 30
0.0
  0
SPLINE
  5
F7
330
1F
100
AcDbEntity
  8
0
  6
SLD-Сплошная
 62
     7
370
    35
100
AcDbSpline
210
0.0
220
0.0
230
1.0
 70
     8
 71
     3
 72
    20
 73
    16
 74
     0
 42
0.000000001
 43
0.00000001
 40
0.0
 40
0.0
 40
0.0
 40
0.0
 40
0.062812759113692
 40
0.1303108571532838
 40
0.1844963557928342
 40
0.254537580366099
 40
0.3094421422092811
 40
0.3730100996045906
 40
0.4370728363250578
 40
0.4863974398432191
 40
0.5667266283591725
 40
0.5957158256756345
 40
0.6976810152265995
 40
0.7022984967006566
 40
0.7213092523393831
 40
0.7213092523393831
 40
0.7213092523393831
 40
0.7213092523393831
 10
600.7860571273549
 20
-418.4931951165335
 30
0.0
 10
600.7437969844992
 20
-418.4581689134286
 30
0.0
 10
600.6563824625957
 20
-418.3832525429672
 30
0.0
 10
600.5347482535043
 20
-418.2700998449178
 30
0.0
 10
600.411843681558
 20
-418.1451464906414
 30
0.0
 10
600.3018041704864
 20
-418.0213690098024
 30
0.0
 10
600.193068297917
 20
-417.88365943143
 30
0.0
 10
600.0956260889049
 20
-417.7435644663994
 30
0.0
 10
600.0109963556145
 20
-417.6008041965479
 30
0.0
 10
599.9295711596505
 20
-417.4382612293248
 30
0.0
 10
599.8745904390356
 20
-417.2996433622807
 30
0.0
 10
599.8159136009908
 20
-417.1100604105425
 30
0.0
 10
599.7898353718759
 20
-416.9849294637312
 30
0.0
 10
599.7762466265239
 20
-416.8678946708453
 30
0.0
 10
599.7741344681926
 20
-416.8458329964152
 30
0.0
 10
599.7724350724353
 20
-416.8280826623734
 30
0.0
  0
SPLINE
  5
F8
330
1F
100
AcDbEntity
  8
0
  6
SLD-Сплошная
 62
     7
370
    35
100
AcDbSpline
210
0.0
220
0.0
230
1.0
 70
    24
 71
     3
 72
    19
 73
    15
 74
     0
 42
0.000000001
 43
0.00000001
 40
0.3853654070179406
 40
0.3853654070179406
 40
0.3853654070179406
 40
0.3853654070179406
 40
0.4210526315789303
 40
0.4736842105263119
 40
0.5263157894736592
 40
0.5789473684210253
 40
0.6315789473684204
 40
0.6842105263157978
 40
0.7368421052631278
 40
0.7894736842105051
 40
0.8421052631578846
 40
0.8947368421052674
 40
0.9473684210525971
 40
0.9999999999999999
 40
0.9999999999999999
 40
0.9999999999999999
 40
0.9999999999999999
 10
600.7936783776471
 20
-436.674710936832
 30
0.0
 10
600.7754727644913
 20
-436.6747109368319
 30
0.0
 10
600.7300865462875
 20
-436.6747109368318
 30
0.0
 10
600.6564167211287
 20
-436.6747109368321
 30
0.0
 10
600.572380389023
 20
-436.6747109368319
 30
0.0
 10
600.4869773688333
 20
-436.674710936832
 30
0.0
 10
600.4003535637576
 20
-436.674710936832
 30
0.0
 10
600.3126569708365
 20
-436.674710936832
 30
0.0
 10
600.2240374177666
 20
-436.6747109368319
 30
0.0
 10
600.1346463096912
 20
-436.6747109368321
 30
0.0
 10
600.0446363697858
 20
-436.6747109368318
 30
0.0
 10
599.954161378532
 20
-436.674710936832
 30
0.0
 10
599.8633759109322
 20
-436.674710936832
 30
0.0
 10
599.8027486852676
 20
-436.674710936832
 30
0.0
 10
599.7724350724353
 20
-436.674710936832
 30
0.0
  0
SPLINE
  5
F9
330
1F
100
AcDbEntity
  8
0
  6
SLD-Сплошная
 62
     7
370
    35
100
AcDbSpline
210
0.0
220
0.0
230
1.0
 70
     8
 71
     3
 72
     8
 73
     4
 74
     0
 42
0.000000001
 43
0.00000001
 40
0.0
 40
0.0
 40
0.0
 40
0.0
 40
1.0
 40
1.0
 40
1.0
 40
1.0
 10
601.3280699910456
 20
-436.6737108368119
 30
0.0
 10
601.1699148939146
 20
-436.6737108368119
 30
0.0
 10
600.9917851645057
 20
-436.6747109368937
 30
0.0
 10
600.7936783743861
 20
-436.674710936832
 30
0.0
  0
LINE
  5
FA
330
1F
100
AcDbEntity
  8
0
  6
SLD-Сплошная
 62
     7
370
    35
100
AcDbLine
 10
599.7724350724
 20
-249.6747109368
 30
0.0
 11
601.328069991
 21
-249.6747109368
 31
0.0
  0
SPLINE
  5
FB
330
1F
100
AcDbEntity
  8
0
  6
SLD-Сплошная
 62
     7
370
    35
100
AcDbSpline
210
0.0
220
0.0
230
1.0
 70
     8
 71
     3
 72
     9
 73
     5
 74
     0
 42
0.000000001
 43
0.00000001
 40
0.0
 40
0.0
 40
0.0
 40
0.0
 40
0.0066027594853136
 40
0.026023009485369
 40
0.026023009485369
 40
0.026023009485369
 40
0.026023009485369
 10
601.2807857249744
 20
-414.4886721929817
 30
0.0
 10
601.2848156195382
 20
-414.4859373536848
 30
0.0
 10
601.3006521937122
 20
-414.4752079926698
 30
0.0
 10
601.3163529512759
 20
-414.4646235643419
 30
0.0
 10
601.3280699910457
 20
-414.4567246991339
 30
0.0
  0
SPLINE
  5
FC
330
1F
100
AcDbEntity
  8
0
  6
SLD-Сплошная
 62
     7
370
    35
100
AcDbSpline
210
0.0
220
0.0
230
1.0
 70
     8
 71
     3
 72
    16
 73
    12
 74
     0
 42
0.000000001
 43
0.00000001
 40
0.0
 40
0.0
 40
0.0
 40
0.0
 40
0.1250000000000102
 40
0.1250000000000102
 40
0.2500000000000205
 40
0.2500000000000205
 40
0.5000000000000137
 40
0.5000000000000137
 40
0.7500000000000068
 40
0.7500000000000068
 40
1.0
 40
1.0
 40
1.0
 40
1.0
 10
599.7724350724353
 20
-416.5213392112905
 30
0.0
 10
599.7877965784727
 20
-416.4078018349133
 30
0.0
 10
599.8034814781885
 20
-416.2943476491176
 30
0.0
 10
599.8631535346217
 20
-416.074721298278
 30
0.0
 10
599.905268314334
 20
-415.967199371867
 30
0.0
 10
600.0530097096516
 20
-415.656626131671
 30
0.0
 10
600.1817280090601
 20
-415.4693096717788
 30
0.0
 10
600.4781803937612
 20
-415.1259741054507
 30
0.0
 10
600.6394456905492
 20
-414.9764609489293
 30
0.0
 10
600.9676478184555
 20
-414.707174740098
 30
0.0
 10
601.1303005728678
 20
-414.5904052075641
 30
0.0
 10
601.2807857249743
 20
-414.4886721929817
 30
0.0
  0
LINE
  5
FD
330
1F
100
AcDbEntity
  8
0
  6
SLD-Сплошная
 62
     7
370
    35
100
AcDbLine
 10
599.7724350724
 20
-416.8280826624
 30
0.0
 11
599.7724350724
 21
-416.5213392113
 31
0.0
  0
LINE
  5
FE
330
1F
100
AcDbEntity
  8
0
  6
SLD-Сплошная
 62
     7
370
    35
100
AcDbLine
 10
594.3866486348
 20
-249.6747109368
 30
0.0
 11
599.7724350724
 21
-249.6747109368
 31
0.0
  0
LINE
  5
FF
330
1F
100
AcDbEntity
  8
0
  6
SLD-Сплошная
 62
     7
370
    35
100
AcDbLine
 10
594.3866486348
 20
-436.6747109368
 30
0.0
 11
599.7724350724
 21
-436.6747109368
 31
0.0
  0
LINE
  5
100
330
1F
100
AcDbEntity
  8
0
  6
SLD-Сплошная
 62
     7
370
    35
100
AcDbLine
 10
592.1866486348
 20
-249.6747109368
 30
0.0
 11
594.3866486348
 21
-249.6747109368
 31
0.0
  0
LINE
  5
101
330
1F
100
AcDbEntity
  8
0
  6
SLD-Сплошная
 62
     7
370
    35
100
AcDbLine
 10
592.1866486348
 20
-436.6747109368
 30
0.0
 11
594.3866486348
 21
-436.6747109368
 31
0.0
  0
LINE
  5
102
330
1F
100
AcDbEntity
  8
0
  6
SLD-Сплошная
 62
     7
370
    35
100
AcDbLine
 10
592.1866486348
 20
-436.6747109368
 30
0.0
 11
592.1866486348
 21
-249.6747109368
 31
0.0
  0
ARC
  5
103
330
1F
100
AcDbEntity
  8
0
  6
SLD-Сплошная
 62
     7
370
    35
100
AcDbCircle
 10
603.9071389813
 20
-432.1191102608
 30
0.0
 40
4.92629787125249
100
AcDbArc
 50
295.8570855408
 51
5.1756649097
  0
ARC
  5
104
330
1F
100
AcDbEntity
  8
0
  6
SLD-Сплошная
 62
     7
370
    35
100
AcDbCircle
 10
603.0586108438
 20
-432.1191102608
 30
0.0
 40
4.926297871247392
100
AcDbArc
 50
295.8570855408
 51
5.1756649097
  0
SPLINE
  5
105
330
1F
100
AcDbEntity
  8
0
  6
SLD-Сплошная
 62
     7
370
    35
100
AcDbSpline
210
0.0
220
0.0
230
1.0
 70
     8
 71
     3
 72
    14
 73
    10
 74
     0
 42
0.000000001
 43
0.00000001
 40
0.0
 40
0.0
 40
0.0
 40
0.0
 40
0.25
 40
0.25
 40
0.5
 40
0.5
 40
0.75
 40
0.75
 40
1.0
 40
1.0
 40
1.0
 40
1.0
 10
605.2071067812295
 20
-436.5522102961348
 30
0.0
 10
605.1155502463024
 20
-436.5814114363642
 30
0.0
 10
605.0070192271955
 20
-436.6048008923104
 30
0.0
 10
604.7662909581613
 20
-436.6400205330298
 30
0.0
 10
604.6352914196704
 20
-436.6516178245946
 30
0.0
 10
604.3735069180167
 20
-436.6663898045946
 30
0.0
 10
604.2411906674572
 20
-436.6697770167078
 30
0.0
 10
603.999022384472
 20
-436.6733572695539
 30
0.0
 10
603.8867743601687
 20
-436.6737108368119
 30
0.0
 10
603.79289321886
 20
-436.6737108368119
 30
0.0
  0
LINE
  5
106
330
1F
100
AcDbEntity
  8
0
  6
SLD-Сплошная
 62
     7
370
    35
100
AcDbLine
 10
603.7928932189
 20
-436.6737108368
 30
0.0
 11
601.328069991
 21
-436.6737108368
 31
0.0
  0
LINE
  5
107
330
1F
100
AcDbEntity
  8
0
  6
SLD-Сплошная
 62
     7
370
    35
100
AcDbLine
 10
601.2573593129
 20
-436.6747109368
 30
0.0
 11
603.7221825407
 21
-436.6747109368
 31
0.0
  0
LINE
  5
108
330
1F
100
AcDbEntity
  8
0
  6
SLD-Сплошная
 62
     7
370
    35
100
AcDbLine
 10
603.7221825407
 20
-436.6747109368
 30
0.0
 11
605.0694258985
 21
-436.6747109368
 31
0.0
  0
SPLINE
  5
109
330
1F
100
AcDbEntity
  8
0
  6
SLD-Сплошная
 62
     7
370
    35
100
AcDbSpline
210
0.0
220
0.0
230
1.0
 70
     8
 71
     3
 72
    10
 73
     6
 74
     0
 42
0.000000001
 43
0.00000001
 40
0.0
 40
0.0
 40
0.0
 40
0.0
 40
0.5
 40
0.5
 40
1.0
 40
1.0
 40
1.0
 40
1.0
 10
605.0694182907812
 20
-436.6747109368104
 30
0.0
 10
605.2576700240573
 20
-436.6747104407142
 30
0.0
 10
605.4349305263646
 20
-436.6661998748985
 30
0.0
 10
605.7679590161815
 20
-436.6264111174087
 30
0.0
 10
605.921182914124
 20
-436.5950925638135
 30
0.0
 10
606.0556349186561
 20
-436.5522102961351
 30
0.0
  0
LINE
  5
10A
330
1F
100
AcDbEntity
  8
0
  6
SLD-Сплошная
 62
     7
370
    35
100
AcDbLine
 10
600.7936783777
 20
-436.6747109368
 30
0.0
 11
601.2573593129
 21
-436.6747109368
 31
0.0
  0
LINE
  5
10B
330
1F
100
AcDbEntity
  8
0
  6
SLD-Сплошная
 62
     7
370
    35
100
AcDbLine
 10
607.9648232279
 20
-431.6747109368
 30
0.0
 11
607.9648232279
 21
-254.6747109368
 31
0.0
  0
LINE
  5
10C
330
1F
100
AcDbEntity
  8
0
  6
SLD-Сплошная
 62
     7
370
    35
100
AcDbLine
 10
608.8133513653
 20
-431.6747109368
 30
0.0
 11
608.8133513653
 21
-254.6747109368
 31
0.0
  0
SPLINE
  5
10D
330
1F
100
AcDbEntity
  8
0
  6
SLD-Сплошная
 62
     7
370
    35
100
AcDbSpline
210
0.0
220
0.0
230
1.0
 70
     8
 71
     3
 72
    10
 73
     6
 74
     0
 42
0.000000001
 43
0.00000001
 40
0.0
 40
0.0
 40
0.0
 40
0.0
 40
0.5
 40
0.5
 40
1.0
 40
1.0
 40
1.0
 40
1.0
 10
606.0556349186535
 20
-249.7972115775292
 30
0.0
 10
605.9212015095507
 20
-249.754335240697
 30
0.0
 10
605.7709888239195
 20
-249.7235379256589
 30
0.0
 10
605.4383060397599
 20
-249.6834632563467
 30
0.0
 10
605.2576862429777
 20
-249.674710936832
 30
0.0
 10
605.0694018992717
 20
-249.674710936832
 30
0.0
  0
LINE
  5
10E
330
1F
100
AcDbEntity
  8
0
  6
SLD-Сплошная
 62
     7
370
    35
100
AcDbLine
 10
605.0694018993
 20
-249.6747109368
 30
0.0
 11
603.7928932189
 21
-249.6747109368
 31
0.0
  0
SPLINE
  5
10F
330
1F
100
AcDbEntity
  8
0
  6
SLD-Сплошная
 62
     7
370
    35
100
AcDbSpline
210
0.0
220
0.0
230
1.0
 70
     8
 71
     3
 72
    14
 73
    10
 74
     0
 42
0.000000001
 43
0.00000001
 40
0.0
 40
0.0
 40
0.0
 40
0.0
 40
0.25
 40
0.25
 40
0.5
 40
0.5
 40
0.75
 40
0.75
 40
1.0
 40
1.0
 40
1.0
 40
1.0
 10
603.7928932188602
 20
-249.675711036852
 30
0.0
 10
603.8867738275842
 20
-249.675711036852
 30
0.0
 10
603.9975083311499
 20
-249.6760490152935
 30
0.0
 10
604.2410298632867
 20
-249.6796357310164
 30
0.0
 10
604.3727725365277
 20
-249.6830067203226
 30
0.0
 10
604.634472826077
 20
-249.6977418617415
 30
0.0
 10
604.7661355104678
 20
-249.7094125626187
 30
0.0
 10
605.0055062429354
 20
-249.7443658961726
 30
0.0
 10
605.1155384814996
 20
-249.7680066850198
 30
0.0
 10
605.2071067812321
 20
-249.7972115775289
 30
0.0
  0
ARC
  5
110
330
1F
100
AcDbEntity
  8
0
  6
SLD-Сплошная
 62
     7
370
    35
100
AcDbCircle
 10
603.0586108438
 20
-254.2303116129
 30
0.0
 40
4.926297871252464
100
AcDbArc
 50
354.8243350903
 51
64.1429144592
  0
ARC
  5
111
330
1F
100
AcDbEntity
  8
0
  6
SLD-Сплошная
 62
     7
370
    35
100
AcDbCircle
 10
603.9071389813
 20
-254.2303116129
 30
0.0
 40
4.926297871247415
100
AcDbArc
 50
354.8243350903
 51
64.1429144592
  0
ARC
  5
112
330
1F
100
AcDbEntity
  8
0
  6
SLD-Сплошная
 62
     7
370
    35
100
AcDbCircle
 10
602.4874209307
 20
-417.8608071975
 30
0.0
 40
1.552060413127649
100
AcDbArc
 50
221.6709478884
 51
327.2587992148
  0
LINE
  5
113
330
1F
100
AcDbEntity
  8
0
  6
SLD-Сплошная
 62
     7
370
    35
100
AcDbLine
 10
602.9443650814
 20
-418.7002317806
 30
0.0
 11
603.7928932189
 21
-418.7002317806
 31
0.0
  0
ARC
  5
114
330
1F
100
AcDbEntity
  8
0
  6
SLD-Сплошная
 62
     7
370
    35
100
AcDbCircle
 10
601.4781136052
 20
-417.6476300275
 30
0.0
 40
1.804955357425335
100
AcDbArc
 50
288.5852032861
 51
324.3259541543
  0
LINE
  5
115
330
1F
100
AcDbEntity
  8
0
  6
SLD-Сплошная
 62
     7
370
    35
100
AcDbLine
 10
601.328069991
 20
-249.6747109368
 30
0.0
 11
603.7928932189
 21
-249.6747109368
 31
0.0
  0
ARC
  5
116
330
1F
100
AcDbEntity
  8
0
  6
SLD-Сплошная
 62
     7
370
    35
100
AcDbCircle
 10
602.4874209307
 20
-415.4886146762
 30
0.0
 40
1.552060413127653
100
AcDbArc
 50
32.7412007852
 51
138.3290521116
  0
ARC
  5
117
330
1F
100
AcDbEntity
  8
0
  6
SLD-Сплошная
 62
     7
370
    35
100
AcDbCircle
 10
601.4781136052
 20
-415.7017918462
 30
0.0
 40
1.804955357420932
100
AcDbArc
 50
35.6740458456
 51
71.4147967136
  0
LINE
  5
118
330
1F
100
AcDbEntity
  8
0
  6
SLD-Сплошная
 62
     7
370
    35
100
AcDbLine
 10
602.9443650814
 20
-414.649190093
 30
0.0
 11
603.7928932189
 21
-414.649190093
 31
0.0
  0
SPLINE
  5
119
330
1F
100
AcDbEntity
  8
0
  6
SLD-Сплошная
 62
     7
370
    35
100
AcDbSpline
210
0.0
220
0.0
230
1.0
 70
     8
 71
     3
 72
    24
 73
    20
 74
     0
 42
0.000000001
 43
0.00000001
 40
0.0
 40
0.0
 40
0.0
 40
0.0
 40
0.0625000000000051
 40
0.0625000000000051
 40
0.1250000000000103
 40
0.1250000000000103
 40
0.2500000000000037
 40
0.2500000000000037
 40
0.374999999999997
 40
0.374999999999997
 40
0.4999999999999904
 40
0.4999999999999904
 40
0.749999999999977
 40
0.749999999999977
 40
0.8749999999999796
 40
0.8749999999999796
 40
0.9374999999999899
 40
0.9374999999999899
 40
1.0
 40
1.0
 40
1.0
 40
1.0
 10
603.7928932188597
 20
-414.649190093024
 30
0.0
 10
603.8302047111207
 20
-414.7229147454063
 30
0.0
 10
603.8704919811374
 20
-414.7963008205736
 30
0.0
 10
603.9464214973891
 20
-414.9489365932378
 30
0.0
 10
603.9823249867478
 20
-415.0278733709348
 30
0.0
 10
604.084980783112
 20
-415.2701337257221
 30
0.0
 10
604.1459596078796
 20
-415.4405577297285
 30
0.0
 10
604.2420957992048
 20
-415.7845369561808
 30
0.0
 10
604.2783866183613
 20
-415.9592616820548
 30
0.0
 10
604.327021292148
 20
-416.3137549261868
 30
0.0
 10
604.3393863152836
 20
-416.4948223211387
 30
0.0
 10
604.3394073636506
 20
-417.0339453457783
 30
0.0
 10
604.2911115343368
 20
-417.3893345218199
 30
0.0
 10
604.1458189228387
 20
-417.9094388983058
 30
0.0
 10
604.0861392073576
 20
-418.0770186798974
 30
0.0
 10
603.9833751617201
 20
-418.3188479516842
 30
0.0
 10
603.9470151091366
 20
-418.3979039019925
 30
0.0
 10
603.871316221567
 20
-418.5528270806229
 30
0.0
 10
603.8312949349717
 20
-418.6274164109438
 30
0.0
 10
603.7928932188597
 20
-418.7002317806399
 30
0.0
  0
SPLINE
  5
11A
330
1F
100
AcDbEntity
  8
0
  6
SLD-Сплошная
 62
     7
370
    35
100
AcDbSpline
210
0.0
220
0.0
230
1.0
 70
     8
 71
     3
 72
    24
 73
    20
 74
     0
 42
0.000000001
 43
0.00000001
 40
0.3226325185847406
 40
0.3226325185847406
 40
0.3226325185847406
 40
0.3226325185847406
 40
0.3408359661209556
 40
0.3634031851059789
 40
0.4089555282536129
 40
0.4228752463279404
 40
0.477609375913605
 40
0.4811514453540191
 40
0.5391262538516391
 40
0.5463954727465588
 40
0.5977220700428024
 40
0.6149080216630324
 40
0.6578042743298614
 40
0.6827490245531165
 40
0.7201096726871993
 40
0.7495399669493868
 40
0.7852013938951833
 40
0.8149338077594342
 40
0.8534517169177935
 40
0.8534517169177935
 40
0.8534517169177935
 40
0.8534517169177935
 10
603.9323247110594
 20
-417.5473914721694
 30
0.0
 10
603.9460960040425
 20
-417.51977921689
 30
0.0
 10
603.9757368961722
 20
-417.457250187767
 30
0.0
 10
604.0323258690604
 20
-417.3217876183626
 30
0.0
 10
604.0753963623279
 20
-417.1885224617503
 30
0.0
 10
604.1205701678703
 20
-416.9990117317728
 30
0.0
 10
604.1379440422667
 20
-416.8766333431522
 30
0.0
 10
604.149543715629
 20
-416.6785026299722
 30
0.0
 10
604.1461346043649
 20
-416.5606955284511
 30
0.0
 10
604.1221777504803
 20
-416.3631562940851
 30
0.0
 10
604.0961196586961
 20
-416.236163885052
 30
0.0
 10
604.0413700495279
 20
-416.0543077292726
 30
0.0
 10
603.9891444319863
 20
-415.9191196521325
 30
0.0
 10
603.9119033843887
 20
-415.7581650167205
 30
0.0
 10
603.8354977322053
 20
-415.6231503138054
 30
0.0
 10
603.7412267044089
 20
-415.4792626804882
 30
0.0
 10
603.6473562768077
 20
-415.3524816144237
 30
0.0
 10
603.5391308331756
 20
-415.2208151696206
 30
0.0
 10
603.4652690759863
 20
-415.1390919621907
 30
0.0
 10
603.4230688492697
 20
-415.094393318802
 30
0.0
  0
SPLINE
  5
11B
330
1F
100
AcDbEntity
  8
0
  6
SLD-Сплошная
 62
     7
370
    35
100
AcDbSpline
210
0.0
220
0.0
230
1.0
 70
     8
 71
     3
 72
    18
 73
    14
 74
     0
 42
0.000000001
 43
0.00000001
 40
0.0
 40
0.0
 40
0.0
 40
0.0
 40
0.0205701374665411
 40
0.0265544759777553
 40
0.0809508065720842
 40
0.1003441519411311
 40
0.1434010481765392
 40
0.1707617406798612
 40
0.2077190758468702
 40
0.2378795944484826
 40
0.2736373449872276
 40
0.3019469741432328
 40
0.3226325185847406
 40
0.3226325185847406
 40
0.3226325185847406
 40
0.3226325185847406
 10
602.9443650814359
 20
-418.7002317806401
 30
0.0
 10
602.9659003049651
 20
-418.6819823254409
 30
0.0
 10
602.9937006333203
 20
-418.6584236729777
 30
0.0
 10
603.0794662829007
 20
-418.584806265438
 30
0.0
 10
603.1669266766356
 20
-418.5070542052186
 30
0.0
 10
603.2963754273617
 20
-418.3846556193305
 30
0.0
 10
603.3958373481508
 20
-418.2852253590328
 30
0.0
 10
603.5125835219234
 20
-418.1586859138559
 30
0.0
 10
603.6124836539768
 20
-418.040955908467
 30
0.0
 10
603.7160921217651
 20
-417.9055349059818
 30
0.0
 10
603.804899913582
 20
-417.7750192815579
 30
0.0
 10
603.8779670038272
 20
-417.6521522690979
 30
0.0
 10
603.9166756592821
 20
-417.5787687446655
 30
0.0
 10
603.9323247110594
 20
-417.5473914721694
 30
0.0
  0
SPLINE
  5
11C
330
1F
100
AcDbEntity
  8
0
  6
SLD-Сплошная
 62
     7
370
    35
100
AcDbSpline
210
0.0
220
0.0
230
1.0
 70
     8
 71
     3
 72
     9
 73
     5
 74
     0
 42
0.000000001
 43
0.00000001
 40
0.9250461524477263
 40
0.9250461524477263
 40
0.9250461524477263
 40
0.9250461524477263
 40
0.9403746966207454
 40
1.0
 40
1.0
 40
1.0
 40
1.0
 10
603.1861054183753
 20
-414.8612483242068
 30
0.0
 10
603.169340144217
 20
-414.8458553709406
 30
0.0
 10
603.0877901272025
 20
-414.7719923678517
 30
0.0
 10
603.0079095592145
 20
-414.7035976505202
 30
0.0
 10
602.9443650814359
 20
-414.649190093024
 30
0.0
  0
SPLINE
  5
11D
330
1F
100
AcDbEntity
  8
0
  6
SLD-Сплошная
 62
     7
370
    35
100
AcDbSpline
210
0.0
220
0.0
230
1.0
 70
     8
 71
     3
 72
     8
 73
     4
 74
     0
 42
0.000000001
 43
0.00000001
 40
0.0
 40
0.0
 40
0.0
 40
0.0
 40
1.0
 40
1.0
 40
1.0
 40
1.0
 10
603.186105418365
 20
-414.8612483241973
 30
0.0
 10
603.2654525294257
 20
-414.933447680577
 30
0.0
 10
603.3447067366236
 20
-415.0112355233215
 30
0.0
 10
603.4230688492697
 20
-415.094393318802
 30
0.0
  0
LINE
  5
11E
330
1F
100
AcDbEntity
  8
0
  6
SLD-Сплошная
 62
     7
370
    35
100
AcDbLine
 10
592.1866486348
 20
-249.6747109368
 30
0.0
 11
592.1866486348
 21
-244.1749978642
 31
0.0
  0
LINE
  5
11F
330
1F
100
AcDbEntity
  8
0
  6
SLD-Сплошная
 62
     7
370
    35
100
AcDbLine
 10
593.3866486348
 20
-249.6747109368
 30
0.0
 11
593.3866486348
 21
-244.1749978642
 31
0.0
  0
LINE
  5
120
330
1F
100
AcDbEntity
  8
0
  6
SLD-Сплошная
 62
     7
370
    35
100
AcDbLine
 10
592.1866486348
 20
-461.6747109368
 30
0.0
 11
592.1866486348
 21
-436.6747109368
 31
0.0
  0
LINE
  5
121
330
1F
100
AcDbEntity
  8
0
  6
SLD-Сплошная
 62
     7
370
    35
100
AcDbLine
 10
593.3866486348
 20
-461.6747109368
 30
0.0
 11
593.3866486348
 21
-436.6747109368
 31
0.0
  0
LINE
  5
122
330
1F
100
AcDbEntity
  8
0
  6
SLD-Сплошная
 62
     7
370
    35
100
AcDbLine
 10
592.1866486348
 20
-466.6747109368
 30
0.0
 11
593.3866486348
 21
-466.6747109368
 31
0.0
  0
LINE
  5
123
330
1F
100
AcDbEntity
  8
0
  6
SLD-Сплошная
 62
     7
370
    35
100
AcDbLine
 10
592.1866486348
 20
-461.6747109368
 30
0.0
 11
592.1866486348
 21
-466.6747109368
 31
0.0
  0
LINE
  5
124
330
1F
100
AcDbEntity
  8
0
  6
SLD-Сплошная
 62
     7
370
    35
100
AcDbLine
 10
593.3866486348
 20
-466.6747109368
 30
0.0
 11
593.3866486348
 21
-461.6747109368
 31
0.0
  0
LINE
  5
125
330
1F
100
AcDbEntity
  8
0
  6
SLD-Сплошная
 62
     7
370
    35
100
AcDbLine
 10
592.1866486348
 20
466.6747109368
 30
0.0
 11
592.1866486348
 21
465.2102448428
 31
0.0
  0
LINE
  5
126
330
1F
100
AcDbEntity
  8
0
  6
SLD-Сплошная
 62
     7
370
    35
100
AcDbLine
 10
593.3866486348
 20
465.2102448428
 30
0.0
 11
593.3866486348
 21
466.6747109368
 31
0.0
  0
SPLINE
  5
127
330
1F
100
AcDbEntity
  8
0
  6
SLD-Сплошная
 62
     7
370
    35
100
AcDbSpline
210
0.0
220
0.0
230
1.0
 70
     8
 71
     3
 72
    18
 73
    14
 74
     0
 42
0.000000001
 43
0.00000001
 40
0.0
 40
0.0
 40
0.0
 40
0.0
 40
0.0205701374666539
 40
0.0265544759778862
 40
0.0809508065721884
 40
0.1003441519412294
 40
0.1434010481766481
 40
0.1707617406799589
 40
0.2077190758469548
 40
0.2378795944485586
 40
0.2736373449873325
 40
0.3019469741433147
 40
0.3226325185330897
 40
0.3226325185330897
 40
0.3226325185330897
 40
0.3226325185330897
 10
602.9443650814359
 20
435.1354409132609
 30
0.0
 10
602.9659003049652
 20
435.1078018388549
 30
0.0
 10
602.9937006333205
 20
435.0721219053321
 30
0.0
 10
603.0794662829012
 20
434.9640199995915
 30
0.0
 10
603.1669266766361
 20
434.859420977113
 30
0.0
 10
603.2963754273621
 20
434.7091550882082
 30
0.0
 10
603.3958373481513
 20
434.5954519360932
 30
0.0
 10
603.5125835219238
 20
434.4615177987919
 30
0.0
 10
603.6124836539773
 20
434.345070414679
 30
0.0
 10
603.7160921217657
 20
434.2193572948956
 30
0.0
 10
603.8048999135824
 20
434.1048140883781
 30
0.0
 10
603.8779670037829
 20
434.0019573454775
 30
0.0
 10
603.9166756592008
 20
433.9424457468179
 30
0.0
 10
603.9323247109423
 20
433.9173032962623
 30
0.0
  0
SPLINE
  5
128
330
1F
100
AcDbEntity
  8
0
  6
SLD-Сплошная
 62
     7
370
    35
100
AcDbSpline
210
0.0
220
0.0
230
1.0
 70
     8
 71
     3
 72
    24
 73
    20
 74
     0
 42
0.000000001
 43
0.00000001
 40
0.3226325185330897
 40
0.3226325185330897
 40
0.3226325185330897
 40
0.3226325185330897
 40
0.3408359661210433
 40
0.363403185106036
 40
0.4089555282536855
 40
0.4228752463279836
 40
0.4776093759136648
 40
0.481151445354047
 40
0.5391262538516575
 40
0.5463954727466122
 40
0.5977220700428031
 40
0.6149080216630751
 40
0.6578042743298914
 40
0.6827490245531758
 40
0.7201096726872183
 40
0.7495399669494135
 40
0.7852013938952324
 40
0.814933807759489
 40
0.8534517169178072
 40
0.8534517169178072
 40
0.8534517169178072
 40
0.8534517169178072
 10
603.9323247109423
 20
433.9173032962623
 30
0.0
 10
603.9460960039677
 20
433.895177734938
 30
0.0
 10
603.9757368961388
 20
433.8455932787193
 30
0.0
 10
604.0323258690609
 20
433.7404128065323
 30
0.0
 10
604.0753963623283
 20
433.640028078758
 30
0.0
 10
604.1205701678707
 20
433.5000794645633
 30
0.0
 10
604.1379440422669
 20
433.4115309738398
 30
0.0
 10
604.1495437156293
 20
433.2700879479155
 30
0.0
 10
604.1461346043653
 20
433.1871576083628
 30
0.0
 10
604.1221777504807
 20
433.0503314879479
 30
0.0
 10
604.0961196586964
 20
432.9637465044003
 30
0.0
 10
604.0413700495282
 20
432.8428996097367
 30
0.0
 10
603.9891444319866
 20
432.7554780378193
 30
0.0
 10
603.9119033843889
 20
432.6557595904904
 30
0.0
 10
603.8354977322056
 20
432.5761553741702
 30
0.0
 10
603.741226704409
 20
432.4971025459315
 30
0.0
 10
603.6473562768077
 20
432.4334470461358
 30
0.0
 10
603.539130833168
 20
432.3749972390819
 30
0.0
 10
603.4652690759707
 20
432.3442212894194
 30
0.0
 10
603.423068849246
 20
432.3292216721214
 30
0.0
  0
SPLINE
  5
129
330
1F
100
AcDbEntity
  8
0
  6
SLD-Сплошная
 62
     7
370
    35
100
AcDbSpline
210
0.0
220
0.0
230
1.0
 70
     8
 71
     3
 72
     8
 73
     4
 74
     0
 42
0.000000001
 43
0.00000001
 40
0.0
 40
0.0
 40
0.0
 40
0.0
 40
1.0
 40
1.0
 40
1.0
 40
1.0
 10
603.1861054183568
 20
432.2731355263269
 30
0.0
 10
603.2654525294124
 20
432.2824109564293
 30
0.0
 10
603.3447067366046
 20
432.3015260921423
 30
0.0
 10
603.423068849246
 20
432.3292216721213
 30
0.0
  0
SPLINE
  5
12A
330
1F
100
AcDbEntity
  8
0
  6
SLD-Сплошная
 62
     7
370
    35
100
AcDbSpline
210
0.0
220
0.0
230
1.0
 70
     8
 71
     3
 72
     9
 73
     5
 74
     0
 42
0.000000001
 43
0.00000001
 40
0.9250461524337784
 40
0.9250461524337784
 40
0.9250461524337784
 40
0.9250461524337784
 40
0.9403746966207882
 40
1.0
 40
1.0
 40
1.0
 40
1.0
 10
603.1861054183652
 20
432.2731355263278
 30
0.0
 10
603.1693401442102
 20
432.2713133365224
 30
0.0
 10
603.0877901271992
 20
432.2649100840378
 30
0.0
 10
603.0079095592143
 20
432.2682583450163
 30
0.0
 10
602.9443650814359
 20
432.2709218650778
 30
0.0
  0
ARC
  5
12B
330
1F
100
AcDbEntity
  8
0
  6
SLD-Сплошная
 62
     7
370
    35
100
AcDbCircle
 10
604.4971995771
 20
318.0028825036
 30
0.0
 40
2.847250860791724
100
AcDbArc
 50
236.9493449578
 51
281.593488799
  0
SPLINE
  5
12C
330
1F
100
AcDbEntity
  8
0
  6
SLD-Сплошная
 62
     7
370
    35
100
AcDbSpline
210
0.0
220
0.0
230
1.0
 70
     8
 71
     3
 72
    10
 73
     6
 74
     0
 42
0.000000001
 43
0.00000001
 40
0.0
 40
0.0
 40
0.0
 40
0.0
 40
0.5
 40
0.5
 40
1.0
 40
1.0
 40
1.0
 40
1.0
 10
606.0556349186787
 20
315.7029699647345
 30
0.0
 10
605.9212015095738
 20
315.5775930410115
 30
0.0
 10
605.77098882392
 20
315.4738500712357
 30
0.0
 10
605.4383060397596
 20
315.3089291083792
 30
0.0
 10
605.2576862429777
 20
315.2493949749849
 30
0.0
 10
605.069401899272
 20
315.2137209868507
 30
0.0
  0
SPLINE
  5
12D
330
1F
100
AcDbEntity
  8
0
  6
SLD-Сплошная
 62
     7
370
    35
100
AcDbSpline
210
0.0
220
0.0
230
1.0
 70
     8
 71
     3
 72
    10
 73
     6
 74
     0
 42
0.000000001
 43
0.00000001
 40
0.0
 40
0.0
 40
0.0
 40
0.0
 40
0.5
 40
0.5
 40
1.0
 40
1.0
 40
1.0
 40
1.0
 10
605.0694182904052
 20
447.442692174354
 30
0.0
 10
605.2576700237543
 20
447.4783607335368
 30
0.0
 10
605.4349305261321
 20
447.5245714849783
 30
0.0
 10
605.7679590160839
 20
447.6326331482986
 30
0.0
 10
605.9211829140838
 20
447.6939463972396
 30
0.0
 10
606.0556349186612
 20
447.7586959791423
 30
0.0
  0
ARC
  5
12E
330
1F
100
AcDbEntity
  8
0
  6
SLD-Сплошная
 62
     7
370
    35
100
AcDbCircle
 10
604.4972003872
 20
450.231853081
 30
0.0
 40
2.847253394321606
100
AcDbArc
 50
236.9493586811
 51
281.5937983706
  0
LWPOLYLINE
  5
12F
330
1F
100
AcDbEntity
  8
0
  6
SLD-Сплошная
 62
     7
370
    35
100
AcDbPolyline
 90
        9
 70
   128
 43
0.0
 10
606.0556349187
 20
447.7586959791
 10
606.6234160361
 20
447.9807243398
 10
607.1530274778
 20
448.0830201434
 10
607.6294461177
 20
448.0626816347
 10
608.0391577136
 20
447.9202857425
 10
608.3705402566
 20
447.6598717137
 10
608.6141936443
 20
447.2888265351
 10
608.7632063275
 20
446.817675392
 10
608.8133513653
 20
446.2597831069
  0
ARC
  5
130
330
1F
100
AcDbEntity
  8
0
  6
SLD-Сплошная
 62
     7
370
    35
100
AcDbCircle
 10
606.3325820659
 20
446.6085480164
 30
0.0
 40
2.080796123521469
100
AcDbArc
 50
61.7944758333
 51
122.7440317761
  0
SPLINE
  5
131
330
1F
100
AcDbEntity
  8
0
  6
SLD-Сплошная
 62
     7
370
    35
100
AcDbSpline
210
0.0
220
0.0
230
1.0
 70
     8
 71
     3
 72
    14
 73
    10
 74
     0
 42
0.000000001
 43
0.00000001
 40
0.0
 40
0.0
 40
0.0
 40
0.0
 40
0.25
 40
0.25
 40
0.5
 40
0.5
 40
0.75
 40
0.75
 40
1.0
 40
1.0
 40
1.0
 40
1.0
 10
605.2071067812549
 20
448.3586959791284
 30
0.0
 10
605.1155502463242
 20
448.3146040566925
 30
0.0
 10
605.007019227195
 20
448.2794556674546
 30
0.0
 10
604.7662909581602
 20
448.232992421488
 30
0.0
 10
604.6352914196688
 20
448.2222949457936
 30
0.0
 10
604.3735069180146
 20
448.2319259767838
 30
0.0
 10
604.2411906674547
 20
448.2525706751403
 30
0.0
 10
603.9990223844692
 20
448.3254270412972
 30
0.0
 10
603.886774360163
 20
448.3782258437354
 30
0.0
 10
603.7928932188547
 20
448.4446098353812
 30
0.0
  0
LINE
  5
132
330
1F
100
AcDbEntity
  8
0
  6
SLD-Сплошная
 62
     7
370
    35
100
AcDbLine
 10
603.7928932188
 20
448.4446098354
 30
0.0
 11
601.328069991
 21
450.1875030542
 31
0.0
  0
SPLINE
  5
133
330
1F
100
AcDbEntity
  8
0
  6
SLD-Сплошная
 62
     7
370
    35
100
AcDbSpline
210
0.0
220
0.0
230
1.0
 70
     8
 71
     3
 72
     8
 73
     4
 74
     0
 42
0.000000001
 43
0.00000001
 40
0.0
 40
0.0
 40
0.0
 40
0.0
 40
1.0
 40
1.0
 40
1.0
 40
1.0
 10
601.3280699910459
 20
450.1875030542021
 30
0.0
 10
601.1699148938064
 20
450.2993355959401
 30
0.0
 10
600.9917851642647
 20
450.3926663297359
 30
0.0
 10
600.7936783739879
 20
450.4660821631745
 30
0.0
  0
ARC
  5
134
330
1F
100
AcDbEntity
  8
0
  6
SLD-Сплошная
 62
     7
370
    35
100
AcDbCircle
 10
599.8181551651
 20
433.5906816133
 30
0.0
 40
3.487043122188272
100
AcDbArc
 50
26.2954354578
 51
79.0664866524
  0
LINE
  5
135
330
1F
100
AcDbEntity
  8
0
  6
SLD-Сплошная
 62
     7
370
    35
100
AcDbLine
 10
600.4795418536
 20
449.5882102317
 30
0.0
 11
602.9443650814
 21
447.8453170129
 31
0.0
  0
ARC
  5
136
330
1F
100
AcDbEntity
  8
0
  6
SLD-Сплошная
 62
     7
370
    35
100
AcDbCircle
 10
600.5735686696
 20
321.9069253072
 30
0.0
 40
8.279016381846606
100
AcDbArc
 50
311.4651180226
 51
354.4198037484
  0
LINE
  5
137
330
1F
100
AcDbEntity
  8
0
  6
SLD-Сплошная
 62
     7
370
    35
100
AcDbLine
 10
608.8133513653
 20
446.2597831069
 30
0.0
 11
608.8133513653
 21
321.1018828369
 31
0.0
  0
ARC
  5
138
330
1F
100
AcDbEntity
  8
0
  6
SLD-Сплошная
 62
     7
370
    35
100
AcDbCircle
 10
594.3720088386
 20
447.7036917989
 30
0.0
 40
2.940189798920512
100
AcDbArc
 50
89.7147116149
 51
109.5807411345
  0
ARC
  5
139
330
1F
100
AcDbEntity
  8
0
  6
SLD-Сплошная
 62
     7
370
    35
100
AcDbCircle
 10
594.2616486348
 20
448.9114335364
 30
0.0
 40
0.8926785535664418
100
AcDbArc
 50
81.9505330243
 51
168.578246341
  0
ARC
  5
13A
330
1F
100
AcDbEntity
  8
0
  6
SLD-Сплошная
 62
     7
370
    35
100
AcDbCircle
 10
594.2616486348
 20
316.6824654545
 30
0.0
 40
0.8926785535679961
100
AcDbArc
 50
81.9505330245
 51
168.578246341
  0
ARC
  5
13B
330
1F
100
AcDbEntity
  8
0
  6
SLD-Сплошная
 62
     7
370
    35
100
AcDbCircle
 10
599.7940404852
 20
448.5584223343
 30
0.0
 40
1.237083360009037
100
AcDbArc
 50
56.3493899507
 51
91.0007101733
  0
SPLINE
  5
13C
330
1F
100
AcDbEntity
  8
0
  6
SLD-Сплошная
 62
     7
370
    35
100
AcDbSpline
210
0.0
220
0.0
230
1.0
 70
     8
 71
     3
 72
    14
 73
    10
 74
     0
 42
0.000000001
 43
0.00000001
 40
0.0
 40
0.0
 40
0.0
 40
0.0
 40
0.2499999999999998
 40
0.2499999999999998
 40
0.4999999999999996
 40
0.4999999999999996
 40
0.7499999999999998
 40
0.7499999999999998
 40
1.0
 40
1.0
 40
1.0
 40
1.0
 10
599.7724350724353
 20
435.7616315763469
 30
0.0
 10
599.7797465377604
 20
435.8804194010021
 30
0.0
 10
599.7963703321631
 20
435.9984965391038
 30
0.0
 10
599.8530419050743
 20
436.2303838560416
 30
0.0
 10
599.892536216532
 20
436.3438182696987
 30
0.0
 10
599.992249407981
 20
436.5553982477584
 30
0.0
 10
600.0525726882529
 20
436.6542598275924
 30
0.0
 10
600.1928936304835
 20
436.8276944160054
 30
0.0
 10
600.2726260195061
 20
436.9038297811849
 30
0.0
 10
600.3571661049243
 20
436.9551523411192
 30
0.0
  0
SPLINE
  5
13D
330
1F
100
AcDbEntity
  8
0
  6
SLD-Сплошная
 62
     7
370
    35
100
AcDbSpline
210
0.0
220
0.0
230
1.0
 70
     8
 71
     3
 72
     8
 73
     4
 74
     0
 42
0.000000001
 43
0.00000001
 40
0.0
 40
0.0
 40
0.0
 40
0.0
 40
1.0
 40
1.0
 40
1.0
 40
1.0
 10
600.479541853622
 20
437.0144277172377
 30
0.0
 10
600.440624056263
 20
436.9984335649424
 30
0.0
 10
600.3984005093272
 20
436.9801849062135
 30
0.0
 10
600.3571661049247
 20
436.9551523411195
 30
0.0
  0
SPLINE
  5
13E
330
1F
100
AcDbEntity
  8
0
  6
SLD-Сплошная
 62
     7
370
    35
100
AcDbSpline
210
0.0
220
0.0
230
1.0
 70
     8
 71
     3
 72
    19
 73
    15
 74
     0
 42
0.000000001
 43
0.00000001
 40
0.0
 40
0.0
 40
0.0
 40
0.0
 40
0.0526315789475165
 40
0.1052631578948691
 40
0.1578947368422219
 40
0.2105263157895711
 40
0.2631578947369901
 40
0.315789473684275
 40
0.3684210526316896
 40
0.4210526315790386
 40
0.473684210526389
 40
0.526315789473811
 40
0.5789473684211048
 40
0.614634592721673
 40
0.614634592721673
 40
0.614634592721673
 40
0.614634592721673
 10
599.7724350724352
 20
450.6438451503242
 30
0.0
 10
599.8027486852675
 20
450.6435893328505
 30
0.0
 10
599.8633759109322
 20
450.6430776979026
 30
0.0
 10
599.9541613785321
 20
450.6389416315207
 30
0.0
 10
600.044636369786
 20
450.6323469862979
 30
0.0
 10
600.1346463096913
 20
450.6230630793378
 30
0.0
 10
600.2240374177668
 20
450.61117060227
 30
0.0
 10
600.3126569708367
 20
450.5966725020058
 30
0.0
 10
600.4003535637577
 20
450.5795982028217
 30
0.0
 10
600.4869773688334
 20
450.5599756289989
 30
0.0
 10
600.5723803890232
 20
450.537838638345
 30
0.0
 10
600.656416721129
 20
450.5132249665374
 30
0.0
 10
600.7300865461516
 20
450.4890793399156
 30
0.0
 10
600.7754727642238
 20
450.4728289265742
 30
0.0
 10
600.7936783772487
 20
450.4660821655112
 30
0.0
  0
LINE
  5
13F
330
1F
100
AcDbEntity
  8
0
  6
SLD-Сплошная
 62
     7
370
    35
100
AcDbLine
 10
594.3866486348
 20
317.566348931
 30
0.0
 11
599.7724350724
 21
317.566348931
 31
0.0
  0
LINE
  5
140
330
1F
100
AcDbEntity
  8
0
  6
SLD-Сплошная
 62
     7
370
    35
100
AcDbLine
 10
599.7724350724
 20
435.7616315763
 30
0.0
 11
599.7724350724
 21
435.544731202
 31
0.0
  0
LINE
  5
141
330
1F
100
AcDbEntity
  8
0
  6
SLD-Сплошная
 62
     7
370
    35
100
AcDbLine
 10
594.3866486348
 20
449.7953170129
 30
0.0
 11
599.7724350724
 21
449.7953170129
 31
0.0
  0
LINE
  5
142
330
1F
100
AcDbEntity
  8
0
  6
SLD-Сплошная
 62
     7
370
    35
100
AcDbLine
 10
594.3866486348
 20
450.6438451503
 30
0.0
 11
599.7724350724
 21
450.6438451503
 31
0.0
  0
LINE
  5
143
330
1F
100
AcDbEntity
  8
0
  6
SLD-Сплошная
 62
     7
370
    35
100
AcDbLine
 10
602.9443650814
 20
432.2709218651
 30
0.0
 11
603.7928932188
 21
432.8709218651
 31
0.0
  0
LINE
  5
144
330
1F
100
AcDbEntity
  8
0
  6
SLD-Сплошная
 62
     7
370
    35
100
AcDbLine
 10
603.7928932189
 20
432.8709218651
 30
0.0
 11
604.071966216
 21
433.1730073155
 31
0.0
  0
LINE
  5
145
330
1F
100
AcDbEntity
  8
0
  6
SLD-Сплошная
 62
     7
370
    35
100
AcDbLine
 10
600.4795418536
 20
317.3592421498
 30
0.0
 11
602.9443650814
 21
315.616348931
 31
0.0
  0
ARC
  5
146
330
1F
100
AcDbEntity
  8
0
  6
SLD-Сплошная
 62
     7
370
    35
100
AcDbCircle
 10
603.1420446962
 20
435.2680750314
 30
0.0
 40
3.003665149845562
100
AcDbArc
 50
207.5734713579
 51
266.2264768942
  0
ARC
  5
147
330
1F
100
AcDbEntity
  8
0
  6
SLD-Сплошная
 62
     7
370
    35
100
AcDbCircle
 10
603.9905728336
 20
435.8680750314
 30
0.0
 40
3.003665149845742
100
AcDbArc
 50
207.5734713579
 51
266.2264768942
  0
LINE
  5
148
330
1F
100
AcDbEntity
  8
0
  6
SLD-Сплошная
 62
     7
370
    35
100
AcDbLine
 10
600.4795418536
 20
433.8777214987
 30
0.0
 11
601.328069991
 21
434.4777214987
 31
0.0
  0
ARC
  5
149
330
1F
100
AcDbEntity
  8
0
  6
SLD-Сплошная
 62
     7
370
    35
100
AcDbCircle
 10
599.7940404852
 20
316.3294542528
 30
0.0
 40
1.237083359746894
100
AcDbArc
 50
56.3493899469
 51
91.0007101761
  0
SPLINE
  5
14A
330
1F
100
AcDbEntity
  8
0
  6
SLD-Сплошная
 62
     7
370
    35
100
AcDbSpline
210
0.0
220
0.0
230
1.0
 70
     8
 71
     3
 72
    16
 73
    12
 74
     0
 42
0.000000001
 43
0.00000001
 40
0.0
 40
0.0
 40
0.0
 40
0.0
 40
0.1249999999999802
 40
0.1249999999999802
 40
0.2499999999999605
 40
0.2499999999999605
 40
0.4999999999999737
 40
0.4999999999999737
 40
0.7499999999999869
 40
0.7499999999999869
 40
1.0
 40
1.0
 40
1.0
 40
1.0
 10
599.7724350724353
 20
435.5447312019921
 30
0.0
 10
599.7781754586293
 20
435.4781974654107
 30
0.0
 10
599.7839187329565
 20
435.4116520114762
 30
0.0
 10
599.8036953827504
 20
435.27902806717
 30
0.0
 10
599.8179308498774
 20
435.2129436209076
 30
0.0
 10
599.8707592625883
 20
435.0141728758513
 30
0.0
 10
599.9193131576375
 20
434.8820922228149
 30
0.0
 10
600.0428922310518
 20
434.6155986541709
 30
0.0
 10
600.1178233985388
 20
434.4806431882704
 30
0.0
 10
600.2902711808193
 20
434.1919107787091
 30
0.0
 10
600.3870944968444
 20
434.0409844339526
 30
0.0
 10
600.479541853622
 20
433.8777214987277
 30
0.0
  0
SPLINE
  5
14B
330
1F
100
AcDbEntity
  8
0
  6
SLD-Сплошная
 62
     7
370
    35
100
AcDbSpline
210
0.0
220
0.0
230
1.0
 70
     8
 71
     3
 72
     9
 73
     5
 74
     0
 42
0.000000001
 43
0.00000001
 40
0.0
 40
0.0
 40
0.0
 40
0.0
 40
0.0066027594844716
 40
0.0260230094822921
 40
0.0260230094822921
 40
0.0260230094822921
 40
0.0260230094822921
 10
601.2807857249969
 20
434.5327600892679
 30
0.0
 10
601.2848156195545
 20
434.5281202459236
 30
0.0
 10
601.3006521937211
 20
434.509810901398
 30
0.0
 10
601.3163529512775
 20
434.4914349565515
 30
0.0
 10
601.3280699910458
 20
434.4777214987278
 30
0.0
  0
SPLINE
  5
14C
330
1F
100
AcDbEntity
  8
0
  6
SLD-Сплошная
 62
     7
370
    35
100
AcDbSpline
210
0.0
220
0.0
230
1.0
 70
     8
 71
     3
 72
    10
 73
     6
 74
     0
 42
0.000000001
 43
0.00000001
 40
0.0
 40
0.0
 40
0.0
 40
0.0
 40
0.3420053213973959
 40
0.7051683617841598
 40
1.0
 40
1.0
 40
1.0
 40
1.0
 10
599.9358814758755
 20
435.957184883809
 30
0.0
 10
600.0541571014348
 20
435.800017596894
 30
0.0
 10
600.2980253218877
 20
435.4759600711601
 30
0.0
 10
600.8246851515687
 20
435.0213619214509
 30
0.0
 10
601.1396551990224
 20
434.6839474316776
 30
0.0
 10
601.280785724997
 20
434.5327600892679
 30
0.0
  0
LINE
  5
14D
330
1F
100
AcDbEntity
  8
0
  6
SLD-Сплошная
 62
     7
370
    35
100
AcDbLine
 10
591.1866486347
 20
-444.67471178
 30
0.0
 11
591.1866486347
 21
-458.6747109368
 31
0.0
  0
LINE
  5
14E
330
1F
100
AcDbEntity
  8
0
  6
SLD-Сплошная
 62
     7
370
    35
100
AcDbLine
 10
593.9866486349
 20
-454.9247109368
 30
0.0
 11
593.9866486349
 21
-448.4247109368
 31
0.0
  0
LINE
  5
14F
330
1F
100
AcDbEntity
  8
0
  6
SLD-Сплошная
 62
     7
370
    35
100
AcDbLine
 10
603.8432165154
 20
-417.6741152806
 30
0.0
 11
603.9620922679
 21
-417.4514200191
 31
0.0
  0
SPLINE
  5
150
330
1F
100
AcDbEntity
  8
0
  6
SLD-Сплошная
 62
     7
370
    35
100
AcDbSpline
210
0.0
220
0.0
230
1.0
 70
     8
 71
     3
 72
     9
 73
     5
 74
     0
 42
0.000000001
 43
0.00000001
 40
0.0
 40
0.0
 40
0.0
 40
0.0
 40
0.5456155108564607
 40
1.0
 40
1.0
 40
1.0
 40
1.0
 10
603.6505888480672
 20
-415.3860663943333
 30
0.0
 10
603.5248212862715
 20
-415.2288096823456
 30
0.0
 10
603.2943154459988
 20
-414.9405907647035
 30
0.0
 10
603.0536979427353
 20
-414.7402306303276
 30
0.0
 10
602.944365081436
 20
-414.6491900930245
 30
0.0
  0
LINE
  5
151
330
1F
100
AcDbEntity
  8
0
  6
SLD-Сплошная
 62
     7
370
    35
100
AcDbLine
 10
133.4514901508
 20
-607.3160406679
 30
0.0
 11
132.8514901508
 21
-608.1645688053
 31
0.0
  0
ARC
  5
152
330
1F
100
AcDbEntity
  8
0
  6
SLD-Сплошная
 62
     7
370
    35
100
AcDbCircle
 10
-195.1089432751
 20
-591.8866486348
 30
0.0
 40
0.2999999999999545
100
AcDbArc
 50
270.0
 51
315.0
  0
ARC
  5
153
330
1F
100
AcDbEntity
  8
0
  6
SLD-Сплошная
 62
     7
370
    35
100
AcDbCircle
 10
-177.6177744506
 20
-591.8866486348
 30
0.0
 40
0.2999999999999545
100
AcDbArc
 50
225.0
 51
270.0
  0
LINE
  5
154
330
1F
100
AcDbEntity
  8
0
  6
SLD-Сплошная
 62
     7
370
    35
100
AcDbLine
 10
-194.8968112408
 20
-592.0987806691
 30
0.0
 11
-194.4240190346
 21
-591.625988463
 31
0.0
  0
LINE
  5
155
330
1F
100
AcDbEntity
  8
0
  6
SLD-Сплошная
 62
     7
370
    35
100
AcDbLine
 10
-178.3026986911
 20
-591.625988463
 30
0.0
 11
-177.8299064849
 21
-592.0987806691
 31
0.0
  0
ARC
  5
156
330
1F
100
AcDbEntity
  8
0
  6
SLD-Сплошная
 62
     7
370
    35
100
AcDbCircle
 10
-179.3633588628
 20
-592.6866486348
 30
0.0
 40
1.5
100
AcDbArc
 50
45.0
 51
90.0
  0
ARC
  5
157
330
1F
100
AcDbEntity
  8
0
  6
SLD-Сплошная
 62
     7
370
    35
100
AcDbCircle
 10
-193.3633588628
 20
-592.6866486348
 30
0.0
 40
1.5
100
AcDbArc
 50
90.0
 51
135.0
  0
LINE
  5
158
330
1F
100
AcDbEntity
  8
0
  6
SLD-Сплошная
 62
     7
370
    35
100
AcDbLine
 10
-189.6133588628
 20
-593.9866486347
 30
0.0
 11
-189.6133588628
 21
-593.3866486348
 31
0.0
  0
LINE
  5
159
330
1F
100
AcDbEntity
  8
0
  6
SLD-Сплошная
 62
     7
370
    35
100
AcDbLine
 10
-183.1133588628
 20
-593.3866486348
 30
0.0
 11
-183.1133588628
 21
-593.9866486347
 31
0.0
  0
LINE
  5
15A
330
1F
100
AcDbEntity
  8
0
  6
SLD-Сплошная
 62
     7
370
    35
100
AcDbLine
 10
-370.9684812842
 20
-593.3866486348
 30
0.0
 11
-370.9684812842
 21
-592.1866486348
 31
0.0
  0
LINE
  5
15B
330
1F
100
AcDbEntity
  8
0
  6
SLD-Сплошная
 62
     7
370
    35
100
AcDbLine
 10
-352.136036359
 20
-608.1645688053
 30
0.0
 11
-352.736036359
 21
-607.3160406679
 31
0.0
  0
ARC
  5
15C
330
1F
100
AcDbEntity
  8
0
  6
SLD-Сплошная
 62
     7
370
    35
100
AcDbCircle
 10
108.817896872
 20
-591.8866486347
 30
0.0
 40
0.2999999999999944
100
AcDbArc
 50
270.0
 51
315.0
  0
ARC
  5
15D
330
1F
100
AcDbEntity
  8
0
  6
SLD-Сплошная
 62
     7
370
    35
100
AcDbCircle
 10
126.3090656965
 20
-591.8866486347
 30
0.0
 40
0.2999999999999944
100
AcDbArc
 50
225.0
 51
270.0
  0
LINE
  5
15E
330
1F
100
AcDbEntity
  8
0
  6
SLD-Сплошная
 62
     7
370
    35
100
AcDbLine
 10
109.0300289063
 20
-592.0987806691
 30
0.0
 11
109.5028211125
 21
-591.625988463
 31
0.0
  0
LINE
  5
15F
330
1F
100
AcDbEntity
  8
0
  6
SLD-Сплошная
 62
     7
370
    35
100
AcDbLine
 10
125.624141456
 20
-591.625988463
 30
0.0
 11
126.0969336621
 21
-592.0987806691
 31
0.0
  0
ARC
  5
160
330
1F
100
AcDbEntity
  8
0
  6
SLD-Сплошная
 62
     7
370
    35
100
AcDbCircle
 10
124.5634812842
 20
-592.6866486347
 30
0.0
 40
1.5
100
AcDbArc
 50
45.0
 51
90.0
  0
ARC
  5
161
330
1F
100
AcDbEntity
  8
0
  6
SLD-Сплошная
 62
     7
370
    35
100
AcDbCircle
 10
110.5634812842
 20
-592.6866486347
 30
0.0
 40
1.5
100
AcDbArc
 50
90.0
 51
135.0
  0
LINE
  5
162
330
1F
100
AcDbEntity
  8
0
  6
SLD-Сплошная
 62
     7
370
    35
100
AcDbLine
 10
-24.4359059711
 20
-593.3866486348
 30
0.0
 11
-17.3648381593
 21
-593.3866486348
 31
0.0
  0
LINE
  5
163
330
1F
100
AcDbEntity
  8
0
  6
SLD-Сплошная
 62
     7
370
    35
100
AcDbLine
 10
-17.3648381593
 20
-592.1866486348
 30
0.0
 11
-24.4359059711
 21
-592.1866486348
 31
0.0
  0
LINE
  5
164
330
1F
100
AcDbEntity
  8
0
  6
SLD-Сплошная
 62
     7
370
    35
100
AcDbLine
 10
0.3128313704
 20
-593.3866486348
 30
0.0
 11
0.3128313704
 21
-592.1866486348
 31
0.0
  0
LINE
  5
165
330
1F
100
AcDbEntity
  8
0
  6
SLD-Сплошная
 62
     7
370
    35
100
AcDbLine
 10
-17.3648381593
 20
-593.3866486348
 30
0.0
 11
0.3128313704
 21
-593.3866486348
 31
0.0
  0
LINE
  5
166
330
1F
100
AcDbEntity
  8
0
  6
SLD-Сплошная
 62
     7
370
    35
100
AcDbLine
 10
-17.3648381593
 20
-592.1866486348
 30
0.0
 11
0.3128313704
 21
-592.1866486348
 31
0.0
  0
LINE
  5
167
330
1F
100
AcDbEntity
  8
0
  6
SLD-Сплошная
 62
     7
370
    35
100
AcDbLine
 10
-24.4359059711
 20
-593.3866486348
 30
0.0
 11
-369.5040151902
 21
-593.3866486348
 31
0.0
  0
LINE
  5
168
330
1F
100
AcDbEntity
  8
0
  6
SLD-Сплошная
 62
     7
370
    35
100
AcDbLine
 10
-24.4359059711
 20
-592.1866486348
 30
0.0
 11
-369.5040151902
 21
-592.1866486348
 31
0.0
  0
LINE
  5
169
330
1F
100
AcDbEntity
  8
0
  6
SLD-Сплошная
 62
     7
370
    35
100
AcDbLine
 10
17.4577866442
 20
-599.7724350724
 30
0.0
 11
17.6746870185
 21
-599.7724350724
 31
0.0
  0
LINE
  5
16A
330
1F
100
AcDbEntity
  8
0
  6
SLD-Сплошная
 62
     7
370
    35
100
AcDbLine
 10
135.6530692895
 20
-594.3866486348
 30
0.0
 11
135.6530692895
 21
-599.7724350724
 31
0.0
  0
LINE
  5
16B
330
1F
100
AcDbEntity
  8
0
  6
SLD-Сплошная
 62
     7
370
    35
100
AcDbLine
 10
3.4241012076
 20
-594.3866486348
 30
0.0
 11
3.4241012076
 21
-599.7724350724
 31
0.0
  0
ARC
  5
16C
330
1F
100
AcDbEntity
  8
0
  6
SLD-Сплошная
 62
     7
370
    35
100
AcDbCircle
 10
1.4795575594
 20
-594.1116486348
 30
0.0
 40
1.963892817853054
100
AcDbArc
 50
351.9505330246
 51
78.5782463411
  0
ARC
  5
16D
330
1F
100
AcDbEntity
  8
0
  6
SLD-Сплошная
 62
     7
370
    35
100
AcDbCircle
 10
1.6916895937
 20
-594.2616486348
 30
0.0
 40
0.8926785535690963
100
AcDbArc
 50
351.9505330246
 51
78.5782463411
  0
LINE
  5
16E
330
1F
100
AcDbEntity
  8
0
  6
SLD-Сплошная
 62
     7
370
    35
100
AcDbLine
 10
2.5755730702
 20
-594.3866486348
 30
0.0
 11
2.5755730702
 21
-599.7724350724
 31
0.0
  0
ARC
  5
16F
330
1F
100
AcDbEntity
  8
0
  6
SLD-Сплошная
 62
     7
370
    35
100
AcDbCircle
 10
133.7085256412
 20
-594.1116486348
 30
0.0
 40
1.963892817849734
100
AcDbArc
 50
351.9505330245
 51
78.578246341
  0
LINE
  5
170
330
1F
100
AcDbEntity
  8
0
  6
SLD-Сплошная
 62
     7
370
    35
100
AcDbLine
 10
1.868466289
 20
-592.1866486348
 30
0.0
 11
134.0974343709
 21
-592.1866486348
 31
0.0
  0
SPLINE
  5
171
330
1F
100
AcDbEntity
  8
0
  6
SLD-Сплошная
 62
     7
370
    35
100
AcDbSpline
210
0.0
220
0.0
230
1.0
 70
     8
 71
     3
 72
     9
 73
     5
 74
     0
 42
0.000000001
 43
0.00000001
 40
0.8577255279199861
 40
0.8577255279199861
 40
0.8577255279199861
 40
0.8577255279199861
 40
0.9673841945286985
 40
1.0
 40
1.0
 40
1.0
 40
1.0
 10
15.54224880348637
 20
-601.3280699910443
 30
0.0
 10
15.61886707283811
 20
-601.2599425762444
 30
0.0
 10
15.71827393379038
 20
-601.1715520069016
 30
0.0
 10
15.81510067601016
 20
-601.0800360756745
 30
0.0
 10
15.83712186223113
 20
-601.0588433439409
 30
0.0
  0
SPLINE
  5
172
330
1F
100
AcDbEntity
  8
0
  6
SLD-Сплошная
 62
     7
370
    35
100
AcDbSpline
210
0.0
220
0.0
230
1.0
 70
     8
 71
     3
 72
     8
 73
     4
 74
     0
 42
0.000000001
 43
0.00000001
 40
0.0
 40
0.0
 40
0.0
 40
0.0
 40
1.0
 40
1.0
 40
1.0
 40
1.0
 10
15.83712186223107
 20
-601.058843343941
 30
0.0
 10
15.92879206244657
 20
-600.968953752333
 30
0.0
 10
16.01791957737669
 20
-600.8777662796441
 30
0.0
 10
16.1054222795804
 20
-600.7860571273759
 30
0.0
  0
SPLINE
  5
173
330
1F
100
AcDbEntity
  8
0
  6
SLD-Сплошная
 62
     7
370
    35
100
AcDbSpline
210
0.0
220
0.0
230
1.0
 70
     8
 71
     3
 72
    20
 73
    16
 74
     0
 42
0.000000001
 43
0.00000001
 40
0.0
 40
0.0
 40
0.0
 40
0.0
 40
0.0628127591232187
 40
0.1303108571626994
 40
0.184496355802705
 40
0.2545375803758006
 40
0.3094421422195116
 40
0.373010099614582
 40
0.4370728363356351
 40
0.486397439853428
 40
0.5667266283701401
 40
0.5957158256861086
 40
0.6976810152379906
 40
0.7022984967113816
 40
0.7213092523479064
 40
0.7213092523479064
 40
0.7213092523479064
 40
0.7213092523479064
 10
16.10542227960177
 20
-600.7860571273535
 30
0.0
 10
16.14555954963171
 20
-600.7437969844977
 30
0.0
 10
16.22801135513552
 20
-600.6563824625941
 30
0.0
 10
16.34268957159124
 20
-600.5347482535022
 30
0.0
 10
16.460218128442
 20
-600.4118436815563
 30
0.0
 10
16.56902123276627
 20
-600.3018041704844
 30
0.0
 10
16.68322686365897
 20
-600.1930682979151
 30
0.0
 10
16.794091325535
 20
-600.0956260889028
 30
0.0
 10
16.90252832780498
 20
-600.0109963556126
 30
0.0
 10
17.02268042660399
 20
-599.9295711596484
 30
0.0
 10
17.12279720520615
 20
-599.8745904390335
 30
0.0
 10
17.25825522695734
 20
-599.8159136009886
 30
0.0
 10
17.34685591252983
 20
-599.7898353718741
 30
0.0
 10
17.42963317406171
 20
-599.7762466265219
 30
0.0
 10
17.44523431340489
 20
-599.7741344681909
 30
0.0
 10
17.45778664417441
 20
-599.7724350724336
 30
0.0
  0
SPLINE
  5
174
330
1F
100
AcDbEntity
  8
0
  6
SLD-Сплошная
 62
     7
370
    35
100
AcDbSpline
210
0.0
220
0.0
230
1.0
 70
     8
 71
     3
 72
    19
 73
    15
 74
     0
 42
0.000000001
 43
0.00000001
 40
0.0
 40
0.0
 40
0.0
 40
0.0
 40
0.0526315789475165
 40
0.1052631578948691
 40
0.1578947368422219
 40
0.2105263157895711
 40
0.2631578947369901
 40
0.315789473684275
 40
0.3684210526316896
 40
0.4210526315790386
 40
0.473684210526389
 40
0.526315789473811
 40
0.5789473684211048
 40
0.614634592721673
 40
0.614634592721673
 40
0.614634592721673
 40
0.614634592721673
 10
3.424101207620933
 20
-599.7724350724336
 30
0.0
 10
3.423845390147118
 20
-599.8027486852659
 30
0.0
 10
3.423333755199376
 20
-599.8633759109306
 30
0.0
 10
3.419197688817543
 20
-599.9541613785308
 30
0.0
 10
3.412603043594697
 20
-600.0446363697846
 30
0.0
 10
3.403319136634608
 20
-600.1346463096899
 30
0.0
 10
3.391426659566654
 20
-600.2240374177652
 30
0.0
 10
3.376928559302939
 20
-600.3126569708352
 30
0.0
 10
3.359854260118145
 20
-600.4003535637562
 30
0.0
 10
3.340231686295658
 20
-600.4869773688318
 30
0.0
 10
3.318094695641649
 20
-600.5723803890218
 30
0.0
 10
3.293481023834088
 20
-600.6564167211274
 30
0.0
 10
3.269335397212636
 20
-600.73008654615
 30
0.0
 10
3.253084983871002
 20
-600.7754727642223
 30
0.0
 10
3.246338222808065
 20
-600.7936783772471
 30
0.0
  0
SPLINE
  5
175
330
1F
100
AcDbEntity
  8
0
  6
SLD-Сплошная
 62
     7
370
    35
100
AcDbSpline
210
0.0
220
0.0
230
1.0
 70
     8
 71
     3
 72
     8
 73
     4
 74
     0
 42
0.000000001
 43
0.00000001
 40
0.0
 40
0.0
 40
0.0
 40
0.0
 40
1.0
 40
1.0
 40
1.0
 40
1.0
 10
2.969173466522201
 20
-601.3280699910445
 30
0.0
 10
3.081006008258835
 20
-601.1699148938048
 30
0.0
 10
3.172922386951216
 20
-600.9917851642632
 30
0.0
 10
3.246338220478373
 20
-600.7936783739864
 30
0.0
  0
ARC
  5
176
330
1F
100
AcDbEntity
  8
0
  6
SLD-Сплошная
 62
     7
370
    35
100
AcDbCircle
 10
1.3386783916
 20
-599.7940404852
 30
0.0
 40
1.237083360139583
100
AcDbArc
 50
326.349389955
 51
1.0007101734
  0
ARC
  5
177
330
1F
100
AcDbEntity
  8
0
  6
SLD-Сплошная
 62
     7
370
    35
100
AcDbCircle
 10
6.9161494464
 20
-600.5735686698
 30
0.0
 40
8.27901638161535
100
AcDbArc
 50
221.4651180218
 51
264.4198037488
  0
ARC
  5
178
330
1F
100
AcDbEntity
  8
0
  6
SLD-Сплошная
 62
     7
370
    35
100
AcDbCircle
 10
7.5161494464
 20
-599.7250405322
 30
0.0
 40
8.279016381843535
100
AcDbArc
 50
221.4651180226
 51
264.4198037484
  0
SPLINE
  5
179
330
1F
100
AcDbEntity
  8
0
  6
SLD-Сплошная
 62
     7
370
    35
100
AcDbSpline
210
0.0
220
0.0
230
1.0
 70
     8
 71
     3
 72
    14
 73
    10
 74
     0
 42
0.000000001
 43
0.00000001
 40
0.0
 40
0.0
 40
0.0
 40
0.0
 40
0.25
 40
0.25
 40
0.5
 40
0.5
 40
0.75
 40
0.75
 40
1.0
 40
1.0
 40
1.0
 40
1.0
 10
1.312194103937958
 20
-605.2071067812534
 30
0.0
 10
1.22680553295107
 20
-605.1155502463228
 30
0.0
 10
1.158579457898989
 20
-605.0070192271935
 30
0.0
 10
1.062308118364663
 20
-604.7662909581586
 30
0.0
 10
1.035209595652009
 20
-604.6352914196673
 30
0.0
 10
1.023949892182296
 20
-604.373506918013
 30
0.0
 10
1.039804349228735
 20
-604.2411906674532
 30
0.0
 10
1.107597473252619
 20
-603.9990223844678
 30
0.0
 10
1.159896256078152
 20
-603.8867743601616
 30
0.0
 10
1.22628024772331
 20
-603.7928932188534
 30
0.0
  0
LINE
  5
17A
330
1F
100
AcDbEntity
  8
0
  6
SLD-Сплошная
 62
     7
370
    35
100
AcDbLine
 10
1.2262802477
 20
-603.7928932188
 30
0.0
 11
2.9691734665
 21
-601.328069991
 31
0.0
  0
SPLINE
  5
17B
330
1F
100
AcDbEntity
  8
0
  6
SLD-Сплошная
 62
     7
370
    35
100
AcDbSpline
210
0.0
220
0.0
230
1.0
 70
     8
 71
     3
 72
    10
 73
     6
 74
     0
 42
0.000000001
 43
0.00000001
 40
0.0
 40
0.0
 40
0.0
 40
0.0
 40
0.5
 40
0.5
 40
1.0
 40
1.0
 40
1.0
 40
1.0
 10
0.2229482317266385
 20
-605.0694182904037
 30
0.0
 10
0.2586174924797402
 20
-605.2576700237528
 30
0.0
 10
0.3168640015105972
 20
-605.4349305261305
 30
0.0
 10
0.4811954653023975
 20
-605.7679590160823
 30
0.0
 10
0.5867998375014838
 20
-605.9211829140824
 30
0.0
 10
0.7121941039614499
 20
-606.0556349186596
 30
0.0
  0
ARC
  5
17C
330
1F
100
AcDbEntity
  8
0
  6
SLD-Сплошная
 62
     7
370
    35
100
AcDbCircle
 10
16.9326023361
 20
-603.9905728336
 30
0.0
 40
3.003665149846388
100
AcDbArc
 50
117.5734713579
 51
176.2264768942
  0
LINE
  5
17D
330
1F
100
AcDbEntity
  8
0
  6
SLD-Сплошная
 62
     7
370
    35
100
AcDbLine
 10
2.368466289
 20
-600.4795418536
 30
0.0
 11
0.6255730702
 21
-602.9443650814
 31
0.0
  0
LINE
  5
17E
330
1F
100
AcDbEntity
  8
0
  6
SLD-Сплошная
 62
     7
370
    35
100
AcDbLine
 10
0.3128313704
 20
-593.3866486348
 30
0.0
 11
1.868466289
 21
-593.3866486348
 31
0.0
  0
LINE
  5
17F
330
1F
100
AcDbEntity
  8
0
  6
SLD-Сплошная
 62
     7
370
    35
100
AcDbLine
 10
0.3128313704
 20
-592.1866486348
 30
0.0
 11
1.868466289
 21
-592.1866486348
 31
0.0
  0
LWPOLYLINE
  5
180
330
1F
100
AcDbEntity
  8
0
  6
SLD-Сплошная
 62
     7
370
    35
100
AcDbPolyline
 90
        9
 70
   128
 43
0.0
 10
133.3679201183
 20
-605.2071067812
 10
133.589948479
 20
-605.7748878987
 10
133.6922442826
 20
-606.3044993404
 10
133.6719057739
 20
-606.7809179803
 10
133.5295098817
 20
-607.1906295762
 10
133.2690958529
 20
-607.5220121192
 10
132.8980506743
 20
-607.7656655069
 10
132.4268995312
 20
-607.9146781901
 10
131.8690072461
 20
-607.9648232279
  0
LINE
  5
181
330
1F
100
AcDbEntity
  8
0
  6
SLD-Сплошная
 62
     7
370
    35
100
AcDbLine
 10
6.7111069761
 20
-607.9648232279
 30
0.0
 11
131.8690072461
 21
-607.9648232279
 31
0.0
  0
SPLINE
  5
182
330
1F
100
AcDbEntity
  8
0
  6
SLD-Сплошная
 62
     7
370
    35
100
AcDbSpline
210
0.0
220
0.0
230
1.0
 70
     8
 71
     3
 72
    14
 73
    10
 74
     0
 42
0.000000001
 43
0.00000001
 40
0.0
 40
0.0
 40
0.0
 40
0.0
 40
0.25
 40
0.25
 40
0.5
 40
0.5
 40
0.75
 40
0.75
 40
1.0
 40
1.0
 40
1.0
 40
1.0
 10
133.4538339745621
 20
-603.7928932188373
 30
0.0
 10
133.3874503595093
 20
-603.8867738275644
 30
0.0
 10
133.3351933333547
 20
-603.997508331149
 30
0.0
 10
133.2617571363978
 20
-604.2410298632865
 30
0.0
 10
133.2412378152484
 20
-604.3727725365279
 30
0.0
 10
133.2314888785741
 20
-604.6344728260779
 30
0.0
 10
133.242252814146
 20
-604.766135510469
 30
0.0
 10
133.2883219874665
 20
-605.0055062429369
 30
0.0
 10
133.3238225302025
 20
-605.1155384815044
 30
0.0
 10
133.3679201183484
 20
-605.2071067812365
 30
0.0
  0
SPLINE
  5
183
330
1F
100
AcDbEntity
  8
0
  6
SLD-Сплошная
 62
     7
370
    35
100
AcDbSpline
210
0.0
220
0.0
230
1.0
 70
     8
 71
     3
 72
    24
 73
    20
 74
     0
 42
0.000000001
 43
0.00000001
 40
0.0
 40
0.0
 40
0.0
 40
0.0
 40
0.062499999999996
 40
0.062499999999996
 40
0.124999999999992
 40
0.124999999999992
 40
0.2499999999999841
 40
0.2499999999999841
 40
0.3749999999999761
 40
0.3749999999999761
 40
0.4999999999999681
 40
0.4999999999999681
 40
0.749999999999925
 40
0.749999999999925
 40
0.8749999999999318
 40
0.8749999999999318
 40
0.9374999999999659
 40
0.9374999999999659
 40
1.0
 40
1.0
 40
1.0
 40
1.0
 10
16.79996821801943
 20
-603.7928932188584
 30
0.0
 10
16.72145380718543
 20
-603.8302047111192
 30
0.0
 10
16.6455195657304
 20
-603.8704919811362
 30
0.0
 10
16.49819851433559
 20
-603.9464214973877
 30
0.0
 10
16.42658304704098
 20
-603.9823249867463
 30
0.0
 10
16.21518921191045
 20
-604.0849807831103
 30
0.0
 10
16.07811623325644
 20
-604.1459596078781
 30
0.0
 10
15.81303884622953
 20
-604.2420957992036
 30
0.0
 10
15.6838603713263
 20
-604.2783866183597
 30
0.0
 10
15.42627476162672
 20
-604.3270212921466
 30
0.0
 10
15.29698249435851
 20
-604.3393863152824
 30
0.0
 10
14.91576252592308
 20
-604.3394073636491
 30
0.0
 10
14.66715422456533
 20
-604.2911115343353
 30
0.0
 10
14.33237679552935
 20
-604.1458189228372
 30
0.0
 10
14.23004842190284
 20
-604.0861392073562
 30
0.0
 10
14.09906391878768
 20
-603.9833751617184
 30
0.0
 10
14.05913888703497
 20
-603.9470151091351
 30
0.0
 10
13.98879094274447
 20
-603.8713162215654
 30
0.0
 10
13.9597832976513
 20
-603.8312949349702
 30
0.0
 10
13.93544916983641
 20
-603.7928932188584
 30
0.0
  0
ARC
  5
184
330
1F
100
AcDbEntity
  8
0
  6
SLD-Сплошная
 62
     7
370
    35
100
AcDbCircle
 10
3.0121091387
 20
-604.4972003874
 30
0.0
 40
2.847253394652632
100
AcDbArc
 50
146.9493586812
 51
191.5937983656
  0
LINE
  5
185
330
1F
100
AcDbEntity
  8
0
  6
SLD-Сплошная
 62
     7
370
    35
100
AcDbLine
 10
6.1111069762
 20
-608.8133513653
 30
0.0
 11
131.2690072461
 21
-608.8133513653
 31
0.0
  0
ARC
  5
186
330
1F
100
AcDbEntity
  8
0
  6
SLD-Сплошная
 62
     7
370
    35
100
AcDbCircle
 10
132.9319009966
 20
-599.8199669805
 30
0.0
 40
2.721583392158824
100
AcDbArc
 50
326.3493899528
 51
1.0007101734
  0
SPLINE
  5
187
330
1F
100
AcDbEntity
  8
0
  6
SLD-Сплошная
 62
     7
370
    35
100
AcDbSpline
210
0.0
220
0.0
230
1.0
 70
     8
 71
     3
 72
    16
 73
    12
 74
     0
 42
0.000000001
 43
0.00000001
 40
0.0
 40
0.0
 40
0.0
 40
0.0
 40
0.1249999999999699
 40
0.1249999999999699
 40
0.2499999999999398
 40
0.2499999999999398
 40
0.4999999999999599
 40
0.4999999999999599
 40
0.74999999999998
 40
0.74999999999998
 40
1.0
 40
1.0
 40
1.0
 40
1.0
 10
17.67468701852937
 20
-599.7724350724336
 30
0.0
 10
17.75497006728483
 20
-599.7877965784717
 30
0.0
 10
17.83518255846645
 20
-599.803481478188
 30
0.0
 10
17.9893137090778
 20
-599.8631535346233
 30
0.0
 10
18.06407797473281
 20
-599.9052683143367
 30
0.0
 10
18.27501040587553
 20
-600.0530097096579
 30
0.0
 10
18.39526099326272
 20
-600.1817280090689
 30
0.0
 10
18.58312098788601
 20
-600.4781803937755
 30
0.0
 10
18.64720406091458
 20
-600.6394456905651
 30
0.0
 10
18.71448654109337
 20
-600.9676478184758
 30
0.0
 10
18.71709535714522
 20
-601.1303005728887
 30
0.0
 10
18.68881303347469
 20
-601.2807857249954
 30
0.0
  0
SPLINE
  5
188
330
1F
100
AcDbEntity
  8
0
  6
SLD-Сплошная
 62
     7
370
    35
100
AcDbSpline
210
0.0
220
0.0
230
1.0
 70
     8
 71
     3
 72
     9
 73
     5
 74
     0
 42
0.000000001
 43
0.00000001
 40
0.0
 40
0.0
 40
0.0
 40
0.0
 40
0.0066027594844716
 40
0.0260230094822921
 40
0.0260230094822921
 40
0.0260230094822921
 40
0.0260230094822921
 10
18.68881303347469
 20
-601.2807857249953
 30
0.0
 10
18.68804083694908
 20
-601.284815619553
 30
0.0
 10
18.68490510027926
 20
-601.3006521937195
 30
0.0
 10
18.68149779751699
 20
-601.3163529512759
 30
0.0
 10
18.67895502199646
 20
-601.3280699910443
 30
0.0
  0
LINE
  5
189
330
1F
100
AcDbEntity
  8
0
  6
SLD-Сплошная
 62
     7
370
    35
100
AcDbLine
 10
18.078955022
 20
-600.4795418536
 30
0.0
 11
18.678955022
 21
-601.328069991
 31
0.0
  0
SPLINE
  5
18A
330
1F
100
AcDbEntity
  8
0
  6
SLD-Сплошная
 62
     7
370
    35
100
AcDbSpline
210
0.0
220
0.0
230
1.0
 70
     8
 71
     3
 72
     9
 73
     5
 74
     0
 42
0.000000001
 43
0.00000001
 40
0.0
 40
0.0
 40
0.0
 40
0.0
 40
0.6152343009326968
 40
1.0
 40
1.0
 40
1.0
 40
1.0
 10
17.4742573505236
 20
-599.9659948335586
 30
0.0
 10
17.64879522017104
 20
-600.046325115873
 30
0.0
 10
17.932488553561
 20
-600.1768937174488
 30
0.0
 10
18.03825840945367
 20
-600.3954492004273
 30
0.0
 10
18.07895502199652
 20
-600.4795418536204
 30
0.0
  0
LINE
  5
18B
330
1F
100
AcDbEntity
  8
0
  6
SLD-Сплошная
 62
     7
370
    35
100
AcDbLine
 10
16.199968218
 20
-602.9443650814
 30
0.0
 11
16.799968218
 21
-603.7928932188
 31
0.0
  0
SPLINE
  5
18C
330
1F
100
AcDbEntity
  8
0
  6
SLD-Сплошная
 62
     7
370
    35
100
AcDbSpline
210
0.0
220
0.0
230
1.0
 70
     8
 71
     3
 72
    11
 73
     7
 74
     0
 42
0.000000001
 43
0.00000001
 40
0.0
 40
0.0
 40
0.0
 40
0.0
 40
0.0446010542885288
 40
0.3626864871811631
 40
0.6811641851149497
 40
1.0
 40
1.0
 40
1.0
 40
1.0
 10
14.11306302706333
 20
-604.1042110557598
 30
0.0
 10
14.13272380364711
 20
-604.1141649294789
 30
0.0
 10
14.29260114529657
 20
-604.1951077580864
 30
0.0
 10
14.66197715599138
 20
-604.1169562866608
 30
0.0
 10
15.13737639737295
 20
-603.8528123420123
 30
0.0
 10
15.46483452121544
 20
-603.5663703323269
 30
0.0
 10
15.62865558519117
 20
-603.4230688492446
 30
0.0
  0
SPLINE
  5
18D
330
1F
100
AcDbEntity
  8
0
  6
SLD-Сплошная
 62
     7
370
    35
100
AcDbSpline
210
0.0
220
0.0
230
1.0
 70
     8
 71
     3
 72
     8
 73
     4
 74
     0
 42
0.000000001
 43
0.00000001
 40
0.0
 40
0.0
 40
0.0
 40
0.0
 40
1.0
 40
1.0
 40
1.0
 40
1.0
 10
15.90228625274137
 20
-603.1861054183553
 30
0.0
 10
15.80945637386444
 20
-603.2654525294109
 30
0.0
 10
15.71856288738821
 20
-603.3447067366033
 30
0.0
 10
15.628655585191
 20
-603.4230688492445
 30
0.0
  0
SPLINE
  5
18E
330
1F
100
AcDbEntity
  8
0
  6
SLD-Сплошная
 62
     7
370
    35
100
AcDbSpline
210
0.0
220
0.0
230
1.0
 70
     8
 71
     3
 72
     9
 73
     5
 74
     0
 42
0.000000001
 43
0.00000001
 40
0.9250461524337784
 40
0.9250461524337784
 40
0.9250461524337784
 40
0.9250461524337784
 40
0.9403746966207882
 40
1.0
 40
1.0
 40
1.0
 40
1.0
 10
15.90228625273138
 20
-603.1861054183637
 30
0.0
 10
15.92223298619544
 20
-603.1693401442087
 30
0.0
 10
16.0202877944321
 20
-603.0877901271978
 30
0.0
 10
16.12036079225149
 20
-603.0079095592129
 30
0.0
 10
16.1999682180195
 20
-602.9443650814344
 30
0.0
  0
LINE
  5
18F
330
1F
100
AcDbEntity
  8
0
  6
SLD-Сплошная
 62
     7
370
    35
100
AcDbLine
 10
135.1974343709
 20
-601.328069991
 30
0.0
 11
133.4545411521
 21
-603.7928932189
 31
0.0
  0
ARC
  5
190
330
1F
100
AcDbEntity
  8
0
  6
SLD-Сплошная
 62
     7
370
    35
100
AcDbCircle
 10
15.2552089181
 20
-600.6666833025
 30
0.0
 40
3.487043122188739
100
AcDbArc
 50
296.2954354578
 51
349.0664866524
  0
ARC
  5
191
330
1F
100
AcDbEntity
  8
0
  6
SLD-Сплошная
 62
     7
370
    35
100
AcDbCircle
 10
14.6552089181
 20
-599.8181551651
 30
0.0
 40
3.487043122188944
100
AcDbArc
 50
296.2954354578
 51
349.0664866523
  0
ARC
  5
192
330
1F
100
AcDbEntity
  8
0
  6
SLD-Сплошная
 62
     7
370
    35
100
AcDbCircle
 10
131.4473498226
 20
-606.994003141
 30
0.0
 40
1.828068389248089
100
AcDbArc
 50
264.4014372542
 51
320.183624625
  0
LINE
  5
193
330
1F
100
AcDbEntity
  8
0
  6
SLD-Сплошная
 62
     7
370
    35
100
AcDbLine
 10
136.4174725252
 20
-593.3866486348
 30
0.0
 11
136.4174725252
 21
-592.1866486348
 31
0.0
  0
LINE
  5
194
330
1F
100
AcDbEntity
  8
0
  6
SLD-Сплошная
 62
     7
370
    35
100
AcDbLine
 10
135.483075017
 20
-593.3866486348
 30
0.0
 11
136.4174725252
 21
-593.3866486348
 31
0.0
  0
LINE
  5
195
330
1F
100
AcDbEntity
  8
0
  6
SLD-Сплошная
 62
     7
370
    35
100
AcDbLine
 10
134.0974343709
 20
-592.1866486348
 30
0.0
 11
136.4174725252
 21
-592.1866486348
 31
0.0
  0
LINE
  5
196
330
1F
100
AcDbEntity
  8
0
  6
SLD-Сплошная
 62
     7
370
    35
100
AcDbLine
 10
366.5445514279
 20
-593.3866486348
 30
0.0
 11
366.5445514279
 21
-592.1866486348
 31
0.0
  0
LINE
  5
197
330
1F
100
AcDbEntity
  8
0
  6
SLD-Сплошная
 62
     7
370
    35
100
AcDbLine
 10
366.5445514279
 20
-593.3866486348
 30
0.0
 11
136.4174725252
 21
-593.3866486348
 31
0.0
  0
LINE
  5
198
330
1F
100
AcDbEntity
  8
0
  6
SLD-Сплошная
 62
     7
370
    35
100
AcDbLine
 10
366.5445514279
 20
-592.1866486348
 30
0.0
 11
136.4174725252
 21
-592.1866486348
 31
0.0
  0
LINE
  5
199
330
1F
100
AcDbEntity
  8
0
  6
SLD-Сплошная
 62
     7
370
    35
100
AcDbLine
 10
-179.3633588628
 20
-591.1866486348
 30
0.0
 11
-193.3633588628
 21
-591.1866486348
 31
0.0
  0
LINE
  5
19A
330
1F
100
AcDbEntity
  8
0
  6
SLD-Сплошная
 62
     7
370
    35
100
AcDbLine
 10
-189.6133588628
 20
-593.9866486347
 30
0.0
 11
-183.1133588628
 21
-593.9866486347
 31
0.0
  0
LINE
  5
19B
330
1F
100
AcDbEntity
  8
0
  6
SLD-Сплошная
 62
     7
370
    35
100
AcDbLine
 10
-370.9684812842
 20
-593.3866486348
 30
0.0
 11
-369.5040151902
 21
-593.3866486348
 31
0.0
  0
LINE
  5
19C
330
1F
100
AcDbEntity
  8
0
  6
SLD-Сплошная
 62
     7
370
    35
100
AcDbLine
 10
-369.5040151902
 20
-592.1866486348
 30
0.0
 11
-370.9684812842
 21
-592.1866486348
 31
0.0
  0
SPLINE
  5
19D
330
1F
100
AcDbEntity
  8
0
  6
SLD-Сплошная
 62
     7
370
    35
100
AcDbSpline
210
0.0
220
0.0
230
1.0
 70
     8
 71
     3
 72
     8
 73
     4
 74
     0
 42
0.000000001
 43
0.00000001
 40
0.0
 40
0.0
 40
0.0
 40
0.0
 40
1.0
 40
1.0
 40
1.0
 40
1.0
 10
-354.7598525125197
 20
-600.7936783782955
 30
0.0
 10
-354.6864366789371
 20
-600.9917851682859
 30
0.0
 10
-354.5931059429717
 20
-601.1699148942599
 30
0.0
 10
-354.4812734015561
 20
-601.3280699910474
 30
0.0
  0
LINE
  5
19E
330
1F
100
AcDbEntity
  8
0
  6
SLD-Сплошная
 62
     7
370
    35
100
AcDbLine
 10
-354.4812734016
 20
-601.3280699911
 30
0.0
 11
-352.7383801828
 21
-603.7928932189
 31
0.0
  0
SPLINE
  5
19F
330
1F
100
AcDbEntity
  8
0
  6
SLD-Сплошная
 62
     7
370
    35
100
AcDbSpline
210
0.0
220
0.0
230
1.0
 70
     8
 71
     3
 72
    14
 73
    10
 74
     0
 42
0.000000001
 43
0.00000001
 40
0.0
 40
0.0
 40
0.0
 40
0.0
 40
0.25
 40
0.25
 40
0.5
 40
0.5
 40
0.75
 40
0.75
 40
1.0
 40
1.0
 40
1.0
 40
1.0
 10
-352.7383801827904
 20
-603.7928932188685
 30
0.0
 10
-352.6719965677422
 20
-603.8867738275911
 30
0.0
 10
-352.6197395415648
 20
-603.9975083311485
 30
0.0
 10
-352.5463033446109
 20
-604.2410298632853
 30
0.0
 10
-352.5257840234626
 20
-604.3727725365263
 30
0.0
 10
-352.5160350867899
 20
-604.6344728260757
 30
0.0
 10
-352.5267990223627
 20
-604.7661355104666
 30
0.0
 10
-352.572868195684
 20
-605.0055062429343
 30
0.0
 10
-352.6083687384175
 20
-605.1155384814958
 30
0.0
 10
-352.6524663265629
 20
-605.2071067812287
 30
0.0
  0
ARC
  5
1A0
330
1F
100
AcDbEntity
  8
0
  6
SLD-Сплошная
 62
     7
370
    35
100
AcDbCircle
 10
-350.9800485404
 20
-606.3295018776
 30
0.0
 40
2.01413802995237
100
AcDbArc
 50
146.1335991326
 51
209.3278932583
  0
LWPOLYLINE
  5
1A1
330
1F
100
AcDbEntity
  8
0
  6
SLD-Сплошная
 62
     7
370
    35
100
AcDbPolyline
 90
        9
 70
   128
 43
0.0
 10
-350.5535534544
 20
-608.8133513653
 10
-351.1114457394
 20
-608.7632063275
 10
-351.5825968825
 20
-608.6141936443
 10
-351.9536420611
 20
-608.3705402566
 10
-352.2140560899
 20
-608.0391577136
 10
-352.3564519822
 20
-607.6294461177
 10
-352.3767904908
 20
-607.1530274778
 10
-352.2744946872
 20
-606.6234160361
 10
-352.0524663266
 20
-606.0556349186
  0
SPLINE
  5
1A2
330
1F
100
AcDbEntity
  8
0
  6
SLD-Сплошная
 62
     7
370
    35
100
AcDbSpline
210
0.0
220
0.0
230
1.0
 70
     8
 71
     3
 72
    10
 73
     6
 74
     0
 42
0.000000001
 43
0.00000001
 40
0.0
 40
0.0
 40
0.0
 40
0.0
 40
0.5
 40
0.5
 40
1.0
 40
1.0
 40
1.0
 40
1.0
 10
-352.0524663265864
 20
-606.0556349186428
 30
0.0
 10
-351.9877261288968
 20
-605.9212024003106
 30
0.0
 10
-351.9275375108242
 20
-605.770990810937
 30
0.0
 10
-351.8192912394281
 20
-605.4383106629592
 30
0.0
 10
-351.7721348727034
 20
-605.2576922093435
 30
0.0
 10
-351.7364608159844
 20
-605.069409287455
 30
0.0
  0
SPLINE
  5
1A3
330
1F
100
AcDbEntity
  8
0
  6
SLD-Сплошная
 62
     7
370
    35
100
AcDbSpline
210
0.0
220
0.0
230
1.0
 70
     8
 71
     3
 72
    10
 73
     6
 74
     0
 42
0.000000001
 43
0.00000001
 40
0.0
 40
0.0
 40
0.0
 40
0.0
 40
0.5
 40
0.5
 40
1.0
 40
1.0
 40
1.0
 40
1.0
 10
-219.5074913342506
 20
-605.0694018992704
 30
0.0
 10
-219.5431597412515
 20
-605.2576567862184
 30
0.0
 10
-219.6014060431037
 20
-605.4349203352874
 30
0.0
 10
-219.7657386667674
 20
-605.7679546696295
 30
0.0
 10
-219.8713442036531
 20
-605.9211809389815
 30
0.0
 10
-219.9967403121478
 20
-606.0556349186527
 30
0.0
  0
ARC
  5
1A4
330
1F
100
AcDbEntity
  8
0
  6
SLD-Сплошная
 62
     7
370
    35
100
AcDbCircle
 10
-222.2966528511
 20
-604.4971995771
 30
0.0
 40
2.847250860854356
100
AcDbArc
 50
348.4065112019
 51
33.0506550418
  0
SPLINE
  5
1A5
330
1F
100
AcDbEntity
  8
0
  6
SLD-Сплошная
 62
     7
370
    35
100
AcDbSpline
210
0.0
220
0.0
230
1.0
 70
     8
 71
     3
 72
    26
 73
    22
 74
     0
 42
0.000000001
 43
0.00000001
 40
0.0
 40
0.0
 40
0.0
 40
0.0
 40
0.0625000000000102
 40
0.0625000000000102
 40
0.1250000000000203
 40
0.1250000000000203
 40
0.2500000000000166
 40
0.2500000000000166
 40
0.3750000000000128
 40
0.3750000000000128
 40
0.5000000000000091
 40
0.5000000000000091
 40
0.6250000000000053
 40
0.6250000000000053
 40
0.7500000000000016
 40
0.7500000000000016
 40
0.8749999999999979
 40
0.8749999999999979
 40
0.9374999999999989
 40
0.9374999999999989
 40
1.0
 40
1.0
 40
1.0
 40
1.0
 10
-336.5646922124754
 20
-602.9443650814345
 30
0.0
 10
-336.5584292094894
 20
-603.008254030436
 30
0.0
 10
-336.5564077817231
 20
-603.0755072605039
 30
0.0
 10
-336.5681424961277
 20
-603.211899252579
 30
0.0
 10
-336.5809455022832
 20
-603.2820382012773
 30
0.0
 10
-336.6389979258386
 20
-603.4890631784353
 30
0.0
 10
-336.7038667109655
 20
-603.6230295415415
 30
0.0
 10
-336.8852913408396
 20
-603.8625613840504
 30
0.0
 10
-336.9994137195425
 20
-603.9643775266263
 30
0.0
 10
-337.2623492020502
 20
-604.107254684506
 30
0.0
 10
-337.4079905353702
 20
-604.1463643403589
 30
0.0
 10
-337.7113589431164
 20
-604.1469442338818
 30
0.0
 10
-337.8644454958225
 20
-604.1086718772954
 30
0.0
 10
-338.1719676700912
 20
-603.9662867598819
 30
0.0
 10
-338.322064025829
 20
-603.8649444174958
 30
0.0
 10
-338.6286101701845
 20
-603.6250617619176
 30
0.0
 10
-338.7805216018767
 20
-603.4903344231079
 30
0.0
 10
-339.0184885909778
 20
-603.2832244143301
 30
0.0
 10
-339.0994559345882
 20
-603.2130567044345
 30
0.0
 10
-339.2618617711371
 20
-603.0755169948251
 30
0.0
 10
-339.3440192891162
 20
-603.0079767136592
 30
0.0
 10
-339.429211260657
 20
-602.9443650814345
 30
0.0
  0
ARC
  5
1A6
330
1F
100
AcDbEntity
  8
0
  6
SLD-Сплошная
 62
     7
370
    35
100
AcDbCircle
 10
-354.5256220578
 20
-604.4971999423
 30
0.0
 40
2.847252002763309
100
AcDbArc
 50
348.4063716769
 51
33.0506488563
  0
LINE
  5
1A7
330
1F
100
AcDbEntity
  8
0
  6
SLD-Сплошная
 62
     7
370
    35
100
AcDbLine
 10
-352.1390873603
 20
-602.9443650814
 30
0.0
 11
-353.8819805791
 21
-600.4795418536
 31
0.0
  0
ARC
  5
1A8
330
1F
100
AcDbEntity
  8
0
  6
SLD-Сплошная
 62
     7
370
    35
100
AcDbCircle
 10
-337.8844519607
 20
-599.8181551651
 30
0.0
 40
3.487043122188993
100
AcDbArc
 50
190.9335133477
 51
243.7045645422
  0
ARC
  5
1A9
330
1F
100
AcDbEntity
  8
0
  6
SLD-Сплошная
 62
     7
370
    35
100
AcDbCircle
 10
-226.2006956546
 20
-600.5735686698
 30
0.0
 40
8.279016381616973
100
AcDbArc
 50
275.5801962512
 51
318.5348819782
  0
LINE
  5
1AA
330
1F
100
AcDbEntity
  8
0
  6
SLD-Сплошная
 62
     7
370
    35
100
AcDbLine
 10
-350.5535534544
 20
-608.8133513653
 30
0.0
 11
-225.3956531843
 21
-608.8133513653
 31
0.0
  0
ARC
  5
1AB
330
1F
100
AcDbEntity
  8
0
  6
SLD-Сплошная
 62
     7
370
    35
100
AcDbCircle
 10
-220.9762358019
 20
-594.2616486348
 30
0.0
 40
0.8926785535677385
100
AcDbArc
 50
101.421753659
 51
188.0494669755
  0
ARC
  5
1AC
330
1F
100
AcDbEntity
  8
0
  6
SLD-Сплошная
 62
     7
370
    35
100
AcDbCircle
 10
-353.2052038838
 20
-594.2616486348
 30
0.0
 40
0.8926785535519978
100
AcDbArc
 50
101.4217536589
 51
188.0494669767
  0
SPLINE
  5
1AD
330
1F
100
AcDbEntity
  8
0
  6
SLD-Сплошная
 62
     7
370
    35
100
AcDbSpline
210
0.0
220
0.0
230
1.0
 70
     8
 71
     3
 72
     9
 73
     5
 74
     0
 42
0.000000001
 43
0.00000001
 40
0.0
 40
0.0
 40
0.0
 40
0.0
 40
0.2200762246475436
 40
1.0
 40
1.0
 40
1.0
 40
1.0
 10
-354.7573098434434
 20
-593.3866486348068
 30
0.0
 10
-354.7759259506595
 20
-593.4292102074412
 30
0.0
 10
-354.8605153116685
 20
-593.6226048946799
 30
0.0
 10
-354.8919117985029
 20
-593.8484211049328
 30
0.0
 10
-354.9163986650476
 20
-594.024540536169
 30
0.0
  0
ARC
  5
1AE
330
1F
100
AcDbEntity
  8
0
  6
SLD-Сплошная
 62
     7
370
    35
100
AcDbCircle
 10
-351.8626761448
 20
-594.3846156303
 30
0.0
 40
3.074878095793208
100
AcDbArc
 50
173.275106413
 51
176.6507397138
  0
SPLINE
  5
1AF
330
1F
100
AcDbEntity
  8
0
  6
SLD-Сплошная
 62
     7
370
    35
100
AcDbSpline
210
0.0
220
0.0
230
1.0
 70
     8
 71
     3
 72
     8
 73
     4
 74
     0
 42
0.000000001
 43
0.00000001
 40
0.0
 40
0.0
 40
0.0
 40
0.0
 40
1.0
 40
1.0
 40
1.0
 40
1.0
 10
-354.9323022157776
 20
-594.2049740747697
 30
0.0
 10
-354.9358423859666
 20
-594.2653942287006
 30
0.0
 10
-354.9376154977211
 20
-594.3260214081592
 30
0.0
 10
-354.9376154977211
 20
-594.386648634807
 30
0.0
  0
SPLINE
  5
1B0
330
1F
100
AcDbEntity
  8
0
  6
SLD-Сплошная
 62
     7
370
    35
100
AcDbSpline
210
0.0
220
0.0
230
1.0
 70
     8
 71
     3
 72
    16
 73
    12
 74
     0
 42
0.000000001
 43
0.00000001
 40
0.0
 40
0.0
 40
0.0
 40
0.0
 40
0.1250000000000047
 40
0.1250000000000047
 40
0.2500000000000094
 40
0.2500000000000094
 40
0.5000000000000062
 40
0.5000000000000062
 40
0.7500000000000031
 40
0.7500000000000031
 40
1.0
 40
1.0
 40
1.0
 40
1.0
 10
-340.0554019237459
 20
-599.7724350724338
 30
0.0
 10
-340.1219356603273
 20
-599.7781754586279
 30
0.0
 10
-340.1884570364999
 20
-599.7839187329553
 30
0.0
 10
-340.3204831038739
 20
-599.803695382749
 30
0.0
 10
-340.3859454874328
 20
-599.8179308498761
 30
0.0
 10
-340.579992182268
 20
-599.8707592625873
 30
0.0
 10
-340.705553836485
 20
-599.9193131576363
 30
0.0
 10
-340.9347582891921
 20
-600.042892231051
 30
0.0
 10
-341.0393254855649
 20
-600.1178233985377
 30
0.0
 10
-341.2113685303643
 20
-600.2902711808181
 30
0.0
 10
-341.27567543517
 20
-600.3870944968431
 30
0.0
 10
-341.3081980646348
 20
-600.4795418536203
 30
0.0
  0
ARC
  5
1B1
330
1F
100
AcDbEntity
  8
0
  6
SLD-Сплошная
 62
     7
370
    35
100
AcDbCircle
 10
-352.8521926817
 20
-599.7940404852
 30
0.0
 40
1.237083359991819
100
AcDbArc
 50
178.9992898246
 51
213.6506100473
  0
SPLINE
  5
1B2
330
1F
100
AcDbEntity
  8
0
  6
SLD-Сплошная
 62
     7
370
    35
100
AcDbSpline
210
0.0
220
0.0
230
1.0
 70
     8
 71
     3
 72
    19
 73
    15
 74
     0
 42
0.000000001
 43
0.00000001
 40
0.3853654066100267
 40
0.3853654066100267
 40
0.3853654066100267
 40
0.3853654066100267
 40
0.4210526315789523
 40
0.4736842105263486
 40
0.5263157894737178
 40
0.578947368421062
 40
0.6315789473684252
 40
0.6842105263157859
 40
0.7368421052631714
 40
0.789473684210509
 40
0.842105263157901
 40
0.8947368421052961
 40
0.947368421052658
 40
0.9999999999999999
 40
0.9999999999999999
 40
0.9999999999999999
 40
0.9999999999999999
 10
-354.7598525125292
 20
-600.7936783782699
 30
0.0
 10
-354.7665992737251
 20
-600.7754727649091
 30
0.0
 10
-354.782849687198
 20
-600.7300865464993
 30
0.0
 10
-354.8069953139341
 20
-600.6564167211272
 30
0.0
 10
-354.8316089857416
 20
-600.5723803890216
 30
0.0
 10
-354.8537459763961
 20
-600.4869773688317
 30
0.0
 10
-354.8733685502181
 20
-600.4003535637561
 30
0.0
 10
-354.8904428494029
 20
-600.3126569708352
 30
0.0
 10
-354.9049409496668
 20
-600.2240374177652
 30
0.0
 10
-354.9168334267347
 20
-600.1346463096899
 30
0.0
 10
-354.9261173336949
 20
-600.0446363697846
 30
0.0
 10
-354.9327119789176
 20
-599.9541613785307
 30
0.0
 10
-354.9368480452995
 20
-599.8633759109307
 30
0.0
 10
-354.9373596802473
 20
-599.8027486852661
 30
0.0
 10
-354.9376154977211
 20
-599.7724350724338
 30
0.0
  0
LINE
  5
1B3
330
1F
100
AcDbEntity
  8
0
  6
SLD-Сплошная
 62
     7
370
    35
100
AcDbLine
 10
-340.0554019237
 20
-599.7724350724
 30
0.0
 11
-339.8385015494
 21
-599.7724350724
 31
0.0
  0
LINE
  5
1B4
330
1F
100
AcDbEntity
  8
0
  6
SLD-Сплошная
 62
     7
370
    35
100
AcDbLine
 10
-221.8601192784
 20
-594.3866486348
 30
0.0
 11
-221.8601192784
 21
-599.7724350724
 31
0.0
  0
LINE
  5
1B5
330
1F
100
AcDbEntity
  8
0
  6
SLD-Сплошная
 62
     7
370
    35
100
AcDbLine
 10
-354.0890873603
 20
-599.7724350724
 30
0.0
 11
-354.0890873603
 21
-594.3866486348
 31
0.0
  0
LINE
  5
1B6
330
1F
100
AcDbEntity
  8
0
  6
SLD-Сплошная
 62
     7
370
    35
100
AcDbLine
 10
-354.9376154977
 20
-599.7724350724
 30
0.0
 11
-354.9376154977
 21
-594.3866486348
 31
0.0
  0
LINE
  5
1B7
330
1F
100
AcDbEntity
  8
0
  6
SLD-Сплошная
 62
     7
370
    35
100
AcDbLine
 10
-337.1646922125
 20
-603.7928932189
 30
0.0
 11
-336.5646922125
 21
-602.9443650814
 31
0.0
  0
SPLINE
  5
1B8
330
1F
100
AcDbEntity
  8
0
  6
SLD-Сплошная
 62
     7
370
    35
100
AcDbSpline
210
0.0
220
0.0
230
1.0
 70
     8
 71
     3
 72
     9
 73
     5
 74
     0
 42
0.000000001
 43
0.00000001
 40
0.0
 40
0.0
 40
0.0
 40
0.0
 40
0.2088673298394497
 40
1.0
 40
1.0
 40
1.0
 40
1.0
 10
-337.4957321386649
 20
-604.0773139883333
 30
0.0
 10
-337.4621021534518
 20
-604.0650446426592
 30
0.0
 10
-337.3010909257072
 20
-604.0063023506808
 30
0.0
 10
-337.2249387145928
 20
-603.8871547658158
 30
0.0
 10
-337.1646922124753
 20
-603.7928932188585
 30
0.0
  0
ARC
  5
1B9
330
1F
100
AcDbEntity
  8
0
  6
SLD-Сплошная
 62
     7
370
    35
100
AcDbCircle
 10
-339.5618453788
 20
-603.1420446962
 30
0.0
 40
3.00366514984407
100
AcDbArc
 50
3.7735231058
 51
62.4265286421
  0
LINE
  5
1BA
330
1F
100
AcDbEntity
  8
0
  6
SLD-Сплошная
 62
     7
370
    35
100
AcDbLine
 10
-338.7714918461
 20
-601.3280699911
 30
0.0
 11
-338.1714918461
 21
-600.4795418536
 31
0.0
  0
ARC
  5
1BB
330
1F
100
AcDbEntity
  8
0
  6
SLD-Сплошная
 62
     7
370
    35
100
AcDbCircle
 10
-340.1618453788
 20
-603.9905728336
 30
0.0
 40
3.003665149844621
100
AcDbArc
 50
3.7735231058
 51
62.4265286421
  0
LINE
  5
1BC
330
1F
100
AcDbEntity
  8
0
  6
SLD-Сплошная
 62
     7
370
    35
100
AcDbLine
 10
-221.6530124972
 20
-600.4795418536
 30
0.0
 11
-219.9101192784
 21
-602.9443650814
 31
0.0
  0
SPLINE
  5
1BD
330
1F
100
AcDbEntity
  8
0
  6
SLD-Сплошная
 62
     7
370
    35
100
AcDbSpline
210
0.0
220
0.0
230
1.0
 70
     8
 71
     3
 72
    10
 73
     6
 74
     0
 42
0.000000001
 43
0.00000001
 40
0.0
 40
0.0
 40
0.0
 40
0.0
 40
0.2565560513030941
 40
0.5898555227429625
 40
1.0
 40
1.0
 40
1.0
 40
1.0
 10
-339.0663649048692
 20
-601.058843343941
 30
0.0
 10
-339.0418705165928
 20
-601.0828031536437
 30
0.0
 10
-338.9855547519572
 20
-601.1378898530423
 30
0.0
 10
-338.8882744454863
 20
-601.2291042090645
 30
0.0
 10
-338.8130124934286
 20
-601.2928838986709
 30
0.0
 10
-338.7714918461248
 20
-601.3280699910442
 30
0.0
  0
SPLINE
  5
1BE
330
1F
100
AcDbEntity
  8
0
  6
SLD-Сплошная
 62
     7
370
    35
100
AcDbSpline
210
0.0
220
0.0
230
1.0
 70
     8
 71
     3
 72
    16
 73
    12
 74
     0
 42
0.000000001
 43
0.00000001
 40
0.0
 40
0.0
 40
0.0
 40
0.0
 40
0.125
 40
0.125
 40
0.25
 40
0.25
 40
0.5
 40
0.5
 40
0.75
 40
0.75
 40
1.0
 40
1.0
 40
1.0
 40
1.0
 10
-338.1714918461248
 20
-600.4795418536203
 30
0.0
 10
-338.2530725267986
 20
-600.4348446726732
 30
0.0
 10
-338.3308593920464
 20
-600.3860860347602
 30
0.0
 10
-338.4818033100514
 20
-600.2934595511263
 30
0.0
 10
-338.5551076415618
 20
-600.2488425318179
 30
0.0
 10
-338.7713669287684
 20
-600.1197512898996
 30
0.0
 10
-338.9086085894039
 20
-600.04324494302
 30
0.0
 10
-339.175915512743
 20
-599.9193050229885
 30
0.0
 10
-339.3075805935732
 20
-599.8705327331068
 30
0.0
 10
-339.572919340805
 20
-599.8007635404526
 30
0.0
 10
-339.7051333620505
 20
-599.7806439682522
 30
0.0
 10
-339.8385015493884
 20
-599.7724350724338
 30
0.0
  0
SPLINE
  5
1BF
330
1F
100
AcDbEntity
  8
0
  6
SLD-Сплошная
 62
     7
370
    35
100
AcDbSpline
210
0.0
220
0.0
230
1.0
 70
     8
 71
     3
 72
     9
 73
     5
 74
     0
 42
0.000000001
 43
0.00000001
 40
0.0
 40
0.0
 40
0.0
 40
0.0
 40
0.5441314721402647
 40
1.0
 40
1.0
 40
1.0
 40
1.0
 10
-339.3346653222303
 20
-600.7860571273636
 30
0.0
 10
-339.5016200246855
 20
-600.6021864035281
 30
0.0
 10
-339.8084478981008
 20
-600.2642704158492
 30
0.0
 10
-340.1111608423488
 20
-600.039179583852
 30
0.0
 10
-340.2491581466072
 20
-599.9365677576349
 30
0.0
  0
SPLINE
  5
1C0
330
1F
100
AcDbEntity
  8
0
  6
SLD-Сплошная
 62
     7
370
    35
100
AcDbSpline
210
0.0
220
0.0
230
1.0
 70
     8
 71
     3
 72
     8
 73
     4
 74
     0
 42
0.000000001
 43
0.00000001
 40
0.0
 40
0.0
 40
0.0
 40
0.0
 40
1.0
 40
1.0
 40
1.0
 40
1.0
 10
-339.0663649048703
 20
-601.0588433439399
 30
0.0
 10
-339.1580351050895
 20
-600.9689537523283
 30
0.0
 10
-339.2471626200232
 20
-600.8777662796357
 30
0.0
 10
-339.3346653222302
 20
-600.7860571273637
 30
0.0
  0
ARC
  5
1C1
330
1F
100
AcDbEntity
  8
0
  6
SLD-Сплошная
 62
     7
370
    35
100
AcDbCircle
 10
-220.6232245997
 20
-599.7940404851
 30
0.0
 40
1.237083360231078
100
AcDbArc
 50
178.999289828
 51
213.6506100443
  0
LINE
  5
1C2
330
1F
100
AcDbEntity
  8
0
  6
SLD-Сплошная
 62
     7
370
    35
100
AcDbLine
 10
366.5634812842
 20
-593.3866486348
 30
0.0
 11
366.5634812842
 21
-592.1866486348
 31
0.0
  0
SPLINE
  5
1C3
330
1F
100
AcDbEntity
  8
0
  6
SLD-Сплошная
 62
     7
370
    35
100
AcDbSpline
210
0.0
220
0.0
230
1.0
 70
     8
 71
     3
 72
    10
 73
     6
 74
     0
 42
0.000000001
 43
0.00000001
 40
0.0
 40
0.0
 40
0.0
 40
0.0
 40
0.5
 40
0.5
 40
1.0
 40
1.0
 40
1.0
 40
1.0
 10
-131.8788022691442
 20
-606.0556349186519
 30
0.0
 10
-131.7443688600414
 20
-605.9212015095492
 30
0.0
 10
-131.6284514601928
 20
-605.7709888239181
 30
0.0
 10
-131.4352926671144
 20
-605.4383060397583
 30
0.0
 10
-131.3598510077586
 20
-605.2576862429762
 30
0.0
 10
-131.3094003699152
 20
-605.0694018992702
 30
0.0
  0
SPLINE
  5
1C4
330
1F
100
AcDbEntity
  8
0
  6
SLD-Сплошная
 62
     7
370
    35
100
AcDbSpline
210
0.0
220
0.0
230
1.0
 70
     8
 71
     3
 72
    14
 73
    10
 74
     0
 42
0.000000001
 43
0.00000001
 40
0.0
 40
0.0
 40
0.0
 40
0.0
 40
0.25
 40
0.25
 40
0.5
 40
0.5
 40
0.75
 40
0.75
 40
1.0
 40
1.0
 40
1.0
 40
1.0
 10
-132.7273304065649
 20
-603.7928932188587
 30
0.0
 10
-132.6334497978409
 20
-603.8867738275827
 30
0.0
 10
-132.5598851811416
 20
-603.9975083311484
 30
0.0
 10
-132.4596174311593
 20
-604.2410298632852
 30
0.0
 10
-132.4339697182051
 20
-604.3727725365262
 30
0.0
 10
-132.4349177811598
 20
-604.6344728260755
 30
0.0
 10
-132.4618109857073
 20
-604.7661355104665
 30
0.0
 10
-132.5619159689779
 20
-605.005506242934
 30
0.0
 10
-132.6357621068315
 20
-605.1155384814981
 30
0.0
 10
-132.7273304065639
 20
-605.2071067812307
 30
0.0
  0
LINE
  5
1C5
330
1F
100
AcDbEntity
  8
0
  6
SLD-Сплошная
 62
     7
370
    35
100
AcDbLine
 10
-132.7273304066
 20
-605.2071067812
 30
0.0
 11
-135.4850468532
 21
-607.9648232279
 31
0.0
  0
LINE
  5
1C6
330
1F
100
AcDbEntity
  8
0
  6
SLD-Сплошная
 62
     7
370
    35
100
AcDbLine
 10
-135.4850468532
 20
-607.9648232279
 30
0.0
 11
-134.6365187158
 21
-608.8133513653
 31
0.0
  0
LINE
  5
1C7
330
1F
100
AcDbEntity
  8
0
  6
SLD-Сплошная
 62
     7
370
    35
100
AcDbLine
 10
-134.6365187158
 20
-608.8133513653
 30
0.0
 11
-131.8788022691
 21
-606.0556349187
 31
0.0
  0
LINE
  5
1C8
330
1F
100
AcDbEntity
  8
0
  6
SLD-Сплошная
 62
     7
370
    35
100
AcDbLine
 10
367.0057648376
 20
-606.0556349187
 30
0.0
 11
369.7634812842
 21
-608.8133513653
 31
0.0
  0
LINE
  5
1C9
330
1F
100
AcDbEntity
  8
0
  6
SLD-Сплошная
 62
     7
370
    35
100
AcDbLine
 10
369.7634812842
 20
-608.8133513653
 30
0.0
 11
370.6120094217
 21
-607.9648232279
 31
0.0
  0
LINE
  5
1CA
330
1F
100
AcDbEntity
  8
0
  6
SLD-Сплошная
 62
     7
370
    35
100
AcDbLine
 10
370.6120094217
 20
-607.9648232279
 30
0.0
 11
367.854292975
 21
-605.2071067813
 31
0.0
  0
SPLINE
  5
1CB
330
1F
100
AcDbEntity
  8
0
  6
SLD-Сплошная
 62
     7
370
    35
100
AcDbSpline
210
0.0
220
0.0
230
1.0
 70
     8
 71
     3
 72
    14
 73
    10
 74
     0
 42
0.000000001
 43
0.00000001
 40
0.0
 40
0.0
 40
0.0
 40
0.0
 40
0.25
 40
0.25
 40
0.5
 40
0.5
 40
0.75
 40
0.75
 40
1.0
 40
1.0
 40
1.0
 40
1.0
 10
367.8542929749819
 20
-605.2071067812776
 30
0.0
 10
367.7627364400485
 20
-605.1155502463441
 30
0.0
 10
367.6896396553749
 20
-605.007019227194
 30
0.0
 10
367.588711062057
 20
-604.7662909581597
 30
0.0
 10
367.5619852552821
 20
-604.6352914196686
 30
0.0
 10
367.5608336099268
 20
-604.3735069180151
 30
0.0
 10
367.5866424102196
 20
-604.2411906674555
 30
0.0
 10
367.686096618496
 20
-603.9990223844703
 30
0.0
 10
367.7604118337194
 20
-603.8867743601669
 30
0.0
 10
367.854292975028
 20
-603.7928932188582
 30
0.0
  0
LINE
  5
1CC
330
1F
100
AcDbEntity
  8
0
  6
SLD-Сплошная
 62
     7
370
    35
100
AcDbLine
 10
367.854292975
 20
-603.7928932189
 30
0.0
 11
370.3191162028
 21
-601.328069991
 31
0.0
  0
SPLINE
  5
1CD
330
1F
100
AcDbEntity
  8
0
  6
SLD-Сплошная
 62
     7
370
    35
100
AcDbSpline
210
0.0
220
0.0
230
1.0
 70
     8
 71
     3
 72
     8
 73
     4
 74
     0
 42
0.000000001
 43
0.00000001
 40
0.0
 40
0.0
 40
0.0
 40
0.0
 40
1.0
 40
1.0
 40
1.0
 40
1.0
 10
370.3191162027956
 20
-601.3280699909973
 30
0.0
 10
370.4772712963365
 20
-601.1699148974565
 30
0.0
 10
370.6082607830778
 20
-600.9917851730473
 30
0.0
 10
370.7120864494974
 20
-600.7936783881522
 30
0.0
  0
SPLINE
  5
1CE
330
1F
100
AcDbEntity
  8
0
  6
SLD-Сплошная
 62
     7
370
    35
100
AcDbSpline
210
0.0
220
0.0
230
1.0
 70
     8
 71
     3
 72
    10
 73
     6
 74
     0
 42
0.000000001
 43
0.00000001
 40
0.0
 40
0.0
 40
0.0
 40
0.0
 40
0.5
 40
0.5
 40
1.0
 40
1.0
 40
1.0
 40
1.0
 10
366.4363629383787
 20
-605.0694018992704
 30
0.0
 10
366.4868056833076
 20
-605.2576567862184
 30
0.0
 10
366.5606681780554
 20
-605.4349203352875
 30
0.0
 10
366.753280889278
 20
-605.7679546696295
 30
0.0
 10
366.871310857942
 20
-605.9211809389946
 30
0.0
 10
367.0057648376136
 20
-606.0556349186646
 30
0.0
  0
ARC
  5
1CF
330
1F
100
AcDbEntity
  8
0
  6
SLD-Сплошная
 62
     7
370
    35
100
AcDbCircle
 10
-133.4344371878
 20
-604.5
 30
0.0
 40
2.200000000000026
100
AcDbArc
 50
345.0
 51
45.0
  0
LINE
  5
1D0
330
1F
100
AcDbEntity
  8
0
  6
SLD-Сплошная
 62
     7
370
    35
100
AcDbLine
 10
-135.1921536344
 20
-601.328069991
 30
0.0
 11
-132.7273304066
 21
-603.7928932189
 31
0.0
  0
LINE
  5
1D1
330
1F
100
AcDbEntity
  8
0
  6
SLD-Сплошная
 62
     7
370
    35
100
AcDbLine
 10
-134.343625497
 20
-600.4795418536
 30
0.0
 11
-131.8788022691
 21
-602.9443650814
 31
0.0
  0
LINE
  5
1D2
330
1F
100
AcDbEntity
  8
0
  6
SLD-Сплошная
 62
     7
370
    35
100
AcDbLine
 10
368.7634812842
 20
-593.3866486348
 30
0.0
 11
366.5634812842
 21
-593.3866486348
 31
0.0
  0
LINE
  5
1D3
330
1F
100
AcDbEntity
  8
0
  6
SLD-Сплошная
 62
     7
370
    35
100
AcDbLine
 10
368.7634812842
 20
-592.1866486348
 30
0.0
 11
366.5634812842
 21
-592.1866486348
 31
0.0
  0
ARC
  5
1D4
330
1F
100
AcDbEntity
  8
0
  6
SLD-Сплошная
 62
     7
370
    35
100
AcDbCircle
 10
-133.6365187158
 20
-599.7724350724
 30
0.0
 40
1.00000000000033
100
AcDbArc
 50
180.0
 51
225.0
  0
ARC
  5
1D5
330
1F
100
AcDbEntity
  8
0
  6
SLD-Сплошная
 62
     7
370
    35
100
AcDbCircle
 10
-133.6365187158
 20
-599.7724350724
 30
0.0
 40
2.199999999999989
100
AcDbArc
 50
180.0
 51
225.0
  0
LINE
  5
1D6
330
1F
100
AcDbEntity
  8
0
  6
SLD-Сплошная
 62
     7
370
    35
100
AcDbLine
 10
-134.6365187158
 20
-594.3866486348
 30
0.0
 11
-134.6365187158
 21
-599.7724350724
 31
0.0
  0
LINE
  5
1D7
330
1F
100
AcDbEntity
  8
0
  6
SLD-Сплошная
 62
     7
370
    35
100
AcDbLine
 10
-135.8365187158
 20
-594.3866486348
 30
0.0
 11
-135.8365187158
 21
-599.7724350724
 31
0.0
  0
ARC
  5
1D8
330
1F
100
AcDbEntity
  8
0
  6
SLD-Сплошная
 62
     7
370
    35
100
AcDbCircle
 10
-133.6365187158
 20
-594.3866486348
 30
0.0
 40
2.200000000000005
100
AcDbArc
 50
152.9643082105
 51
180.0
  0
ARC
  5
1D9
330
1F
100
AcDbEntity
  8
0
  6
SLD-Сплошная
 62
     7
370
    35
100
AcDbCircle
 10
-133.6365187158
 20
-594.3866486348
 30
0.0
 40
1.0
100
AcDbArc
 50
90.0
 51
180.0
  0
ARC
  5
1DA
330
1F
100
AcDbEntity
  8
0
  6
SLD-Сплошная
 62
     7
370
    35
100
AcDbCircle
 10
368.5613997562
 20
-604.5
 30
0.0
 40
2.200000000066507
100
AcDbArc
 50
135.0
 51
195.0
  0
LINE
  5
1DB
330
1F
100
AcDbEntity
  8
0
  6
SLD-Сплошная
 62
     7
370
    35
100
AcDbLine
 10
369.4705880654
 20
-600.4795418536
 30
0.0
 11
367.0057648376
 21
-602.9443650814
 31
0.0
  0
ARC
  5
1DC
330
1F
100
AcDbEntity
  8
0
  6
SLD-Сплошная
 62
     7
370
    35
100
AcDbCircle
 10
368.7634812842
 20
-599.7724350724
 30
0.0
 40
1.0
100
AcDbArc
 50
315.0
 51
0.0
  0
ARC
  5
1DD
330
1F
100
AcDbEntity
  8
0
  6
SLD-Сплошная
 62
     7
370
    35
100
AcDbCircle
 10
368.7634812842
 20
-599.7724350724
 30
0.0
 40
2.199999999999989
100
AcDbArc
 50
332.3414428027
 51
360.0
  0
LINE
  5
1DE
330
1F
100
AcDbEntity
  8
0
  6
SLD-Сплошная
 62
     7
370
    35
100
AcDbLine
 10
370.9634812842
 20
-594.3866486348
 30
0.0
 11
370.9634812842
 21
-599.7724350724
 31
0.0
  0
LINE
  5
1DF
330
1F
100
AcDbEntity
  8
0
  6
SLD-Сплошная
 62
     7
370
    35
100
AcDbLine
 10
369.7634812842
 20
-594.3866486348
 30
0.0
 11
369.7634812842
 21
-599.7724350724
 31
0.0
  0
ARC
  5
1E0
330
1F
100
AcDbEntity
  8
0
  6
SLD-Сплошная
 62
     7
370
    35
100
AcDbCircle
 10
368.7634812842
 20
-594.3866486348
 30
0.0
 40
1.0
100
AcDbArc
 50
360.0
 51
90.0
  0
ARC
  5
1E1
330
1F
100
AcDbEntity
  8
0
  6
SLD-Сплошная
 62
     7
370
    35
100
AcDbCircle
 10
368.7634812842
 20
-594.3866486348
 30
0.0
 40
2.200000000000159
100
AcDbArc
 50
0.0
 51
90.0
  0
LINE
  5
1E2
330
1F
100
AcDbEntity
  8
0
  6
SLD-Сплошная
 62
     7
370
    35
100
AcDbLine
 10
124.5634812842
 20
-591.1866486347
 30
0.0
 11
110.5634812842
 21
-591.1866486347
 31
0.0
  0
ENDSEC
  0
SECTION
  2
OBJECTS
  0
DICTIONARY
  5
C
330
0
100
AcDbDictionary
281
     1
  3
ACAD_DETAILVIEWSTYLE
350
1EA
  3
ACAD_GROUP
350
D
  3
ACAD_LAYOUT
350
1A
  3
ACAD_MATERIAL
350
43
  3
ACAD_MLEADERSTYLE
350
6B
  3
ACAD_MLINESTYLE
350
17
  3
ACAD_PLOTSETTINGS
350
19
  3
ACAD_PLOTSTYLENAME
350
E
  3
ACAD_SCALELIST
350
47
  3
ACAD_SECTIONVIEWSTYLE
350
1EB
  3
ACAD_TABLESTYLE
350
69
  3
ACAD_VISUALSTYLE
350
2A
  3
ACDB_RECOMPOSE_DATA
350
1E7
  3
AcDbVariableDictionary
350
1E3
  0
SUN
  5
6D
330
29
100
AcDbSun
 90
        1
290
     0
 63
     7
421
 16777215
 40
1.0
291
     1
 91
  2455826
 92
 54000000
292
     0
 70
     2
 71
   256
280
     1
  0
DICTIONARY
  5
1EA
102
{ACAD_REACTORS
330
C
102
}
330
C
100
AcDbDictionary
281
     1
  0
DICTIONARY
  5
D
102
{ACAD_REACTORS
330
C
102
}
330
C
100
AcDbDictionary
281
     1
  0
DICTIONARY
  5
1A
102
{ACAD_REACTORS
330
C
102
}
330
C
100
AcDbDictionary
281
     1
  3
Layout1
350
1E
  3
Layout2
350
26
  3
Model
350
22
  0
DICTIONARY
  5
43
102
{ACAD_REACTORS
330
C
102
}
330
C
100
AcDbDictionary
281
     1
  3
ByBlock
350
45
  3
ByLayer
350
44
  3
Global
350
46
  0
DICTIONARY
  5
6B
102
{ACAD_REACTORS
330
C
102
}
330
C
100
AcDbDictionary
281
     1
  3
Standard
350
6C
  0
DICTIONARY
  5
17
102
{ACAD_REACTORS
330
C
102
}
330
C
100
AcDbDictionary
281
     1
  3
Standard
350
18
  0
DICTIONARY
  5
19
102
{ACAD_REACTORS
330
C
102
}
330
C
100
AcDbDictionary
281
     1
  0
ACDBDICTIONARYWDFLT
  5
E
102
{ACAD_REACTORS
330
C
102
}
330
C
100
AcDbDictionary
281
     1
  3
Normal
350
F
100
AcDbDictionaryWithDefault
340
F
  0
DICTIONARY
  5
47
102
{ACAD_REACTORS
330
C
102
}
330
C
100
AcDbDictionary
281
     1
  3
A0
350
48
  3
A1
350
49
  3
A2
350
4A
  3
A3
350
4B
  3
A4
350
4C
  3
A5
350
4D
  3
A6
350
4E
  3
A7
350
4F
  3
A8
350
50
  3
A9
350
51
  3
B0
350
52
  3
B1
350
53
  3
B2
350
54
  3
B3
350
55
  3
B4
350
56
  3
B5
350
57
  3
B6
350
58
  3
B7
350
59
  3
B8
350
5A
  3
B9
350
5B
  3
C0
350
5C
  3
C1
350
5D
  3
C2
350
5E
  3
C3
350
5F
  3
C4
350
60
  3
C5
350
61
  3
C6
350
62
  3
C7
350
63
  3
C8
350
64
  3
C9
350
65
  3
D0
350
66
  3
D1
350
67
  3
D2
350
68
  0
DICTIONARY
  5
1EB
102
{ACAD_REACTORS
330
C
102
}
330
C
100
AcDbDictionary
281
     1
  0
DICTIONARY
  5
69
102
{ACAD_REACTORS
330
C
102
}
330
C
100
AcDbDictionary
281
     1
  3
Standard
350
6A
  0
DICTIONARY
  5
2A
102
{ACAD_REACTORS
330
C
102
}
330
C
100
AcDbDictionary
281
     1
  3
2dWireframe
350
2F
  3
Basic
350
32
  3
Brighten
350
36
  3
ColorChange
350
3A
  3
Conceptual
350
34
  3
Dim
350
35
  3
EdgeColorOff
350
3D
  3
Facepattern
350
39
  3
Flat
350
2B
  3
FlatWithEdges
350
2C
  3
Gouraud
350
2D
  3
GouraudWithEdges
350
2E
  3
Hidden
350
31
  3
JitterOff
350
3B
  3
Linepattern
350
38
  3
OverhangOff
350
3C
  3
Realistic
350
33
  3
Shaded
350
42
  3
Shaded with edges
350
41
  3
Shades of Gray
350
3E
  3
Sketchy
350
3F
  3
Thicken
350
37
  3
Wireframe
350
30
  3
X-Ray
350
40
  0
XRECORD
  5
1E7
102
{ACAD_REACTORS
330
C
102
}
330
C
100
AcDbXrecord
280
     1
 90
        1
330
6A
  0
DICTIONARY
  5
1E3
102
{ACAD_REACTORS
330
C
102
}
330
C
100
AcDbDictionary
281
     1
  3
CANNOSCALE
350
1E4
  3
CMLEADERSTYLE
350
1E9
  3
CTABLESTYLE
350
1E8
  0
LAYOUT
  5
1E
102
{ACAD_REACTORS
330
1A
102
}
330
1A
100
AcDbPlotSettings
  1

  2
none_device
  4

  6

 40
0.0
 41
0.0
 42
0.0
 43
0.0
 44
0.0
 45
0.0
 46
0.0
 47
0.0
 48
0.0
 49
0.0
140
0.0
141
0.0
142
1.0
143
1.0
 70
   688
 72
     1
 73
     0
 74
     5
  7

 75
    16
 76
     0
 77
     2
 78
   300
147
1.0
148
0.0
149
0.0
100
AcDbLayout
  1
Layout1
 70
     1
 71
     1
 10
0.0
 20
0.0
 11
420.0
 21
297.0
 12
0.0
 22
0.0
 32
0.0
 14
1.0000000000E+20
 24
1.0000000000E+20
 34
1.0000000000E+20
 15
-1.0000000000E+20
 25
-1.0000000000E+20
 35
-1.0000000000E+20
146
0.0
 13
0.0
 23
0.0
 33
0.0
 16
1.0
 26
0.0
 36
0.0
 17
0.0
 27
1.0
 37
0.0
 76
     0
330
1B
  0
LAYOUT
  5
26
102
{ACAD_REACTORS
330
1A
102
}
330
1A
100
AcDbPlotSettings
  1

  2
none_device
  4

  6

 40
0.0
 41
0.0
 42
0.0
 43
0.0
 44
0.0
 45
0.0
 46
0.0
 47
0.0
 48
0.0
 49
0.0
140
0.0
141
0.0
142
1.0
143
1.0
 70
   688
 72
     1
 73
     0
 74
     5
  7

 75
    16
 76
     0
 77
     2
 78
   300
147
1.0
148
0.0
149
0.0
100
AcDbLayout
  1
Layout2
 70
     1
 71
     2
 10
0.0
 20
0.0
 11
0.0
 21
0.0
 12
0.0
 22
0.0
 32
0.0
 14
0.0
 24
0.0
 34
0.0
 15
0.0
 25
0.0
 35
0.0
146
0.0
 13
0.0
 23
0.0
 33
0.0
 16
1.0
 26
0.0
 36
0.0
 17
0.0
 27
1.0
 37
0.0
 76
     0
330
23
  0
LAYOUT
  5
22
102
{ACAD_REACTORS
330
1A
102
}
330
1A
100
AcDbPlotSettings
  1

  2
none_device
  4
Letter_(8.50_x_11.00_Inches)
  6

 40
6.35
 41
6.35
 42
6.35000508
 43
6.35000508
 44
215.9
 45
279.4
 46
0.0
 47
0.0
 48
0.0
 49
0.0
140
0.0
141
0.0
142
1.0
143
1.0
 70
  1712
 72
     1
 73
     0
 74
     0
  7

 75
     0
 76
     0
 77
     2
 78
   300
147
1.0
148
0.0
149
0.0
100
AcDbLayout
  1
Model
 70
     1
 71
     0
 10
0.0
 20
0.0
 11
1420.0
 21
1297.0
 12
0.0
 22
0.0
 32
0.0
 14
0.0
 24
0.0
 34
0.0
 15
1420.0
 25
1297.0
 35
0.0
146
0.0
 13
0.0
 23
0.0
 33
0.0
 16
1.0
 26
0.0
 36
0.0
 17
0.0
 27
1.0
 37
0.0
 76
     0
330
1F
331
29
  0
MATERIAL
  5
45
102
{ACAD_REACTORS
330
43
102
}
330
43
100
AcDbMaterial
  1
ByBlock
 72
     1
 94
      127
  0
MATERIAL
  5
44
102
{ACAD_REACTORS
330
43
102
}
330
43
100
AcDbMaterial
  1
ByLayer
 72
     1
 94
      127
  0
MATERIAL
  5
46
102
{ACAD_REACTORS
330
43
102
}
330
43
100
AcDbMaterial
  1
Global
 72
     1
 94
      127
  0
MLEADERSTYLE
  5
6C
102
{ACAD_REACTORS
330
6B
102
}
330
6B
100
AcDbMLeaderStyle
179
     2
170
     2
171
     1
172
     0
 90
        2
 40
0.0
 41
0.0
173
     1
 91
-1056964608
340
14
 92
       -2
290
     1
 42
2.0
291
     1
 43
8.0
  3
Standard
341
0
 44
4.0
300

342
11
174
     1
178
     6
175
     1
176
     0
 93
-1056964608
 45
4.0
292
     0
297
     0
 46
4.0
343
0
 94
-1056964608
 47
1.0
 49
1.0
140
1.0
293
     1
141
0.0
294
     1
177
     0
142
1.0
295
     0
296
     0
143
3.75
271
     0
272
     9
273
     9
298
     0
  0
MLINESTYLE
  5
18
102
{ACAD_REACTORS
330
17
102
}
330
17
100
AcDbMlineStyle
  2
Standard
 70
     0
  3

 62
   256
 51
90.0
 52
90.0
 71
     2
 49
0.5
 62
   256
  6
BYLAYER
 49
-0.5
 62
   256
  6
BYLAYER
  0
ACDBPLACEHOLDER
  5
F
102
{ACAD_REACTORS
330
E
102
}
330
E
  0
SCALE
  5
48
102
{ACAD_REACTORS
330
47
102
}
330
47
100
AcDbScale
 70
     0
300
1:1
140
1.0
141
1.0
290
     1
  0
SCALE
  5
49
102
{ACAD_REACTORS
330
47
102
}
330
47
100
AcDbScale
 70
     0
300
1:2
140
1.0
141
2.0
290
     0
  0
SCALE
  5
4A
102
{ACAD_REACTORS
330
47
102
}
330
47
100
AcDbScale
 70
     0
300
1:4
140
1.0
141
4.0
290
     0
  0
SCALE
  5
4B
102
{ACAD_REACTORS
330
47
102
}
330
47
100
AcDbScale
 70
     0
300
1:5
140
1.0
141
5.0
290
     0
  0
SCALE
  5
4C
102
{ACAD_REACTORS
330
47
102
}
330
47
100
AcDbScale
 70
     0
300
1:8
140
1.0
141
8.0
290
     0
  0
SCALE
  5
4D
102
{ACAD_REACTORS
330
47
102
}
330
47
100
AcDbScale
 70
     0
300
1:10
140
1.0
141
10.0
290
     0
  0
SCALE
  5
4E
102
{ACAD_REACTORS
330
47
102
}
330
47
100
AcDbScale
 70
     0
300
1:16
140
1.0
141
16.0
290
     0
  0
SCALE
  5
4F
102
{ACAD_REACTORS
330
47
102
}
330
47
100
AcDbScale
 70
     0
300
1:20
140
1.0
141
20.0
290
     0
  0
SCALE
  5
50
102
{ACAD_REACTORS
330
47
102
}
330
47
100
AcDbScale
 70
     0
300
1:30
140
1.0
141
30.0
290
     0
  0
SCALE
  5
51
102
{ACAD_REACTORS
330
47
102
}
330
47
100
AcDbScale
 70
     0
300
1:40
140
1.0
141
40.0
290
     0
  0
SCALE
  5
52
102
{ACAD_REACTORS
330
47
102
}
330
47
100
AcDbScale
 70
     0
300
1:50
140
1.0
141
50.0
290
     0
  0
SCALE
  5
53
102
{ACAD_REACTORS
330
47
102
}
330
47
100
AcDbScale
 70
     0
300
1:100
140
1.0
141
100.0
290
     0
  0
SCALE
  5
54
102
{ACAD_REACTORS
330
47
102
}
330
47
100
AcDbScale
 70
     0
300
2:1
140
2.0
141
1.0
290
     0
  0
SCALE
  5
55
102
{ACAD_REACTORS
330
47
102
}
330
47
100
AcDbScale
 70
     0
300
4:1
140
4.0
141
1.0
290
     0
  0
SCALE
  5
56
102
{ACAD_REACTORS
330
47
102
}
330
47
100
AcDbScale
 70
     0
300
8:1
140
8.0
141
1.0
290
     0
  0
SCALE
  5
57
102
{ACAD_REACTORS
330
47
102
}
330
47
100
AcDbScale
 70
     0
300
10:1
140
10.0
141
1.0
290
     0
  0
SCALE
  5
58
102
{ACAD_REACTORS
330
47
102
}
330
47
100
AcDbScale
 70
     0
300
100:1
140
100.0
141
1.0
290
     0
  0
SCALE
  5
59
102
{ACAD_REACTORS
330
47
102
}
330
47
100
AcDbScale
 70
     0
300
1/128" = 1'-0"
140
0.0078125
141
12.0
290
     0
  0
SCALE
  5
5A
102
{ACAD_REACTORS
330
47
102
}
330
47
100
AcDbScale
 70
     0
300
1/64" = 1'-0"
140
0.015625
141
12.0
290
     0
  0
SCALE
  5
5B
102
{ACAD_REACTORS
330
47
102
}
330
47
100
AcDbScale
 70
     0
300
1/32" = 1'-0"
140
0.03125
141
12.0
290
     0
  0
SCALE
  5
5C
102
{ACAD_REACTORS
330
47
102
}
330
47
100
AcDbScale
 70
     0
300
1/16" = 1'-0"
140
0.0625
141
12.0
290
     0
  0
SCALE
  5
5D
102
{ACAD_REACTORS
330
47
102
}
330
47
100
AcDbScale
 70
     0
300
3/32" = 1'-0"
140
0.09375
141
12.0
290
     0
  0
SCALE
  5
5E
102
{ACAD_REACTORS
330
47
102
}
330
47
100
AcDbScale
 70
     0
300
1/8" = 1'-0"
140
0.125
141
12.0
290
     0
  0
SCALE
  5
5F
102
{ACAD_REACTORS
330
47
102
}
330
47
100
AcDbScale
 70
     0
300
3/16" = 1'-0"
140
0.1875
141
12.0
290
     0
  0
SCALE
  5
60
102
{ACAD_REACTORS
330
47
102
}
330
47
100
AcDbScale
 70
     0
300
1/4" = 1'-0"
140
0.25
141
12.0
290
     0
  0
SCALE
  5
61
102
{ACAD_REACTORS
330
47
102
}
330
47
100
AcDbScale
 70
     0
300
3/8" = 1'-0"
140
0.375
141
12.0
290
     0
  0
SCALE
  5
62
102
{ACAD_REACTORS
330
47
102
}
330
47
100
AcDbScale
 70
     0
300
1/2" = 1'-0"
140
0.5
141
12.0
290
     0
  0
SCALE
  5
63
102
{ACAD_REACTORS
330
47
102
}
330
47
100
AcDbScale
 70
     0
300
3/4" = 1'-0"
140
0.75
141
12.0
290
     0
  0
SCALE
  5
64
102
{ACAD_REACTORS
330
47
102
}
330
47
100
AcDbScale
 70
     0
300
1" = 1'-0"
140
1.0
141
12.0
290
     0
  0
SCALE
  5
65
102
{ACAD_REACTORS
330
47
102
}
330
47
100
AcDbScale
 70
     0
300
1-1/2" = 1'-0"
140
1.5
141
12.0
290
     0
  0
SCALE
  5
66
102
{ACAD_REACTORS
330
47
102
}
330
47
100
AcDbScale
 70
     0
300
3" = 1'-0"
140
3.0
141
12.0
290
     0
  0
SCALE
  5
67
102
{ACAD_REACTORS
330
47
102
}
330
47
100
AcDbScale
 70
     0
300
6" = 1'-0"
140
6.0
141
12.0
290
     0
  0
SCALE
  5
68
102
{ACAD_REACTORS
330
47
102
}
330
47
100
AcDbScale
 70
     0
300
1'-0" = 1'-0"
140
12.0
141
12.0
290
     0
  0
TABLESTYLE
  5
6A
102
{ACAD_REACTORS
330
69
102
}
102
{ACAD_XDICTIONARY
360
1E5
102
}
330
69
100
AcDbTableStyle
  3
Standard
 70
     0
 71
     0
 40
0.06
 41
0.06
280
     0
281
     0
  7
Standard
140
4.5
170
     2
 62
     0
 63
   257
283
     0
 90
        4
 91
        0
  1

274
    -2
284
     1
 64
     0
275
    -2
285
     1
 65
     0
276
    -2
286
     1
 66
     0
277
    -2
287
     1
 67
     0
278
    -2
288
     1
 68
     0
279
    -2
289
     1
 69
     0
  7
Standard
140
6.0
170
     5
 62
     0
 63
   257
283
     0
 90
        4
 91
        0
  1

274
    -2
284
     1
 64
     0
275
    -2
285
     1
 65
     0
276
    -2
286
     1
 66
     0
277
    -2
287
     1
 67
     0
278
    -2
288
     1
 68
     0
279
    -2
289
     1
 69
     0
  7
Standard
140
4.5
170
     5
 62
     0
 63
   257
283
     0
 90
        4
 91
        0
  1

274
    -2
284
     1
 64
     0
275
    -2
285
     1
 65
     0
276
    -2
286
     1
 66
     0
277
    -2
287
     1
 67
     0
278
    -2
288
     1
 68
     0
279
    -2
289
     1
 69
     0
  0
VISUALSTYLE
  5
2F
102
{ACAD_REACTORS
330
2A
102
}
330
2A
100
AcDbVisualStyle
  2
2dWireframe
 70
     4
177
     3
291
     0
 70
    58
 90
        0
176
     1
 90
        2
176
     1
 90
        0
176
     1
 90
        0
176
     1
 40
0.6
176
     1
 40
30.0
176
     1
 62
     7
420
 16777215
176
     1
 90
        1
176
     1
 90
        4
176
     1
 62
     7
176
     1
 62
   257
176
     1
 90
        1
176
     1
 90
        1
176
     1
 40
1.0
176
     1
 90
        0
176
     1
 62
   257
176
     1
 40
1.0
176
     1
 90
        1
176
     1
 90
        6
176
     1
 90
        2
176
     1
 62
     7
176
     1
 90
        5
176
     1
 90
        0
176
     1
 90
        0
176
     1
290
     0
176
     1
 90
        1
176
     1
 40
0.0
176
     1
 90
        0
176
     1
290
     1
176
     1
290
     1
176
     1
290
     0
176
     1
290
     0
176
     1
290
     0
176
     1
290
     0
176
     1
290
     0
176
     1
290
     0
176
     1
290
     0
176
     1
 90
       50
176
     1
 40
0.0
176
     1
 40
1.0
176
     1
 90
        0
176
     1
 62
    18
420
        0
176
     1
 90
       50
176
     1
 90
        3
176
     1
 62
     5
420
      255
176
     1
290
     0
176
     1
 90
       50
176
     1
 90
       50
176
     1
 90
       50
176
     1
290
     0
176
     1
 90
       50
176
     1
 62
   256
176
     0
 40
1.0
176
     0
 90
        2
176
     1
  1
strokes_ogs.tif
176
     1
290
     0
176
     1
 40
1.0
176
     1
 40
1.0
176
     1
  0
VISUALSTYLE
  5
32
102
{ACAD_REACTORS
330
2A
102
}
330
2A
100
AcDbVisualStyle
  2
Basic
 70
     7
177
     3
291
     1
 70
    58
 90
        1
176
     1
 90
        0
176
     1
 90
        1
176
     1
 90
        0
176
     1
 40
0.6
176
     1
 40
30.0
176
     1
 62
     7
420
 16777215
176
     1
 90
        0
176
     1
 90
        4
176
     1
 62
     7
176
     1
 62
   257
176
     1
 90
        1
176
     1
 90
        1
176
     1
 40
1.0
176
     1
 90
        8
176
     1
 62
     7
176
     1
 40
1.0
176
     1
 90
        1
176
     1
 90
        6
176
     1
 90
        2
176
     1
 62
     7
176
     1
 90
        5
176
     1
 90
        0
176
     1
 90
        0
176
     1
290
     0
176
     1
 90
        1
176
     1
 40
0.0
176
     1
 90
        0
176
     1
290
     0
176
     1
290
     1
176
     1
290
     1
176
     1
290
     0
176
     1
290
     0
176
     1
290
     0
176
     1
290
     0
176
     1
290
     0
176
     1
290
     0
176
     1
 90
       50
176
     1
 40
0.0
176
     1
 40
1.0
176
     1
 90
        0
176
     1
 62
    18
420
        0
176
     1
 90
       50
176
     1
 90
        3
176
     1
 62
     5
420
      255
176
     1
290
     0
176
     1
 90
       50
176
     1
 90
       50
176
     1
 90
       50
176
     1
290
     0
176
     1
 90
       50
176
     1
 62
   256
176
     0
 40
1.0
176
     0
 90
        2
176
     1
  1
strokes_ogs.tif
176
     1
290
     0
176
     1
 40
1.0
176
     1
 40
1.0
176
     1
  0
VISUALSTYLE
  5
36
102
{ACAD_REACTORS
330
2A
102
}
330
2A
100
AcDbVisualStyle
  2
Brighten
 70
    12
177
     3
291
     1
 70
    58
 90
        2
176
     1
 90
        2
176
     1
 90
        0
176
     1
 90
        0
176
     1
 40
0.6
176
     1
 40
30.0
176
     1
 62
     7
420
 16777215
176
     1
 90
        1
176
     1
 90
        4
176
     1
 62
     7
176
     1
 62
   257
176
     1
 90
        1
176
     1
 90
        1
176
     1
 40
1.0
176
     1
 90
        8
176
     1
 62
     7
176
     1
 40
1.0
176
     1
 90
        1
176
     1
 90
        6
176
     1
 90
        2
176
     1
 62
     7
176
     1
 90
        5
176
     1
 90
        0
176
     1
 90
        0
176
     1
290
     0
176
     1
 90
        1
176
     1
 40
50.0
176
     1
 90
        0
176
     1
290
     0
176
     1
290
     1
176
     1
290
     1
176
     1
290
     0
176
     1
290
     0
176
     1
290
     0
176
     1
290
     0
176
     1
290
     0
176
     1
290
     0
176
     1
 90
       50
176
     1
 40
0.0
176
     1
 40
1.0
176
     1
 90
        0
176
     1
 62
    18
420
        0
176
     1
 90
       50
176
     1
 90
        3
176
     1
 62
     5
420
      255
176
     1
290
     0
176
     1
 90
       50
176
     1
 90
       50
176
     1
 90
       50
176
     1
290
     0
176
     1
 90
       50
176
     1
 62
   256
176
     0
 40
1.0
176
     0
 90
        2
176
     1
  1
strokes_ogs.tif
176
     1
290
     0
176
     1
 40
1.0
176
     1
 40
1.0
176
     1
  0
VISUALSTYLE
  5
3A
102
{ACAD_REACTORS
330
2A
102
}
330
2A
100
AcDbVisualStyle
  2
ColorChange
 70
    16
177
     3
291
     1
 70
    58
 90
        2
176
     1
 90
        2
176
     1
 90
        3
176
     1
 90
        0
176
     1
 40
0.6
176
     1
 40
30.0
176
     1
 62
     8
420
  8421504
176
     1
 90
        1
176
     1
 90
        4
176
     1
 62
     7
176
     1
 62
   257
176
     1
 90
        1
176
     1
 90
        1
176
     1
 40
1.0
176
     1
 90
        8
176
     1
 62
     8
420
  8421504
176
     1
 40
1.0
176
     1
 90
        1
176
     1
 90
        6
176
     1
 90
        2
176
     1
 62
     7
176
     1
 90
        5
176
     1
 90
        0
176
     1
 90
        0
176
     1
290
     0
176
     1
 90
        1
176
     1
 40
0.0
176
     1
 90
        0
176
     1
290
     0
176
     1
290
     1
176
     1
290
     1
176
     1
290
     0
176
     1
290
     0
176
     1
290
     0
176
     1
290
     0
176
     1
290
     0
176
     1
290
     0
176
     1
 90
       50
176
     1
 40
0.0
176
     1
 40
1.0
176
     1
 90
        0
176
     1
 62
    18
420
        0
176
     1
 90
       50
176
     1
 90
        3
176
     1
 62
     5
420
      255
176
     1
290
     0
176
     1
 90
       50
176
     1
 90
       50
176
     1
 90
       50
176
     1
290
     0
176
     1
 90
       50
176
     1
 62
   256
176
     0
 40
1.0
176
     0
 90
        2
176
     1
  1
strokes_ogs.tif
176
     1
290
     0
176
     1
 40
1.0
176
     1
 40
1.0
176
     1
  0
VISUALSTYLE
  5
34
102
{ACAD_REACTORS
330
2A
102
}
330
2A
100
AcDbVisualStyle
  2
Conceptual
 70
     9
177
     3
291
     0
 70
    58
 90
        3
176
     1
 90
        2
176
     1
 90
        0
176
     1
 90
        0
176
     1
 40
0.6
176
     1
 40
30.0
176
     1
 62
     7
420
 16777215
176
     1
 90
        2
176
     1
 90
        2
176
     1
 62
     7
176
     1
 62
   257
176
     1
 90
        1
176
     1
 90
        1
176
     1
 40
179.0
176
     1
 90
        8
176
     1
 62
     7
176
     1
 40
1.0
176
     1
 90
        1
176
     1
 90
        6
176
     1
 90
        2
176
     1
 62
     7
176
     1
 90
        3
176
     1
 90
        0
176
     1
 90
        0
176
     1
290
     0
176
     1
 90
        1
176
     1
 40
0.0
176
     1
 90
        0
176
     1
290
     0
176
     1
290
     1
176
     1
290
     1
176
     1
290
     0
176
     1
290
     0
176
     1
290
     0
176
     1
290
     0
176
     1
290
     0
176
     1
290
     0
176
     1
 90
       50
176
     1
 40
0.0
176
     1
 40
1.0
176
     1
 90
        0
176
     1
 62
    18
420
        0
176
     1
 90
       50
176
     1
 90
        3
176
     1
 62
     5
420
      255
176
     1
290
     0
176
     1
 90
       50
176
     1
 90
       50
176
     1
 90
       50
176
     1
290
     0
176
     1
 90
       50
176
     1
 62
   256
176
     0
 40
1.0
176
     0
 90
        2
176
     1
  1
strokes_ogs.tif
176
     1
290
     0
176
     1
 40
1.0
176
     1
 40
1.0
176
     1
  0
VISUALSTYLE
  5
35
102
{ACAD_REACTORS
330
2A
102
}
330
2A
100
AcDbVisualStyle
  2
Dim
 70
    11
177
     3
291
     1
 70
    58
 90
        2
176
     1
 90
        2
176
     1
 90
        0
176
     1
 90
        0
176
     1
 40
0.6
176
     1
 40
30.0
176
     1
 62
     7
420
 16777215
176
     1
 90
        1
176
     1
 90
        4
176
     1
 62
     7
176
     1
 62
   257
176
     1
 90
        1
176
     1
 90
        1
176
     1
 40
1.0
176
     1
 90
        8
176
     1
 62
     7
176
     1
 40
1.0
176
     1
 90
        1
176
     1
 90
        6
176
     1
 90
        2
176
     1
 62
     7
176
     1
 90
        5
176
     1
 90
        0
176
     1
 90
        0
176
     1
290
     0
176
     1
 90
        1
176
     1
 40
-50.0
176
     1
 90
        0
176
     1
290
     0
176
     1
290
     1
176
     1
290
     1
176
     1
290
     0
176
     1
290
     0
176
     1
290
     0
176
     1
290
     0
176
     1
290
     0
176
     1
290
     0
176
     1
 90
       50
176
     1
 40
0.0
176
     1
 40
1.0
176
     1
 90
        0
176
     1
 62
    18
420
        0
176
     1
 90
       50
176
     1
 90
        3
176
     1
 62
     5
420
      255
176
     1
290
     0
176
     1
 90
       50
176
     1
 90
       50
176
     1
 90
       50
176
     1
290
     0
176
     1
 90
       50
176
     1
 62
   256
176
     0
 40
1.0
176
     0
 90
        2
176
     1
  1
strokes_ogs.tif
176
     1
290
     0
176
     1
 40
1.0
176
     1
 40
1.0
176
     1
  0
VISUALSTYLE
  5
3D
102
{ACAD_REACTORS
330
2A
102
}
330
2A
100
AcDbVisualStyle
  2
EdgeColorOff
 70
    22
177
     3
291
     1
 70
    58
 90
        2
176
     0
 90
        2
176
     0
 90
        0
176
     0
 90
        0
176
     0
 40
0.6
176
     0
 40
30.0
176
     0
 62
     7
420
 16777215
176
     0
 90
        1
176
     0
 90
        4
176
     0
 62
     7
176
     0
 62
   257
176
     0
 90
        1
176
     0
 90
        1
176
     0
 40
1.0
176
     0
 90
        8
176
     2
 62
     7
176
     0
 40
1.0
176
     0
 90
        1
176
     0
 90
        6
176
     0
 90
        2
176
     0
 62
     7
176
     0
 90
        5
176
     0
 90
        0
176
     0
 90
        0
176
     0
290
     0
176
     0
 90
        1
176
     0
 40
0.0
176
     0
 90
        0
176
     0
290
     0
176
     0
290
     1
176
     0
290
     1
176
     0
290
     0
176
     0
290
     0
176
     0
290
     0
176
     0
290
     0
176
     0
290
     0
176
     0
290
     0
176
     0
 90
       50
176
     0
 40
0.0
176
     0
 40
1.0
176
     0
 90
        0
176
     0
 62
    18
420
        0
176
     0
 90
       50
176
     0
 90
        3
176
     0
 62
     5
420
      255
176
     0
290
     0
176
     0
 90
       50
176
     0
 90
       50
176
     0
 90
       50
176
     0
290
     0
176
     0
 90
       50
176
     0
 62
   256
176
     0
 40
1.0
176
     0
 90
        2
176
     0
  1
strokes_ogs.tif
176
     0
290
     0
176
     0
 40
1.0
176
     0
 40
1.0
176
     0
  0
VISUALSTYLE
  5
39
102
{ACAD_REACTORS
330
2A
102
}
330
2A
100
AcDbVisualStyle
  2
Facepattern
 70
    15
177
     3
291
     1
 70
    58
 90
        2
176
     1
 90
        2
176
     1
 90
        0
176
     1
 90
        0
176
     1
 40
0.6
176
     1
 40
30.0
176
     1
 62
     7
420
 16777215
176
     1
 90
        1
176
     1
 90
        4
176
     1
 62
     7
176
     1
 62
   257
176
     1
 90
        1
176
     1
 90
        1
176
     1
 40
1.0
176
     1
 90
        8
176
     1
 62
     7
176
     1
 40
1.0
176
     1
 90
        1
176
     1
 90
        6
176
     1
 90
        2
176
     1
 62
     7
176
     1
 90
        5
176
     1
 90
        0
176
     1
 90
        0
176
     1
290
     0
176
     1
 90
        1
176
     1
 40
0.0
176
     1
 90
        0
176
     1
290
     0
176
     1
290
     1
176
     1
290
     1
176
     1
290
     0
176
     1
290
     0
176
     1
290
     0
176
     1
290
     0
176
     1
290
     0
176
     1
290
     0
176
     1
 90
       50
176
     1
 40
0.0
176
     1
 40
1.0
176
     1
 90
        0
176
     1
 62
    18
420
        0
176
     1
 90
       50
176
     1
 90
        3
176
     1
 62
     5
420
      255
176
     1
290
     0
176
     1
 90
       50
176
     1
 90
       50
176
     1
 90
       50
176
     1
290
     0
176
     1
 90
       50
176
     1
 62
   256
176
     0
 40
1.0
176
     0
 90
        2
176
     1
  1
strokes_ogs.tif
176
     1
290
     0
176
     1
 40
1.0
176
     1
 40
1.0
176
     1
  0
VISUALSTYLE
  5
2B
102
{ACAD_REACTORS
330
2A
102
}
330
2A
100
AcDbVisualStyle
  2
Flat
 70
     0
177
     3
291
     1
 70
    58
 90
        2
176
     1
 90
        1
176
     1
 90
        1
176
     1
 90
        2
176
     1
 40
0.6
176
     1
 40
30.0
176
     1
 62
     7
420
 16777215
176
     1
 90
        0
176
     1
 90
        0
176
     1
 62
     7
176
     1
 62
   257
176
     1
 90
        1
176
     1
 90
        1
176
     1
 40
1.0
176
     1
 90
        8
176
     1
 62
     7
176
     1
 40
1.0
176
     1
 90
        1
176
     1
 90
        6
176
     1
 90
        2
176
     1
 62
     7
176
     1
 90
        5
176
     1
 90
        0
176
     1
 90
        0
176
     1
290
     0
176
     1
 90
       13
176
     1
 40
0.0
176
     1
 90
        0
176
     1
290
     0
176
     1
290
     1
176
     1
290
     1
176
     1
290
     0
176
     1
290
     0
176
     1
290
     0
176
     1
290
     0
176
     1
290
     0
176
     1
290
     0
176
     1
 90
       50
176
     1
 40
0.0
176
     1
 40
1.0
176
     1
 90
        0
176
     1
 62
    18
420
        0
176
     1
 90
       50
176
     1
 90
        3
176
     1
 62
     5
420
      255
176
     1
290
     0
176
     1
 90
       50
176
     1
 90
       50
176
     1
 90
       50
176
     1
290
     0
176
     1
 90
       50
176
     1
 62
   256
176
     0
 40
1.0
176
     0
 90
        2
176
     1
  1
strokes_ogs.tif
176
     1
290
     0
176
     1
 40
1.0
176
     1
 40
1.0
176
     1
  0
VISUALSTYLE
  5
2C
102
{ACAD_REACTORS
330
2A
102
}
330
2A
100
AcDbVisualStyle
  2
FlatWithEdges
 70
     1
177
     3
291
     1
 70
    58
 90
        2
176
     1
 90
        1
176
     1
 90
        1
176
     1
 90
        2
176
     1
 40
0.6
176
     1
 40
30.0
176
     1
 62
     7
420
 16777215
176
     1
 90
        1
176
     1
 90
        0
176
     1
 62
     7
176
     1
 62
   257
176
     1
 90
        1
176
     1
 90
        1
176
     1
 40
1.0
176
     1
 90
        0
176
     1
 62
   257
176
     1
 40
1.0
176
     1
 90
        1
176
     1
 90
        6
176
     1
 90
        2
176
     1
 62
     7
176
     1
 90
        5
176
     1
 90
        0
176
     1
 90
        0
176
     1
290
     0
176
     1
 90
       13
176
     1
 40
0.0
176
     1
 90
        0
176
     1
290
     0
176
     1
290
     1
176
     1
290
     1
176
     1
290
     0
176
     1
290
     0
176
     1
290
     0
176
     1
290
     0
176
     1
290
     0
176
     1
290
     0
176
     1
 90
       50
176
     1
 40
0.0
176
     1
 40
1.0
176
     1
 90
        0
176
     1
 62
    18
420
        0
176
     1
 90
       50
176
     1
 90
        3
176
     1
 62
     5
420
      255
176
     1
290
     0
176
     1
 90
       50
176
     1
 90
       50
176
     1
 90
       50
176
     1
290
     0
176
     1
 90
       50
176
     1
 62
   256
176
     0
 40
1.0
176
     0
 90
        2
176
     1
  1
strokes_ogs.tif
176
     1
290
     0
176
     1
 40
1.0
176
     1
 40
1.0
176
     1
  0
VISUALSTYLE
  5
2D
102
{ACAD_REACTORS
330
2A
102
}
330
2A
100
AcDbVisualStyle
  2
Gouraud
 70
     2
177
     3
291
     1
 70
    58
 90
        2
176
     1
 90
        2
176
     1
 90
        1
176
     1
 90
        2
176
     1
 40
0.6
176
     1
 40
30.0
176
     1
 62
     7
420
 16777215
176
     1
 90
        0
176
     1
 90
        0
176
     1
 62
     7
176
     1
 62
   257
176
     1
 90
        1
176
     1
 90
        1
176
     1
 40
1.0
176
     1
 90
        0
176
     1
 62
     7
176
     1
 40
1.0
176
     1
 90
        1
176
     1
 90
        6
176
     1
 90
        2
176
     1
 62
     7
176
     1
 90
        5
176
     1
 90
        0
176
     1
 90
        0
176
     1
290
     0
176
     1
 90
       13
176
     1
 40
0.0
176
     1
 90
        0
176
     1
290
     0
176
     1
290
     1
176
     1
290
     1
176
     1
290
     0
176
     1
290
     0
176
     1
290
     0
176
     1
290
     0
176
     1
290
     0
176
     1
290
     0
176
     1
 90
       50
176
     1
 40
0.0
176
     1
 40
1.0
176
     1
 90
        0
176
     1
 62
    18
420
        0
176
     1
 90
       50
176
     1
 90
        3
176
     1
 62
     5
420
      255
176
     1
290
     0
176
     1
 90
       50
176
     1
 90
       50
176
     1
 90
       50
176
     1
290
     0
176
     1
 90
       50
176
     1
 62
   256
176
     0
 40
1.0
176
     0
 90
        2
176
     1
  1
strokes_ogs.tif
176
     1
290
     0
176
     1
 40
1.0
176
     1
 40
1.0
176
     1
  0
VISUALSTYLE
  5
2E
102
{ACAD_REACTORS
330
2A
102
}
330
2A
100
AcDbVisualStyle
  2
GouraudWithEdges
 70
     3
177
     3
291
     1
 70
    58
 90
        2
176
     1
 90
        2
176
     1
 90
        1
176
     1
 90
        2
176
     1
 40
0.6
176
     1
 40
30.0
176
     1
 62
     7
420
 16777215
176
     1
 90
        1
176
     1
 90
        0
176
     1
 62
     7
176
     1
 62
   257
176
     1
 90
        1
176
     1
 90
        1
176
     1
 40
1.0
176
     1
 90
        0
176
     1
 62
   257
176
     1
 40
1.0
176
     1
 90
        1
176
     1
 90
        6
176
     1
 90
        2
176
     1
 62
     7
176
     1
 90
        5
176
     1
 90
        0
176
     1
 90
        0
176
     1
290
     0
176
     1
 90
       13
176
     1
 40
0.0
176
     1
 90
        0
176
     1
290
     0
176
     1
290
     1
176
     1
290
     1
176
     1
290
     0
176
     1
290
     0
176
     1
290
     0
176
     1
290
     0
176
     1
290
     0
176
     1
290
     0
176
     1
 90
       50
176
     1
 40
0.0
176
     1
 40
1.0
176
     1
 90
        0
176
     1
 62
    18
420
        0
176
     1
 90
       50
176
     1
 90
        3
176
     1
 62
     5
420
      255
176
     1
290
     0
176
     1
 90
       50
176
     1
 90
       50
176
     1
 90
       50
176
     1
290
     0
176
     1
 90
       50
176
     1
 62
   256
176
     0
 40
1.0
176
     0
 90
        2
176
     1
  1
strokes_ogs.tif
176
     1
290
     0
176
     1
 40
1.0
176
     1
 40
1.0
176
     1
  0
VISUALSTYLE
  5
31
102
{ACAD_REACTORS
330
2A
102
}
330
2A
100
AcDbVisualStyle
  2
Hidden
 70
     6
177
     3
291
     0
 70
    58
 90
        1
176
     1
 90
        2
176
     1
 90
        2
176
     1
 90
        0
176
     1
 40
0.6
176
     1
 40
30.0
176
     1
 62
     7
420
 16777215
176
     1
 90
        2
176
     1
 90
        2
176
     1
 62
     7
176
     1
 62
   257
176
     1
 90
        2
176
     1
 90
        1
176
     1
 40
40.0
176
     1
 90
        0
176
     1
 62
   257
176
     1
 40
1.0
176
     1
 90
        1
176
     1
 90
        6
176
     1
 90
        2
176
     1
 62
     7
176
     1
 90
        3
176
     1
 90
        0
176
     1
 90
        0
176
     1
290
     0
176
     1
 90
        1
176
     1
 40
0.0
176
     1
 90
        0
176
     1
290
     0
176
     1
290
     1
176
     1
290
     1
176
     1
290
     0
176
     1
290
     0
176
     1
290
     0
176
     1
290
     0
176
     1
290
     0
176
     1
290
     0
176
     1
 90
       50
176
     1
 40
0.0
176
     1
 40
1.0
176
     1
 90
        0
176
     1
 62
    18
420
        0
176
     1
 90
       50
176
     1
 90
        3
176
     1
 62
     5
420
      255
176
     1
290
     0
176
     1
 90
       50
176
     1
 90
       50
176
     1
 90
       50
176
     1
290
     0
176
     1
 90
       50
176
     1
 62
   256
176
     0
 40
1.0
176
     0
 90
        2
176
     1
  1
strokes_ogs.tif
176
     1
290
     0
176
     1
 40
1.0
176
     1
 40
1.0
176
     1
  0
VISUALSTYLE
  5
3B
102
{ACAD_REACTORS
330
2A
102
}
330
2A
100
AcDbVisualStyle
  2
JitterOff
 70
    20
177
     3
291
     1
 70
    58
 90
        2
176
     0
 90
        2
176
     0
 90
        0
176
     0
 90
        0
176
     0
 40
0.6
176
     0
 40
30.0
176
     0
 62
     7
420
 16777215
176
     0
 90
        1
176
     0
 90
        4
176
     0
 62
     7
176
     0
 62
   257
176
     0
 90
        1
176
     0
 90
        1
176
     0
 40
1.0
176
     0
 90
       10
176
     2
 62
     7
176
     0
 40
1.0
176
     0
 90
        1
176
     0
 90
        6
176
     0
 90
        2
176
     0
 62
     7
176
     0
 90
        5
176
     0
 90
        0
176
     0
 90
        0
176
     0
290
     0
176
     0
 90
        1
176
     0
 40
0.0
176
     0
 90
        0
176
     0
290
     0
176
     0
290
     1
176
     0
290
     1
176
     0
290
     0
176
     0
290
     0
176
     0
290
     0
176
     0
290
     0
176
     0
290
     0
176
     0
290
     0
176
     0
 90
       50
176
     0
 40
0.0
176
     0
 40
1.0
176
     0
 90
        0
176
     0
 62
    18
420
        0
176
     0
 90
       50
176
     0
 90
        3
176
     0
 62
     5
420
      255
176
     0
290
     0
176
     0
 90
       50
176
     0
 90
       50
176
     0
 90
       50
176
     0
290
     0
176
     0
 90
       50
176
     0
 62
   256
176
     0
 40
1.0
176
     0
 90
        2
176
     0
  1
strokes_ogs.tif
176
     0
290
     0
176
     0
 40
1.0
176
     0
 40
1.0
176
     0
  0
VISUALSTYLE
  5
38
102
{ACAD_REACTORS
330
2A
102
}
330
2A
100
AcDbVisualStyle
  2
Linepattern
 70
    14
177
     3
291
     1
 70
    58
 90
        2
176
     1
 90
        2
176
     1
 90
        0
176
     1
 90
        0
176
     1
 40
0.6
176
     1
 40
30.0
176
     1
 62
     7
420
 16777215
176
     1
 90
        1
176
     1
 90
        4
176
     1
 62
     7
176
     1
 62
   257
176
     1
 90
        7
176
     1
 90
        7
176
     1
 40
1.0
176
     1
 90
        8
176
     1
 62
     7
176
     1
 40
1.0
176
     1
 90
        1
176
     1
 90
        6
176
     1
 90
        2
176
     1
 62
     7
176
     1
 90
        5
176
     1
 90
        0
176
     1
 90
        0
176
     1
290
     0
176
     1
 90
        1
176
     1
 40
0.0
176
     1
 90
        0
176
     1
290
     0
176
     1
290
     1
176
     1
290
     1
176
     1
290
     0
176
     1
290
     0
176
     1
290
     0
176
     1
290
     0
176
     1
290
     0
176
     1
290
     0
176
     1
 90
       50
176
     1
 40
0.0
176
     1
 40
1.0
176
     1
 90
        0
176
     1
 62
    18
420
        0
176
     1
 90
       50
176
     1
 90
        3
176
     1
 62
     5
420
      255
176
     1
290
     0
176
     1
 90
       50
176
     1
 90
       50
176
     1
 90
       50
176
     1
290
     0
176
     1
 90
       50
176
     1
 62
   256
176
     0
 40
1.0
176
     0
 90
        2
176
     1
  1
strokes_ogs.tif
176
     1
290
     0
176
     1
 40
1.0
176
     1
 40
1.0
176
     1
  0
VISUALSTYLE
  5
3C
102
{ACAD_REACTORS
330
2A
102
}
330
2A
100
AcDbVisualStyle
  2
OverhangOff
 70
    21
177
     3
291
     1
 70
    58
 90
        2
176
     0
 90
        2
176
     0
 90
        0
176
     0
 90
        0
176
     0
 40
0.6
176
     0
 40
30.0
176
     0
 62
     7
420
 16777215
176
     0
 90
        1
176
     0
 90
        4
176
     0
 62
     7
176
     0
 62
   257
176
     0
 90
        1
176
     0
 90
        1
176
     0
 40
1.0
176
     0
 90
        9
176
     2
 62
     7
176
     0
 40
1.0
176
     0
 90
        1
176
     0
 90
        6
176
     0
 90
        2
176
     0
 62
     7
176
     0
 90
        5
176
     0
 90
        0
176
     0
 90
        0
176
     0
290
     0
176
     0
 90
        1
176
     0
 40
0.0
176
     0
 90
        0
176
     0
290
     0
176
     0
290
     1
176
     0
290
     1
176
     0
290
     0
176
     0
290
     0
176
     0
290
     0
176
     0
290
     0
176
     0
290
     0
176
     0
290
     0
176
     0
 90
       50
176
     0
 40
0.0
176
     0
 40
1.0
176
     0
 90
        0
176
     0
 62
    18
420
        0
176
     0
 90
       50
176
     0
 90
        3
176
     0
 62
     5
420
      255
176
     0
290
     0
176
     0
 90
       50
176
     0
 90
       50
176
     0
 90
       50
176
     0
290
     0
176
     0
 90
       50
176
     0
 62
   256
176
     0
 40
1.0
176
     0
 90
        2
176
     0
  1
strokes_ogs.tif
176
     0
290
     0
176
     0
 40
1.0
176
     0
 40
1.0
176
     0
  0
VISUALSTYLE
  5
33
102
{ACAD_REACTORS
330
2A
102
}
330
2A
100
AcDbVisualStyle
  2
Realistic
 70
     8
177
     3
291
     0
 70
    58
 90
        2
176
     1
 90
        3
176
     1
 90
        0
176
     1
 90
        2
176
     1
 40
0.6
176
     1
 40
30.0
176
     1
 62
     7
420
 16777215
176
     1
 90
        0
176
     1
 90
        0
176
     1
 62
     7
176
     1
 62
   257
176
     1
 90
        1
176
     1
 90
        1
176
     1
 40
1.0
176
     1
 90
        8
176
     1
 62
   257
176
     1
 40
1.0
176
     1
 90
        1
176
     1
 90
        6
176
     1
 90
        2
176
     1
 62
     7
176
     1
 90
        3
176
     1
 90
        0
176
     1
 90
        0
176
     1
290
     0
176
     1
 90
       13
176
     1
 40
0.0
176
     1
 90
        0
176
     1
290
     0
176
     1
290
     1
176
     1
290
     1
176
     1
290
     0
176
     1
290
     0
176
     1
290
     0
176
     1
290
     0
176
     1
290
     0
176
     1
290
     0
176
     1
 90
       50
176
     1
 40
0.0
176
     1
 40
1.0
176
     1
 90
        0
176
     1
 62
    18
420
        0
176
     1
 90
       50
176
     1
 90
        3
176
     1
 62
     5
420
      255
176
     1
290
     0
176
     1
 90
       50
176
     1
 90
       50
176
     1
 90
       50
176
     1
290
     0
176
     1
 90
       50
176
     1
 62
   256
176
     0
 40
1.0
176
     0
 90
        2
176
     1
  1
strokes_ogs.tif
176
     1
290
     0
176
     1
 40
1.0
176
     1
 40
1.0
176
     1
  0
VISUALSTYLE
  5
42
102
{ACAD_REACTORS
330
2A
102
}
330
2A
100
AcDbVisualStyle
  2
Shaded
 70
    27
177
     3
291
     0
 70
    58
 90
        2
176
     1
 90
        2
176
     1
 90
        1
176
     1
 90
        2
176
     1
 40
0.6
176
     1
 40
30.0
176
     1
 62
     7
420
 16777215
176
     1
 90
        0
176
     1
 90
        4
176
     1
 62
     7
176
     1
 62
   257
176
     1
 90
        1
176
     1
 90
        1
176
     1
 40
1.0
176
     1
 90
        8
176
     1
 62
   257
176
     1
 40
1.0
176
     1
 90
        1
176
     1
 90
        6
176
     1
 90
        2
176
     1
 62
     8
420
  7895160
176
     1
 90
        3
176
     1
 90
        0
176
     1
 90
        0
176
     1
290
     0
176
     1
 90
        5
176
     1
 40
0.0
176
     1
 90
        0
176
     1
290
     0
176
     1
290
     1
176
     1
290
     1
176
     1
290
     0
176
     1
290
     0
176
     1
290
     0
176
     1
290
     0
176
     1
290
     0
176
     1
290
     0
176
     1
 90
       50
176
     1
 40
0.0
176
     1
 40
1.0
176
     1
 90
        0
176
     1
 62
    18
420
        0
176
     1
 90
       50
176
     1
 90
        3
176
     1
 62
     5
420
      255
176
     1
290
     0
176
     1
 90
       50
176
     1
 90
       50
176
     1
 90
       50
176
     1
290
     0
176
     1
 90
       50
176
     1
 62
   256
176
     0
 40
1.0
176
     0
 90
        2
176
     1
  1
strokes_ogs.tif
176
     1
290
     0
176
     1
 40
1.0
176
     1
 40
1.0
176
     1
  0
VISUALSTYLE
  5
41
102
{ACAD_REACTORS
330
2A
102
}
330
2A
100
AcDbVisualStyle
  2
Shaded with edges
 70
    26
177
     3
291
     0
 70
    58
 90
        2
176
     1
 90
        2
176
     1
 90
        1
176
     1
 90
        2
176
     1
 40
0.6
176
     1
 40
30.0
176
     1
 62
     7
420
 16777215
176
     1
 90
        1
176
     1
 90
       10
176
     1
 62
     7
176
     1
 62
   257
176
     1
 90
        2
176
     1
 90
        1
176
     1
 40
1.0
176
     1
 90
        8
176
     1
 62
   257
176
     1
 40
1.0
176
     1
 90
        1
176
     1
 90
        6
176
     1
 90
        2
176
     1
 62
     7
176
     1
 90
        3
176
     1
 90
        0
176
     1
 90
        0
176
     1
290
     0
176
     1
 90
        5
176
     1
 40
0.0
176
     1
 90
        0
176
     1
290
     0
176
     1
290
     1
176
     1
290
     1
176
     1
290
     0
176
     1
290
     0
176
     1
290
     0
176
     1
290
     0
176
     1
290
     0
176
     1
290
     0
176
     1
 90
       50
176
     1
 40
0.0
176
     1
 40
1.0
176
     1
 90
        0
176
     1
 62
    18
420
        0
176
     1
 90
       50
176
     1
 90
        3
176
     1
 62
     5
420
      255
176
     1
290
     0
176
     1
 90
       50
176
     1
 90
       50
176
     1
 90
       50
176
     1
290
     0
176
     1
 90
       50
176
     1
 62
   256
176
     0
 40
1.0
176
     0
 90
        2
176
     1
  1
strokes_ogs.tif
176
     1
290
     0
176
     1
 40
1.0
176
     1
 40
1.0
176
     1
  0
VISUALSTYLE
  5
3E
102
{ACAD_REACTORS
330
2A
102
}
330
2A
100
AcDbVisualStyle
  2
Shades of Gray
 70
    23
177
     3
291
     0
 70
    58
 90
        2
176
     1
 90
        2
176
     1
 90
        3
176
     1
 90
        0
176
     1
 40
0.6
176
     1
 40
30.0
176
     1
 62
     7
420
 16777215
176
     1
 90
        2
176
     1
 90
        2
176
     1
 62
     7
176
     1
 62
     7
176
     1
 90
        1
176
     1
 90
        1
176
     1
 40
40.0
176
     1
 90
        8
176
     1
 62
     7
176
     1
 40
1.0
176
     1
 90
        1
176
     1
 90
        6
176
     1
 90
        2
176
     1
 62
     7
176
     1
 90
        3
176
     1
 90
        0
176
     1
 90
        0
176
     1
290
     0
176
     1
 90
        1
176
     1
 40
0.0
176
     1
 90
        0
176
     1
290
     0
176
     1
290
     1
176
     1
290
     1
176
     1
290
     0
176
     1
290
     0
176
     1
290
     0
176
     1
290
     0
176
     1
290
     0
176
     1
290
     0
176
     1
 90
       50
176
     1
 40
0.0
176
     1
 40
1.0
176
     1
 90
        0
176
     1
 62
    18
420
        0
176
     1
 90
       50
176
     1
 90
        3
176
     1
 62
     5
420
      255
176
     1
290
     0
176
     1
 90
       50
176
     1
 90
       50
176
     1
 90
       50
176
     1
290
     0
176
     1
 90
       50
176
     1
 62
   256
176
     0
 40
1.0
176
     0
 90
        2
176
     1
  1
strokes_ogs.tif
176
     1
290
     0
176
     1
 40
1.0
176
     1
 40
1.0
176
     1
  0
VISUALSTYLE
  5
3F
102
{ACAD_REACTORS
330
2A
102
}
330
2A
100
AcDbVisualStyle
  2
Sketchy
 70
    24
177
     3
291
     0
 70
    58
 90
        1
176
     1
 90
        2
176
     1
 90
        2
176
     1
 90
        0
176
     1
 40
0.6
176
     1
 40
30.0
176
     1
 62
     7
420
 16777215
176
     1
 90
        2
176
     1
 90
        2
176
     1
 62
     7
176
     1
 62
     7
176
     1
 90
        1
176
     1
 90
        1
176
     1
 40
40.0
176
     1
 90
       11
176
     1
 62
     7
176
     1
 40
1.0
176
     1
 90
        1
176
     1
 90
        6
176
     1
 90
        2
176
     1
 62
     7
176
     1
 90
        6
176
     1
 90
        0
176
     1
 90
        0
176
     1
290
     0
176
     1
 90
        1
176
     1
 40
0.0
176
     1
 90
        0
176
     1
290
     0
176
     1
290
     1
176
     1
290
     1
176
     1
290
     0
176
     1
290
     0
176
     1
290
     0
176
     1
290
     0
176
     1
290
     0
176
     1
290
     0
176
     1
 90
       50
176
     1
 40
0.0
176
     1
 40
1.0
176
     1
 90
        0
176
     1
 62
    18
420
        0
176
     1
 90
       50
176
     1
 90
        3
176
     1
 62
     5
420
      255
176
     1
290
     0
176
     1
 90
       50
176
     1
 90
       50
176
     1
 90
       50
176
     1
290
     0
176
     1
 90
       50
176
     1
 62
   256
176
     0
 40
1.0
176
     0
 90
        2
176
     1
  1
strokes_ogs.tif
176
     1
290
     0
176
     1
 40
1.0
176
     1
 40
1.0
176
     1
  0
VISUALSTYLE
  5
37
102
{ACAD_REACTORS
330
2A
102
}
330
2A
100
AcDbVisualStyle
  2
Thicken
 70
    13
177
     3
291
     1
 70
    58
 90
        2
176
     1
 90
        2
176
     1
 90
        0
176
     1
 90
        0
176
     1
 40
0.6
176
     1
 40
30.0
176
     1
 62
     7
420
 16777215
176
     1
 90
        1
176
     1
 90
        4
176
     1
 62
     7
176
     1
 62
   257
176
     1
 90
        1
176
     1
 90
        1
176
     1
 40
1.0
176
     1
 90
       12
176
     1
 62
     7
176
     1
 40
1.0
176
     1
 90
        1
176
     1
 90
        6
176
     1
 90
        2
176
     1
 62
     7
176
     1
 90
        5
176
     1
 90
        0
176
     1
 90
        0
176
     1
290
     0
176
     1
 90
        1
176
     1
 40
0.0
176
     1
 90
        0
176
     1
290
     0
176
     1
290
     1
176
     1
290
     1
176
     1
290
     0
176
     1
290
     0
176
     1
290
     0
176
     1
290
     0
176
     1
290
     0
176
     1
290
     0
176
     1
 90
       50
176
     1
 40
0.0
176
     1
 40
1.0
176
     1
 90
        0
176
     1
 62
    18
420
        0
176
     1
 90
       50
176
     1
 90
        3
176
     1
 62
     5
420
      255
176
     1
290
     0
176
     1
 90
       50
176
     1
 90
       50
176
     1
 90
       50
176
     1
290
     0
176
     1
 90
       50
176
     1
 62
   256
176
     0
 40
1.0
176
     0
 90
        2
176
     1
  1
strokes_ogs.tif
176
     1
290
     0
176
     1
 40
1.0
176
     1
 40
1.0
176
     1
  0
VISUALSTYLE
  5
30
102
{ACAD_REACTORS
330
2A
102
}
330
2A
100
AcDbVisualStyle
  2
Wireframe
 70
     5
177
     3
291
     0
 70
    58
 90
        0
176
     1
 90
        2
176
     1
 90
        0
176
     1
 90
        0
176
     1
 40
0.6
176
     1
 40
30.0
176
     1
 62
     7
420
 16777215
176
     1
 90
        1
176
     1
 90
        4
176
     1
 62
     7
176
     1
 62
   257
176
     1
 90
        1
176
     1
 90
        1
176
     1
 40
1.0
176
     1
 90
        0
176
     1
 62
   257
176
     1
 40
1.0
176
     1
 90
        1
176
     1
 90
        6
176
     1
 90
        2
176
     1
 62
     7
176
     1
 90
        3
176
     1
 90
        0
176
     1
 90
        0
176
     1
290
     0
176
     1
 90
        1
176
     1
 40
0.0
176
     1
 90
        0
176
     1
290
     0
176
     1
290
     1
176
     1
290
     1
176
     1
290
     0
176
     1
290
     0
176
     1
290
     0
176
     1
290
     0
176
     1
290
     0
176
     1
290
     0
176
     1
 90
       50
176
     1
 40
0.0
176
     1
 40
1.0
176
     1
 90
        0
176
     1
 62
    18
420
        0
176
     1
 90
       50
176
     1
 90
        3
176
     1
 62
     5
420
      255
176
     1
290
     0
176
     1
 90
       50
176
     1
 90
       50
176
     1
 90
       50
176
     1
290
     0
176
     1
 90
       50
176
     1
 62
   256
176
     0
 40
1.0
176
     0
 90
        2
176
     1
  1
strokes_ogs.tif
176
     1
290
     0
176
     1
 40
1.0
176
     1
 40
1.0
176
     1
  0
VISUALSTYLE
  5
40
102
{ACAD_REACTORS
330
2A
102
}
330
2A
100
AcDbVisualStyle
  2
X-Ray
 70
    25
177
     3
291
     0
 70
    58
 90
        2
176
     1
 90
        2
176
     1
 90
        1
176
     1
 90
        1
176
     1
 40
0.5
176
     1
 40
30.0
176
     1
 62
     7
420
 16777215
176
     1
 90
        1
176
     1
 90
        0
176
     1
 62
     7
176
     1
 62
   257
176
     1
 90
        1
176
     1
 90
        1
176
     1
 40
1.0
176
     1
 90
        8
176
     1
 62
     7
176
     1
 40
1.0
176
     1
 90
        1
176
     1
 90
        6
176
     1
 90
        2
176
     1
 62
     7
176
     1
 90
        3
176
     1
 90
        0
176
     1
 90
        0
176
     1
290
     0
176
     1
 90
       13
176
     1
 40
0.0
176
     1
 90
        0
176
     1
290
     0
176
     1
290
     1
176
     1
290
     1
176
     1
290
     0
176
     1
290
     0
176
     1
290
     0
176
     1
290
     0
176
     1
290
     0
176
     1
290
     0
176
     1
 90
       50
176
     1
 40
0.0
176
     1
 40
1.0
176
     1
 90
        0
176
     1
 62
    18
420
        0
176
     1
 90
       50
176
     1
 90
        3
176
     1
 62
     5
420
      255
176
     1
290
     0
176
     1
 90
       50
176
     1
 90
       50
176
     1
 90
       50
176
     1
290
     0
176
     1
 90
       50
176
     1
 62
   256
176
     0
 40
1.0
176
     0
 90
        2
176
     1
  1
strokes_ogs.tif
176
     1
290
     0
176
     1
 40
1.0
176
     1
 40
1.0
176
     1
  0
DICTIONARYVAR
  5
1E4
102
{ACAD_REACTORS
330
1E3
102
}
330
1E3
100
DictionaryVariables
280
     0
  1
1:1
  0
DICTIONARYVAR
  5
1E9
102
{ACAD_REACTORS
330
1E3
102
}
330
1E3
100
DictionaryVariables
280
     0
  1
Standard
  0
DICTIONARYVAR
  5
1E8
102
{ACAD_REACTORS
330
1E3
102
}
330
1E3
100
DictionaryVariables
280
     0
  1
Standard
  0
DICTIONARY
  5
1E5
330
6A
100
AcDbDictionary
280
     1
281
     1
  3
ACAD_ROUNDTRIP_2008_TABLESTYLE_CELLSTYLEMAP
360
1E6
  0
CELLSTYLEMAP
  5
1E6
102
{ACAD_REACTORS
330
1E5
102
}
330
1E5
100
AcDbCellStyleMap
 90
        3
300
CELLSTYLE
  1
TABLEFORMAT_BEGIN
 90
        5
170
     1
 91
        0
 92
    32768
 62
   257
 93
        1
300
CONTENTFORMAT
  1
CONTENTFORMAT_BEGIN
 90
        0
 91
        0
 92
        4
 93
        0
300

 40
0.0
140
1.0
 94
        5
 62
     0
340
11
144
6.0
309
CONTENTFORMAT_END
171
     1
301
MARGIN
  1
CELLMARGIN_BEGIN
 40
1.5
 40
1.5
 40
1.5
 40
1.5
 40
1.5
 40
1.5
309
CELLMARGIN_END
 94
        6
 95
        1
302
GRIDFORMAT
  1
GRIDFORMAT_BEGIN
 90
        0
 91
        1
 62
     0
 92
       -2
340
14
 93
        0
 40
0.045
309
GRIDFORMAT_END
 95
        2
302
GRIDFORMAT
  1
GRIDFORMAT_BEGIN
 90
        0
 91
        1
 62
     0
 92
       -2
340
14
 93
        0
 40
0.045
309
GRIDFORMAT_END
 95
        4
302
GRIDFORMAT
  1
GRIDFORMAT_BEGIN
 90
        0
 91
        1
 62
     0
 92
       -2
340
14
 93
        0
 40
0.045
309
GRIDFORMAT_END
 95
        8
302
GRIDFORMAT
  1
GRIDFORMAT_BEGIN
 90
        0
 91
        1
 62
     0
 92
       -2
340
14
 93
        0
 40
0.045
309
GRIDFORMAT_END
 95
       16
302
GRIDFORMAT
  1
GRIDFORMAT_BEGIN
 90
        0
 91
        1
 62
     0
 92
       -2
340
14
 93
        0
 40
0.045
309
GRIDFORMAT_END
 95
       32
302
GRIDFORMAT
  1
GRIDFORMAT_BEGIN
 90
        0
 91
        1
 62
     0
 92
       -2
340
14
 93
        0
 40
0.045
309
GRIDFORMAT_END
309
TABLEFORMAT_END
  1
CELLSTYLE_BEGIN
 90
        1
 91
        1
300
_TITLE
309
CELLSTYLE_END
300
CELLSTYLE
  1
TABLEFORMAT_BEGIN
 90
        5
170
     1
 91
        0
 92
        0
 62
   257
 93
        1
300
CONTENTFORMAT
  1
CONTENTFORMAT_BEGIN
 90
        0
 91
        0
 92
        4
 93
        0
300

 40
0.0
140
1.0
 94
        5
 62
     0
340
11
144
4.5
309
CONTENTFORMAT_END
171
     1
301
MARGIN
  1
CELLMARGIN_BEGIN
 40
1.5
 40
1.5
 40
1.5
 40
1.5
 40
1.5
 40
1.5
309
CELLMARGIN_END
 94
        6
 95
        1
302
GRIDFORMAT
  1
GRIDFORMAT_BEGIN
 90
        0
 91
        1
 62
     0
 92
       -2
340
14
 93
        0
 40
0.045
309
GRIDFORMAT_END
 95
        2
302
GRIDFORMAT
  1
GRIDFORMAT_BEGIN
 90
        0
 91
        1
 62
     0
 92
       -2
340
14
 93
        0
 40
0.045
309
GRIDFORMAT_END
 95
        4
302
GRIDFORMAT
  1
GRIDFORMAT_BEGIN
 90
        0
 91
        1
 62
     0
 92
       -2
340
14
 93
        0
 40
0.045
309
GRIDFORMAT_END
 95
        8
302
GRIDFORMAT
  1
GRIDFORMAT_BEGIN
 90
        0
 91
        1
 62
     0
 92
       -2
340
14
 93
        0
 40
0.045
309
GRIDFORMAT_END
 95
       16
302
GRIDFORMAT
  1
GRIDFORMAT_BEGIN
 90
        0
 91
        1
 62
     0
 92
       -2
340
14
 93
        0
 40
0.045
309
GRIDFORMAT_END
 95
       32
302
GRIDFORMAT
  1
GRIDFORMAT_BEGIN
 90
        0
 91
        1
 62
     0
 92
       -2
340
14
 93
        0
 40
0.045
309
GRIDFORMAT_END
309
TABLEFORMAT_END
  1
CELLSTYLE_BEGIN
 90
        2
 91
        1
300
_HEADER
309
CELLSTYLE_END
300
CELLSTYLE
  1
TABLEFORMAT_BEGIN
 90
        5
170
     1
 91
        0
 92
        0
 62
   257
 93
        1
300
CONTENTFORMAT
  1
CONTENTFORMAT_BEGIN
 90
        0
 91
        0
 92
        4
 93
        0
300

 40
0.0
140
1.0
 94
        2
 62
     0
340
11
144
4.5
309
CONTENTFORMAT_END
171
     1
301
MARGIN
  1
CELLMARGIN_BEGIN
 40
1.5
 40
1.5
 40
1.5
 40
1.5
 40
1.5
 40
1.5
309
CELLMARGIN_END
 94
        6
 95
        1
302
GRIDFORMAT
  1
GRIDFORMAT_BEGIN
 90
        0
 91
        1
 62
     0
 92
       -2
340
14
 93
        0
 40
0.045
309
GRIDFORMAT_END
 95
        2
302
GRIDFORMAT
  1
GRIDFORMAT_BEGIN
 90
        0
 91
        1
 62
     0
 92
       -2
340
14
 93
        0
 40
0.045
309
GRIDFORMAT_END
 95
        4
302
GRIDFORMAT
  1
GRIDFORMAT_BEGIN
 90
        0
 91
        1
 62
     0
 92
       -2
340
14
 93
        0
 40
0.045
309
GRIDFORMAT_END
 95
        8
302
GRIDFORMAT
  1
GRIDFORMAT_BEGIN
 90
        0
 91
        1
 62
     0
 92
       -2
340
14
 93
        0
 40
0.045
309
GRIDFORMAT_END
 95
       16
302
GRIDFORMAT
  1
GRIDFORMAT_BEGIN
 90
        0
 91
        1
 62
     0
 92
       -2
340
14
 93
        0
 40
0.045
309
GRIDFORMAT_END
 95
       32
302
GRIDFORMAT
  1
GRIDFORMAT_BEGIN
 90
        0
 91
        1
 62
     0
 92
       -2
340
14
 93
        0
 40
0.045
309
GRIDFORMAT_END
309
TABLEFORMAT_END
  1
CELLSTYLE_BEGIN
 90
        3
 91
        2
300
_DATA
309
CELLSTYLE_END
  0
ENDSEC
  0
EOF
