  0
SECTION
  2
HEADER
  9
$ACADVER
  1
AC1027
  9
$ACADMAINTVER
 70
   105
  9
$DWGCODEPAGE
  3
ANSI_1251
  9
$REQUIREDVERSIONS
160
                 0
  9
$INSBASE
 10
0.0
 20
0.0
 30
0.0
  9
$EXTMIN
 10
0.0
 20
0.0
 30
0.0
  9
$EXTMAX
 10
1420.0
 20
1297.0
 30
0.0
  9
$LIMMIN
 10
0.0
 20
0.0
  9
$LIMMAX
 10
1420.0
 20
1297.0
  9
$ORTHOMODE
 70
     0
  9
$REGENMODE
 70
     1
  9
$FILLMODE
 70
     1
  9
$QTEXTMODE
 70
     0
  9
$MIRRTEXT
 70
     1
  9
$LTSCALE
 40
1.0
  9
$ATTMODE
 70
     1
  9
$TEXTSIZE
 40
5.0
  9
$TRACEWID
 40
1.0
  9
$TEXTSTYLE
  7
Standard
  9
$CLAYER
  8
0
  9
$CELTYPE
  6
ByLayer
  9
$CECOLOR
 62
   256
  9
$CELTSCALE
 40
1.0
  9
$DISPSILH
 70
     0
  9
$DIMSCALE
 40
1.0
  9
$DIMASZ
 40
5.0
  9
$DIMEXO
 40
0.0
  9
$DIMDLI
 40
3.75
  9
$DIMRND
 40
0.0
  9
$DIMDLE
 40
0.0
  9
$DIMEXE
 40
1.0
  9
$DIMTP
 40
0.0
  9
$DIMTM
 40
0.0
  9
$DIMTXT
 40
3.5
  9
$DIMCEN
 40
2.5
  9
$DIMTSZ
 40
0.0
  9
$DIMTOL
 70
     0
  9
$DIMLIM
 70
     0
  9
$DIMTIH
 70
     1
  9
$DIMTOH
 70
     1
  9
$DIMSE1
 70
     0
  9
$DIMSE2
 70
     0
  9
$DIMTAD
 70
     1
  9
$DIMZIN
 70
     0
  9
$DIMBLK
  1

  9
$DIMASO
 70
     1
  9
$DIMSHO
 70
     1
  9
$DIMPOST
  1

  9
$DIMAPOST
  1

  9
$DIMALT
 70
     0
  9
$DIMALTD
 70
     3
  9
$DIMALTF
 40
0.0393700787
  9
$DIMLFAC
 40
1.0
  9
$DIMTOFL
 70
     1
  9
$DIMTVP
 40
0.0
  9
$DIMTIX
 70
     0
  9
$DIMSOXD
 70
     0
  9
$DIMSAH
 70
     0
  9
$DIMBLK1
  1

  9
$DIMBLK2
  1

  9
$DIMSTYLE
  2
ISO-25
  9
$DIMCLRD
 70
     0
  9
$DIMCLRE
 70
     0
  9
$DIMCLRT
 70
     0
  9
$DIMTFAC
 40
1.0
  9
$DIMGAP
 40
1.5
  9
$DIMJUST
 70
     0
  9
$DIMSD1
 70
     0
  9
$DIMSD2
 70
     0
  9
$DIMTOLJ
 70
     0
  9
$DIMTZIN
 70
     0
  9
$DIMALTZ
 70
     0
  9
$DIMALTTZ
 70
     0
  9
$DIMUPT
 70
     0
  9
$DIMDEC
 70
     1
  9
$DIMTDEC
 70
     1
  9
$DIMALTU
 70
     2
  9
$DIMALTTD
 70
     3
  9
$DIMTXSTY
  7
Standard
  9
$DIMAUNIT
 70
     0
  9
$DIMADEC
 70
     2
  9
$DIMALTRND
 40
0.0
  9
$DIMAZIN
 70
     0
  9
$DIMDSEP
 70
    44
  9
$DIMATFIT
 70
     3
  9
$DIMFRAC
 70
     0
  9
$DIMLDRBLK
  1

  9
$DIMLUNIT
 70
     2
  9
$DIMLWD
 70
    -2
  9
$DIMLWE
 70
    -2
  9
$DIMTMOVE
 70
     0
  9
$DIMFXL
 40
1.0
  9
$DIMFXLON
 70
     0
  9
$DIMJOGANG
 40
0.7853981634
  9
$DIMTFILL
 70
     0
  9
$DIMTFILLCLR
 70
     0
  9
$DIMARCSYM
 70
     0
  9
$DIMLTYPE
  6

  9
$DIMLTEX1
  6

  9
$DIMLTEX2
  6

  9
$DIMTXTDIRECTION
 70
     0
  9
$LUNITS
 70
     2
  9
$LUPREC
 70
     1
  9
$SKETCHINC
 40
1.0
  9
$FILLETRAD
 40
10.0
  9
$AUNITS
 70
     0
  9
$AUPREC
 70
     2
  9
$MENU
  1
.
  9
$ELEVATION
 40
0.0
  9
$PELEVATION
 40
0.0
  9
$THICKNESS
 40
0.0
  9
$LIMCHECK
 70
     0
  9
$CHAMFERA
 40
0.0
  9
$CHAMFERB
 40
0.0
  9
$CHAMFERC
 40
0.0
  9
$CHAMFERD
 40
0.0
  9
$SKPOLY
 70
     0
  9
$TDCREATE
 40
2459607.583903437
  9
$TDUCREATE
 40
2459607.458903437
  9
$TDUPDATE
 40
2459607.583904132
  9
$TDUUPDATE
 40
2459607.458904132
  9
$TDINDWG
 40
0.0000000116
  9
$TDUSRTIMER
 40
0.0000000116
  9
$USRTIMER
 70
     1
  9
$ANGBASE
 50
0.0
  9
$ANGDIR
 70
     0
  9
$PDMODE
 70
     0
  9
$PDSIZE
 40
-1.0
  9
$PLINEWID
 40
0.0
  9
$SPLFRAME
 70
     0
  9
$SPLINETYPE
 70
     6
  9
$SPLINESEGS
 70
     8
  9
$HANDSEED
  5
40B
  9
$SURFTAB1
 70
     6
  9
$SURFTAB2
 70
     6
  9
$SURFTYPE
 70
     6
  9
$SURFU
 70
     6
  9
$SURFV
 70
     6
  9
$UCSBASE
  2

  9
$UCSNAME
  2

  9
$UCSORG
 10
0.0
 20
0.0
 30
0.0
  9
$UCSXDIR
 10
1.0
 20
0.0
 30
0.0
  9
$UCSYDIR
 10
0.0
 20
1.0
 30
0.0
  9
$UCSORTHOREF
  2

  9
$UCSORTHOVIEW
 70
     0
  9
$UCSORGTOP
 10
0.0
 20
0.0
 30
0.0
  9
$UCSORGBOTTOM
 10
0.0
 20
0.0
 30
0.0
  9
$UCSORGLEFT
 10
0.0
 20
0.0
 30
0.0
  9
$UCSORGRIGHT
 10
0.0
 20
0.0
 30
0.0
  9
$UCSORGFRONT
 10
0.0
 20
0.0
 30
0.0
  9
$UCSORGBACK
 10
0.0
 20
0.0
 30
0.0
  9
$PUCSBASE
  2

  9
$PUCSNAME
  2

  9
$PUCSORG
 10
0.0
 20
0.0
 30
0.0
  9
$PUCSXDIR
 10
1.0
 20
0.0
 30
0.0
  9
$PUCSYDIR
 10
0.0
 20
1.0
 30
0.0
  9
$PUCSORTHOREF
  2

  9
$PUCSORTHOVIEW
 70
     0
  9
$PUCSORGTOP
 10
0.0
 20
0.0
 30
0.0
  9
$PUCSORGBOTTOM
 10
0.0
 20
0.0
 30
0.0
  9
$PUCSORGLEFT
 10
0.0
 20
0.0
 30
0.0
  9
$PUCSORGRIGHT
 10
0.0
 20
0.0
 30
0.0
  9
$PUCSORGFRONT
 10
0.0
 20
0.0
 30
0.0
  9
$PUCSORGBACK
 10
0.0
 20
0.0
 30
0.0
  9
$USERI1
 70
     0
  9
$USERI2
 70
     0
  9
$USERI3
 70
     0
  9
$USERI4
 70
     0
  9
$USERI5
 70
     0
  9
$USERR1
 40
0.0
  9
$USERR2
 40
0.0
  9
$USERR3
 40
0.0
  9
$USERR4
 40
0.0
  9
$USERR5
 40
0.0
  9
$WORLDVIEW
 70
     1
  9
$SHADEDGE
 70
     3
  9
$SHADEDIF
 70
    70
  9
$TILEMODE
 70
     1
  9
$MAXACTVP
 70
    64
  9
$PINSBASE
 10
0.0
 20
0.0
 30
0.0
  9
$PLIMCHECK
 70
     0
  9
$PEXTMIN
 10
1.0000000000E+20
 20
1.0000000000E+20
 30
1.0000000000E+20
  9
$PEXTMAX
 10
-1.0000000000E+20
 20
-1.0000000000E+20
 30
-1.0000000000E+20
  9
$PLIMMIN
 10
0.0
 20
0.0
  9
$PLIMMAX
 10
420.0
 20
297.0
  9
$UNITMODE
 70
     0
  9
$VISRETAIN
 70
     1
  9
$PLINEGEN
 70
     0
  9
$PSLTSCALE
 70
     1
  9
$TREEDEPTH
 70
  3020
  9
$CMLSTYLE
  2
Standard
  9
$CMLJUST
 70
     0
  9
$CMLSCALE
 40
20.0
  9
$PROXYGRAPHICS
 70
     1
  9
$MEASUREMENT
 70
     1
  9
$CELWEIGHT
370
    -1
  9
$ENDCAPS
280
     0
  9
$JOINSTYLE
280
     0
  9
$LWDISPLAY
290
     1
  9
$INSUNITS
 70
     4
  9
$HYPERLINKBASE
  1

  9
$STYLESHEET
  1

  9
$XEDIT
290
     1
  9
$CEPSNTYPE
380
     0
  9
$PSTYLEMODE
290
     1
  9
$FINGERPRINTGUID
  2
{3C4A494D-2CED-47E7-BE94-586FEE035022}
  9
$VERSIONGUID
  2
{FAEB1C32-E019-11D5-929B-00C0DF256EC4}
  9
$EXTNAMES
290
     1
  9
$PSVPSCALE
 40
0.0
  9
$OLESTARTUP
290
     0
  9
$SORTENTS
280
   127
  9
$INDEXCTL
280
     0
  9
$HIDETEXT
280
     1
  9
$XCLIPFRAME
280
     2
  9
$HALOGAP
280
     0
  9
$OBSCOLOR
 70
   257
  9
$OBSLTYPE
280
     0
  9
$INTERSECTIONDISPLAY
280
     0
  9
$INTERSECTIONCOLOR
 70
   257
  9
$DIMASSOC
280
     2
  9
$PROJECTNAME
  1

  9
$CAMERADISPLAY
290
     0
  9
$LENSLENGTH
 40
50.0
  9
$CAMERAHEIGHT
 40
0.0
  9
$STEPSPERSEC
 40
2.0
  9
$STEPSIZE
 40
6.0
  9
$3DDWFPREC
 40
2.0
  9
$PSOLWIDTH
 40
5.0
  9
$PSOLHEIGHT
 40
80.0
  9
$LOFTANG1
 40
1.5707963268
  9
$LOFTANG2
 40
1.5707963268
  9
$LOFTMAG1
 40
0.0
  9
$LOFTMAG2
 40
0.0
  9
$LOFTPARAM
 70
     7
  9
$LOFTNORMALS
280
     1
  9
$LATITUDE
 40
37.795
  9
$LONGITUDE
 40
-122.394
  9
$NORTHDIRECTION
 40
0.0
  9
$TIMEZONE
 70
 -8000
  9
$LIGHTGLYPHDISPLAY
280
     1
  9
$TILEMODELIGHTSYNCH
280
     1
  9
$CMATERIAL
347
44
  9
$SOLIDHIST
280
     0
  9
$SHOWHIST
280
     1
  9
$DWFFRAME
280
     2
  9
$DGNFRAME
280
     2
  9
$REALWORLDSCALE
290
     1
  9
$INTERFERECOLOR
 62
   256
  9
$CSHADOW
280
     0
  9
$SHADOWPLANELOCATION
 40
0.0
  0
ENDSEC
  0
SECTION
  2
CLASSES
  0
CLASS
  1
ACDBDICTIONARYWDFLT
  2
AcDbDictionaryWithDefault
  3
ObjectDBX Classes
 90
        0
 91
        4
280
     0
281
     0
  0
CLASS
  1
VISUALSTYLE
  2
AcDbVisualStyle
  3
ObjectDBX Classes
 90
     4095
 91
        4
280
     0
281
     0
  0
CLASS
  1
MATERIAL
  2
AcDbMaterial
  3
ObjectDBX Classes
 90
     1153
 91
        4
280
     0
281
     0
  0
CLASS
  1
SCALE
  2
AcDbScale
  3
ObjectDBX Classes
 90
     1153
 91
        4
280
     0
281
     0
  0
CLASS
  1
TABLESTYLE
  2
AcDbTableStyle
  3
ObjectDBX Classes
 90
     4095
 91
        4
280
     0
281
     0
  0
CLASS
  1
MLEADERSTYLE
  2
AcDbMLeaderStyle
  3
ACDB_MLEADERSTYLE_CLASS
 90
     4095
 91
        4
280
     0
281
     0
  0
CLASS
  1
SUN
  2
AcDbSun
  3
SCENEOE
 90
     1153
 91
        4
280
     0
281
     0
  0
CLASS
  1
DICTIONARYVAR
  2
AcDbDictionaryVar
  3
ObjectDBX Classes
 90
        0
 91
        4
280
     0
281
     0
  0
CLASS
  1
CELLSTYLEMAP
  2
AcDbCellStyleMap
  3
ObjectDBX Classes
 90
     1152
 91
        4
280
     0
281
     0
  0
ENDSEC
  0
SECTION
  2
TABLES
  0
TABLE
  2
VPORT
  5
8
330
0
100
AcDbSymbolTable
 70
     1
  0
VPORT
  5
29
330
8
100
AcDbSymbolTableRecord
100
AcDbViewportTableRecord
  2
*Active
 70
     0
 10
0.0
 20
0.0
 11
1.0
 21
1.0
 12
710.0
 22
648.5
 13
0.0
 23
0.0
 14
10.0
 24
10.0
 15
10.0
 25
10.0
 16
0.0
 26
0.0
 36
1.0
 17
0.0
 27
0.0
 37
0.0
 40
1297.0
 41
1.0948342328
 42
50.0
 43
0.0
 44
0.0
 50
0.0
 51
0.0
 71
     0
 72
  2000
 73
     1
 74
     3
 75
     0
 76
     0
 77
     0
 78
     0
281
     0
 65
     1
110
0.0
120
0.0
130
0.0
111
1.0
121
0.0
131
0.0
112
0.0
122
1.0
132
0.0
 79
     0
146
0.0
348
2F
 60
     3
 61
     5
292
     1
282
     1
141
0.0
142
0.0
 63
   250
361
6D
  0
ENDTAB
  0
TABLE
  2
LTYPE
  5
5
330
0
100
AcDbSymbolTable
 70
     8
  0
LTYPE
  5
14
330
5
100
AcDbSymbolTableRecord
100
AcDbLinetypeTableRecord
  2
ByBlock
 70
     0
  3

 72
    65
 73
     0
 40
0.0
  0
LTYPE
  5
15
330
5
100
AcDbSymbolTableRecord
100
AcDbLinetypeTableRecord
  2
ByLayer
 70
     0
  3

 72
    65
 73
     0
 40
0.0
  0
LTYPE
  5
16
330
5
100
AcDbSymbolTableRecord
100
AcDbLinetypeTableRecord
  2
Continuous
 70
     0
  3
Solid line
 72
    65
 73
     0
 40
0.0
  0
LTYPE
  5
6E
330
5
100
AcDbSymbolTableRecord
100
AcDbLinetypeTableRecord
  2
SLD-Сплошная
 70
     0
  3
SolidWorks Line Style
 72
    65
 73
     0
 40
0.0
  0
LTYPE
  5
6F
330
5
100
AcDbSymbolTableRecord
100
AcDbLinetypeTableRecord
  2
SLD-Штриховая
 70
     0
  3
SolidWorks Line Style
 72
    65
 73
     2
 40
1.905
 49
1.27
 74
     0
 49
-0.635
 74
     0
  0
LTYPE
  5
70
330
5
100
AcDbSymbolTableRecord
100
AcDbLinetypeTableRecord
  2
SLD-Штрихпункт.-с-двумя-точками
 70
     0
  3
SolidWorks Line Style
 72
    65
 73
     6
 40
12.7
 49
6.35
 74
     0
 49
-1.27
 74
     0
 49
1.27
 74
     0
 49
-1.27
 74
     0
 49
1.27
 74
     0
 49
-1.27
 74
     0
  0
LTYPE
  5
71
330
5
100
AcDbSymbolTableRecord
100
AcDbLinetypeTableRecord
  2
SLD-Штрихпункт.-утолщ.
 70
     0
  3
SolidWorks Line Style
 72
    65
 73
     4
 40
10.16
 49
6.35
 74
     0
 49
-1.27
 74
     0
 49
1.27
 74
     0
 49
-1.27
 74
     0
  0
LTYPE
  5
72
330
5
100
AcDbSymbolTableRecord
100
AcDbLinetypeTableRecord
  2
SLD-Осевая
 70
     0
  3
SolidWorks Line Style
 72
    65
 73
     4
 40
19.05
 49
15.24
 74
     0
 49
-1.27
 74
     0
 49
1.27
 74
     0
 49
-1.27
 74
     0
  0
LTYPE
  5
73
330
5
100
AcDbSymbolTableRecord
100
AcDbLinetypeTableRecord
  2
SLD-Сшитая
 70
     0
  3
SolidWorks Line Style
 72
    65
 73
     2
 40
0.635
 49
0.0
 74
     0
 49
-0.635
 74
     0
  0
LTYPE
  5
74
330
5
100
AcDbSymbolTableRecord
100
AcDbLinetypeTableRecord
  2
SLD-Тонкая-Толстая
 70
     0
  3
SolidWorks Line Style
 72
    65
 73
     2
 40
5.080508
 49
0.000508
 74
     0
 49
-5.08
 74
     0
  0
ENDTAB
  0
TABLE
  2
LAYER
  5
2
330
0
100
AcDbSymbolTable
 70
     5
  0
LAYER
  5
10
330
2
100
AcDbSymbolTableRecord
100
AcDbLayerTableRecord
  2
0
 70
     0
 62
     7
  6
Continuous
370
    -3
390
F
347
46
348
0
  0
LAYER
  5
75
330
2
100
AcDbSymbolTableRecord
100
AcDbLayerTableRecord
  2
ОСНОВНОЙ
 70
     0
 62
   236
  6
SLD-Сплошная
370
    35
390
F
347
46
348
0
  0
LAYER
  5
76
330
2
100
AcDbSymbolTableRecord
100
AcDbLayerTableRecord
  2
HELP
 70
     0
 62
   -57
  6
SLD-Сплошная
290
     0
370
    -3
390
F
347
46
348
0
  0
LAYER
  5
77
330
2
100
AcDbSymbolTableRecord
100
AcDbLayerTableRecord
  2
ТЕКСТ
 70
     0
 62
   150
  6
SLD-Сплошная
370
    -3
390
F
347
46
348
0
  0
LAYER
  5
78
330
2
100
AcDbSymbolTableRecord
100
AcDbLayerTableRecord
  2
ТОНКИЙ
 70
     0
 62
   174
  6
SLD-Сплошная
370
    -3
390
F
347
46
348
0
  0
ENDTAB
  0
TABLE
  2
STYLE
  5
3
330
0
100
AcDbSymbolTable
 70
     1
  0
STYLE
  5
11
330
3
100
AcDbSymbolTableRecord
100
AcDbTextStyleTableRecord
  2
Standard
 70
     0
 40
0.0
 41
1.0
 50
0.0
 71
     0
 42
5.0
  3
txt
  4

  0
ENDTAB
  0
TABLE
  2
VIEW
  5
6
330
0
100
AcDbSymbolTable
 70
     0
  0
ENDTAB
  0
TABLE
  2
UCS
  5
7
330
0
100
AcDbSymbolTable
 70
     0
  0
ENDTAB
  0
TABLE
  2
APPID
  5
9
330
0
100
AcDbSymbolTable
 70
     1
  0
APPID
  5
12
330
9
100
AcDbSymbolTableRecord
100
AcDbRegAppTableRecord
  2
ACAD
 70
     0
  0
ENDTAB
  0
TABLE
  2
DIMSTYLE
  5
A
330
0
100
AcDbSymbolTable
 70
     1
100
AcDbDimStyleTable
  0
DIMSTYLE
105
27
330
A
100
AcDbSymbolTableRecord
100
AcDbDimStyleTableRecord
  2
ISO-25
 70
     0
 41
2.5
 42
0.625
 43
3.75
 44
1.25
 73
     0
 74
     0
 77
     1
 78
     8
140
2.5
141
2.5
143
0.0393700787
147
0.625
171
     3
172
     1
178
     0
271
     2
272
     2
274
     3
278
    44
283
     0
284
     8
340
11
  0
ENDTAB
  0
TABLE
  2
BLOCK_RECORD
  5
1
330
0
100
AcDbSymbolTable
 70
     1
  0
BLOCK_RECORD
  5
1F
330
1
100
AcDbSymbolTableRecord
100
AcDbBlockTableRecord
  2
*Model_Space
340
22
 70
     0
280
     1
281
     0
  0
BLOCK_RECORD
  5
1B
330
1
100
AcDbSymbolTableRecord
100
AcDbBlockTableRecord
  2
*Paper_Space
340
1E
 70
     0
280
     1
281
     0
  0
BLOCK_RECORD
  5
23
330
1
100
AcDbSymbolTableRecord
100
AcDbBlockTableRecord
  2
*Paper_Space0
340
26
 70
     0
280
     1
281
     0
  0
ENDTAB
  0
ENDSEC
  0
SECTION
  2
BLOCKS
  0
BLOCK
  5
20
330
1F
100
AcDbEntity
  8
0
100
AcDbBlockBegin
  2
*Model_Space
 70
     0
 10
0.0
 20
0.0
 30
0.0
  3
*Model_Space
  1

  0
ENDBLK
  5
21
330
1F
100
AcDbEntity
  8
0
100
AcDbBlockEnd
  0
BLOCK
  5
1C
330
1B
100
AcDbEntity
 67
     1
  8
0
100
AcDbBlockBegin
  2
*Paper_Space
 70
     0
 10
0.0
 20
0.0
 30
0.0
  3
*Paper_Space
  1

  0
ENDBLK
  5
1D
330
1B
100
AcDbEntity
 67
     1
  8
0
100
AcDbBlockEnd
  0
BLOCK
  5
24
330
23
100
AcDbEntity
  8
0
100
AcDbBlockBegin
  2
*Paper_Space0
 70
     0
 10
0.0
 20
0.0
 30
0.0
  3
*Paper_Space0
  1

  0
ENDBLK
  5
25
330
23
100
AcDbEntity
  8
0
100
AcDbBlockEnd
  0
ENDSEC
  0
SECTION
  2
ENTITIES
  0
ARC
  5
79
330
1F
100
AcDbEntity
  8
0
  6
SLD-Сплошная
 62
     7
370
    35
100
AcDbCircle
 10
505.3844543979
 20
304.9844543979
 30
0.0
 40
0.5155456020629003
100
AcDbArc
 50
290.0
 51
90.0
  0
ARC
  5
7A
330
1F
100
AcDbEntity
  8
0
  6
SLD-Сплошная
 62
     7
370
    35
100
AcDbCircle
 10
494.6155456021
 20
304.9844543979
 30
0.0
 40
0.5155456020629003
100
AcDbArc
 50
90.0
 51
250.0
  0
LINE
  5
7B
330
1F
100
AcDbEntity
  8
0
  6
SLD-Сплошная
 62
     7
370
    35
100
AcDbLine
 10
494.4392186214
 20
304.5
 30
0.0
 11
495.7964834066
 21
304.0059960182
 31
0.0
  0
LINE
  5
7C
330
1F
100
AcDbEntity
  8
0
  6
SLD-Сплошная
 62
     7
370
    35
100
AcDbLine
 10
504.2141169867
 20
304.0098542458
 30
0.0
 11
505.5607813786
 21
304.5
 31
0.0
  0
ARC
  5
7D
330
1F
100
AcDbEntity
  8
0
  6
SLD-Сплошная
 62
     7
370
    35
100
AcDbCircle
 10
495.7000294357
 20
303.7233003643
 30
0.0
 40
0.2999722757576978
100
AcDbArc
 50
7.7671773654
 51
71.348521204
  0
ARC
  5
7E
330
1F
100
AcDbEntity
  8
0
  6
SLD-Сплошная
 62
     7
370
    35
100
AcDbCircle
 10
504.2999714457
 20
303.7233104501
 30
0.0
 40
0.2999732357819902
100
AcDbArc
 50
107.300956313
 51
172.2622239196
  0
ARC
  5
7F
330
1F
100
AcDbEntity
  8
0
  6
SLD-Сплошная
 62
     7
370
    35
100
AcDbCircle
 10
305.3844543979
 20
304.9844543979
 30
0.0
 40
0.5155456020629003
100
AcDbArc
 50
290.0
 51
90.0
  0
ARC
  5
80
330
1F
100
AcDbEntity
  8
0
  6
SLD-Сплошная
 62
     7
370
    35
100
AcDbCircle
 10
294.6155456021
 20
304.9844543979
 30
0.0
 40
0.5155456020629003
100
AcDbArc
 50
90.0
 51
250.0
  0
LINE
  5
81
330
1F
100
AcDbEntity
  8
0
  6
SLD-Сплошная
 62
     7
370
    35
100
AcDbLine
 10
294.4392186214
 20
304.5
 30
0.0
 11
295.7964834066
 21
304.0059960182
 31
0.0
  0
LINE
  5
82
330
1F
100
AcDbEntity
  8
0
  6
SLD-Сплошная
 62
     7
370
    35
100
AcDbLine
 10
304.2141169867
 20
304.0098542458
 30
0.0
 11
305.5607813786
 21
304.5
 31
0.0
  0
ARC
  5
83
330
1F
100
AcDbEntity
  8
0
  6
SLD-Сплошная
 62
     7
370
    35
100
AcDbCircle
 10
295.7000294357
 20
303.7233003643
 30
0.0
 40
0.2999722757576822
100
AcDbArc
 50
7.7671773654
 51
71.348521204
  0
ARC
  5
84
330
1F
100
AcDbEntity
  8
0
  6
SLD-Сплошная
 62
     7
370
    35
100
AcDbCircle
 10
304.2999714457
 20
303.7233104501
 30
0.0
 40
0.2999732357819339
100
AcDbArc
 50
107.300956313
 51
172.2622239196
  0
ARC
  5
85
330
1F
100
AcDbEntity
  8
0
  6
SLD-Сплошная
 62
     7
370
    35
100
AcDbCircle
 10
-294.6155456021
 20
304.9844543979
 30
0.0
 40
0.5155456020629003
100
AcDbArc
 50
290.0
 51
90.0
  0
ARC
  5
86
330
1F
100
AcDbEntity
  8
0
  6
SLD-Сплошная
 62
     7
370
    35
100
AcDbCircle
 10
-305.3844543979
 20
304.9844543979
 30
0.0
 40
0.5155456020629003
100
AcDbArc
 50
90.0
 51
250.0
  0
LINE
  5
87
330
1F
100
AcDbEntity
  8
0
  6
SLD-Сплошная
 62
     7
370
    35
100
AcDbLine
 10
-305.5607813786
 20
304.5
 30
0.0
 11
-304.2035165934
 21
304.0059960182
 31
0.0
  0
LINE
  5
88
330
1F
100
AcDbEntity
  8
0
  6
SLD-Сплошная
 62
     7
370
    35
100
AcDbLine
 10
-295.7858830133
 20
304.0098542458
 30
0.0
 11
-294.4392186214
 21
304.5
 31
0.0
  0
ARC
  5
89
330
1F
100
AcDbEntity
  8
0
  6
SLD-Сплошная
 62
     7
370
    35
100
AcDbCircle
 10
-304.2999705643
 20
303.7233003643
 30
0.0
 40
0.2999722757574338
100
AcDbArc
 50
7.7671773653
 51
71.348521204
  0
ARC
  5
8A
330
1F
100
AcDbEntity
  8
0
  6
SLD-Сплошная
 62
     7
370
    35
100
AcDbCircle
 10
-295.7000285543
 20
303.7233104501
 30
0.0
 40
0.2999732357819415
100
AcDbArc
 50
107.300956313
 51
172.2622239196
  0
ARC
  5
8B
330
1F
100
AcDbEntity
  8
0
  6
SLD-Сплошная
 62
     7
370
    35
100
AcDbCircle
 10
105.3844543979
 20
304.9844543979
 30
0.0
 40
0.5155456020629003
100
AcDbArc
 50
290.0
 51
90.0
  0
ARC
  5
8C
330
1F
100
AcDbEntity
  8
0
  6
SLD-Сплошная
 62
     7
370
    35
100
AcDbCircle
 10
94.6155456021
 20
304.9844543979
 30
0.0
 40
0.5155456020629003
100
AcDbArc
 50
90.0
 51
250.0
  0
LINE
  5
8D
330
1F
100
AcDbEntity
  8
0
  6
SLD-Сплошная
 62
     7
370
    35
100
AcDbLine
 10
94.4392186214
 20
304.5
 30
0.0
 11
95.7964834066
 21
304.0059960182
 31
0.0
  0
LINE
  5
8E
330
1F
100
AcDbEntity
  8
0
  6
SLD-Сплошная
 62
     7
370
    35
100
AcDbLine
 10
104.2141169867
 20
304.0098542458
 30
0.0
 11
105.5607813786
 21
304.5
 31
0.0
  0
ARC
  5
8F
330
1F
100
AcDbEntity
  8
0
  6
SLD-Сплошная
 62
     7
370
    35
100
AcDbCircle
 10
95.7000294357
 20
303.7233003643
 30
0.0
 40
0.299972275757512
100
AcDbArc
 50
7.7671773653
 51
71.348521204
  0
ARC
  5
90
330
1F
100
AcDbEntity
  8
0
  6
SLD-Сплошная
 62
     7
370
    35
100
AcDbCircle
 10
104.2999714457
 20
303.7233104501
 30
0.0
 40
0.299973235781878
100
AcDbArc
 50
107.300956313
 51
172.2622239196
  0
ARC
  5
91
330
1F
100
AcDbEntity
  8
0
  6
SLD-Сплошная
 62
     7
370
    35
100
AcDbCircle
 10
-94.6155456021
 20
304.9844543979
 30
0.0
 40
0.5155456020629003
100
AcDbArc
 50
290.0
 51
90.0
  0
ARC
  5
92
330
1F
100
AcDbEntity
  8
0
  6
SLD-Сплошная
 62
     7
370
    35
100
AcDbCircle
 10
-105.3844543979
 20
304.9844543979
 30
0.0
 40
0.5155456020629003
100
AcDbArc
 50
90.0
 51
250.0
  0
LINE
  5
93
330
1F
100
AcDbEntity
  8
0
  6
SLD-Сплошная
 62
     7
370
    35
100
AcDbLine
 10
-105.5607813786
 20
304.5
 30
0.0
 11
-104.2035165934
 21
304.0059960182
 31
0.0
  0
LINE
  5
94
330
1F
100
AcDbEntity
  8
0
  6
SLD-Сплошная
 62
     7
370
    35
100
AcDbLine
 10
-95.7858830133
 20
304.0098542458
 30
0.0
 11
-94.4392186214
 21
304.5
 31
0.0
  0
ARC
  5
95
330
1F
100
AcDbEntity
  8
0
  6
SLD-Сплошная
 62
     7
370
    35
100
AcDbCircle
 10
-104.2999705643
 20
303.7233003643
 30
0.0
 40
0.2999722757574979
100
AcDbArc
 50
7.7671773653
 51
71.348521204
  0
ARC
  5
96
330
1F
100
AcDbEntity
  8
0
  6
SLD-Сплошная
 62
     7
370
    35
100
AcDbCircle
 10
-95.7000285543
 20
303.7233104501
 30
0.0
 40
0.2999732357817995
100
AcDbArc
 50
107.300956313
 51
172.2622239196
  0
ARC
  5
97
330
1F
100
AcDbEntity
  8
0
  6
SLD-Сплошная
 62
     7
370
    35
100
AcDbCircle
 10
-494.6155456021
 20
304.9844543979
 30
0.0
 40
0.5155456020629003
100
AcDbArc
 50
290.0
 51
90.0
  0
ARC
  5
98
330
1F
100
AcDbEntity
  8
0
  6
SLD-Сплошная
 62
     7
370
    35
100
AcDbCircle
 10
-505.3844543979
 20
304.9844543979
 30
0.0
 40
0.5155456020629003
100
AcDbArc
 50
90.0
 51
250.0
  0
LINE
  5
99
330
1F
100
AcDbEntity
  8
0
  6
SLD-Сплошная
 62
     7
370
    35
100
AcDbLine
 10
-505.5607813786
 20
304.5
 30
0.0
 11
-504.2035165934
 21
304.0059960182
 31
0.0
  0
LINE
  5
9A
330
1F
100
AcDbEntity
  8
0
  6
SLD-Сплошная
 62
     7
370
    35
100
AcDbLine
 10
-495.7858830133
 20
304.0098542458
 30
0.0
 11
-494.4392186214
 21
304.5
 31
0.0
  0
ARC
  5
9B
330
1F
100
AcDbEntity
  8
0
  6
SLD-Сплошная
 62
     7
370
    35
100
AcDbCircle
 10
-504.2999705643
 20
303.7233003643
 30
0.0
 40
0.2999722757571625
100
AcDbArc
 50
7.7671773653
 51
71.348521204
  0
ARC
  5
9C
330
1F
100
AcDbEntity
  8
0
  6
SLD-Сплошная
 62
     7
370
    35
100
AcDbCircle
 10
-495.7000285543
 20
303.7233104501
 30
0.0
 40
0.2999732357818949
100
AcDbArc
 50
107.300956313
 51
172.2622239196
  0
ARC
  5
9D
330
1F
100
AcDbEntity
  8
0
  6
SLD-Сплошная
 62
     7
370
    35
100
AcDbCircle
 10
494.6
 20
308.4
 30
0.0
 40
0.5
100
AcDbArc
 50
110.0
 51
270.0
  0
ARC
  5
9E
330
1F
100
AcDbEntity
  8
0
  6
SLD-Сплошная
 62
     7
370
    35
100
AcDbCircle
 10
505.4
 20
308.4
 30
0.0
 40
0.5
100
AcDbArc
 50
270.0
 51
70.0
  0
LINE
  5
9F
330
1F
100
AcDbEntity
  8
0
  6
SLD-Сплошная
 62
     7
370
    35
100
AcDbLine
 10
505.5710100717
 20
308.8698463104
 30
0.0
 11
504.4493984751
 21
309.278079546
 31
0.0
  0
LINE
  5
A0
330
1F
100
AcDbEntity
  8
0
  6
SLD-Сплошная
 62
     7
370
    35
100
AcDbLine
 10
495.3578307971
 20
309.207916739
 30
0.0
 11
494.4289899283
 21
308.8698463104
 31
0.0
  0
LINE
  5
A1
330
1F
100
AcDbEntity
  8
0
  6
SLD-Сплошная
 62
     7
370
    35
100
AcDbLine
 10
497.5
 20
300.5
 30
0.0
 11
497.5
 21
296.345
 31
0.0
  0
LINE
  5
A2
330
1F
100
AcDbEntity
  8
0
  6
SLD-Сплошная
 62
     7
370
    35
100
AcDbLine
 10
502.5
 20
296.345
 30
0.0
 11
502.5
 21
300.5
 31
0.0
  0
LINE
  5
A3
330
1F
100
AcDbEntity
  8
0
  6
SLD-Сплошная
 62
     7
370
    35
100
AcDbLine
 10
497.5
 20
296.345
 30
0.0
 11
497.945
 21
295.9
 31
0.0
  0
LINE
  5
A4
330
1F
100
AcDbEntity
  8
0
  6
SLD-Сплошная
 62
     7
370
    35
100
AcDbLine
 10
502.055
 20
295.9
 30
0.0
 11
502.5
 21
296.345
 31
0.0
  0
LINE
  5
A5
330
1F
100
AcDbEntity
  8
0
  6
SLD-Сплошная
 62
     7
370
    35
100
AcDbLine
 10
496.0
 20
313.3
 30
0.0
 11
495.7470679007
 21
313.1539695844
 31
0.0
  0
LINE
  5
A6
330
1F
100
AcDbEntity
  8
0
  6
SLD-Сплошная
 62
     7
370
    35
100
AcDbLine
 10
504.2529320993
 20
313.1539695844
 30
0.0
 11
504.0
 21
313.3
 31
0.0
  0
ARC
  5
A7
330
1F
100
AcDbEntity
  8
0
  6
SLD-Сплошная
 62
     7
370
    35
100
AcDbCircle
 10
-105.4
 20
308.4
 30
0.0
 40
0.5
100
AcDbArc
 50
110.0
 51
270.0
  0
ARC
  5
A8
330
1F
100
AcDbEntity
  8
0
  6
SLD-Сплошная
 62
     7
370
    35
100
AcDbCircle
 10
-94.6
 20
308.4
 30
0.0
 40
0.5
100
AcDbArc
 50
270.0
 51
70.0
  0
LINE
  5
A9
330
1F
100
AcDbEntity
  8
0
  6
SLD-Сплошная
 62
     7
370
    35
100
AcDbLine
 10
-94.4289899283
 20
308.8698463104
 30
0.0
 11
-95.5506015249
 21
309.278079546
 31
0.0
  0
LINE
  5
AA
330
1F
100
AcDbEntity
  8
0
  6
SLD-Сплошная
 62
     7
370
    35
100
AcDbLine
 10
-104.6421692029
 20
309.207916739
 30
0.0
 11
-105.5710100717
 21
308.8698463104
 31
0.0
  0
LINE
  5
AB
330
1F
100
AcDbEntity
  8
0
  6
SLD-Сплошная
 62
     7
370
    35
100
AcDbLine
 10
-102.5
 20
300.5
 30
0.0
 11
-102.5
 21
296.345
 31
0.0
  0
LINE
  5
AC
330
1F
100
AcDbEntity
  8
0
  6
SLD-Сплошная
 62
     7
370
    35
100
AcDbLine
 10
-97.5
 20
296.345
 30
0.0
 11
-97.5
 21
300.5
 31
0.0
  0
LINE
  5
AD
330
1F
100
AcDbEntity
  8
0
  6
SLD-Сплошная
 62
     7
370
    35
100
AcDbLine
 10
-102.5
 20
296.345
 30
0.0
 11
-102.055
 21
295.9
 31
0.0
  0
LINE
  5
AE
330
1F
100
AcDbEntity
  8
0
  6
SLD-Сплошная
 62
     7
370
    35
100
AcDbLine
 10
-97.945
 20
295.9
 30
0.0
 11
-97.5
 21
296.345
 31
0.0
  0
LINE
  5
AF
330
1F
100
AcDbEntity
  8
0
  6
SLD-Сплошная
 62
     7
370
    35
100
AcDbLine
 10
-104.0
 20
313.3
 30
0.0
 11
-104.2529320993
 21
313.1539695844
 31
0.0
  0
LINE
  5
B0
330
1F
100
AcDbEntity
  8
0
  6
SLD-Сплошная
 62
     7
370
    35
100
AcDbLine
 10
-95.7470679007
 20
313.1539695844
 30
0.0
 11
-96.0
 21
313.3
 31
0.0
  0
ARC
  5
B1
330
1F
100
AcDbEntity
  8
0
  6
SLD-Сплошная
 62
     7
370
    35
100
AcDbCircle
 10
-505.4
 20
308.4
 30
0.0
 40
0.5
100
AcDbArc
 50
110.0
 51
270.0
  0
ARC
  5
B2
330
1F
100
AcDbEntity
  8
0
  6
SLD-Сплошная
 62
     7
370
    35
100
AcDbCircle
 10
-494.6
 20
308.4
 30
0.0
 40
0.5
100
AcDbArc
 50
270.0
 51
70.0
  0
LINE
  5
B3
330
1F
100
AcDbEntity
  8
0
  6
SLD-Сплошная
 62
     7
370
    35
100
AcDbLine
 10
-494.4289899283
 20
308.8698463104
 30
0.0
 11
-495.5506015249
 21
309.278079546
 31
0.0
  0
LINE
  5
B4
330
1F
100
AcDbEntity
  8
0
  6
SLD-Сплошная
 62
     7
370
    35
100
AcDbLine
 10
-504.6421692029
 20
309.207916739
 30
0.0
 11
-505.5710100717
 21
308.8698463104
 31
0.0
  0
LINE
  5
B5
330
1F
100
AcDbEntity
  8
0
  6
SLD-Сплошная
 62
     7
370
    35
100
AcDbLine
 10
-502.5
 20
300.5
 30
0.0
 11
-502.5
 21
296.345
 31
0.0
  0
LINE
  5
B6
330
1F
100
AcDbEntity
  8
0
  6
SLD-Сплошная
 62
     7
370
    35
100
AcDbLine
 10
-497.5
 20
296.345
 30
0.0
 11
-497.5
 21
300.5
 31
0.0
  0
LINE
  5
B7
330
1F
100
AcDbEntity
  8
0
  6
SLD-Сплошная
 62
     7
370
    35
100
AcDbLine
 10
-502.5
 20
296.345
 30
0.0
 11
-502.055
 21
295.9
 31
0.0
  0
LINE
  5
B8
330
1F
100
AcDbEntity
  8
0
  6
SLD-Сплошная
 62
     7
370
    35
100
AcDbLine
 10
-497.945
 20
295.9
 30
0.0
 11
-497.5
 21
296.345
 31
0.0
  0
LINE
  5
B9
330
1F
100
AcDbEntity
  8
0
  6
SLD-Сплошная
 62
     7
370
    35
100
AcDbLine
 10
-504.0
 20
313.3
 30
0.0
 11
-504.2529320993
 21
313.1539695844
 31
0.0
  0
LINE
  5
BA
330
1F
100
AcDbEntity
  8
0
  6
SLD-Сплошная
 62
     7
370
    35
100
AcDbLine
 10
-495.7470679007
 20
313.1539695844
 30
0.0
 11
-496.0
 21
313.3
 31
0.0
  0
ARC
  5
BB
330
1F
100
AcDbEntity
  8
0
  6
SLD-Сплошная
 62
     7
370
    35
100
AcDbCircle
 10
-305.4
 20
308.4
 30
0.0
 40
0.5
100
AcDbArc
 50
110.0
 51
270.0
  0
ARC
  5
BC
330
1F
100
AcDbEntity
  8
0
  6
SLD-Сплошная
 62
     7
370
    35
100
AcDbCircle
 10
-294.6
 20
308.4
 30
0.0
 40
0.5
100
AcDbArc
 50
270.0
 51
70.0
  0
LINE
  5
BD
330
1F
100
AcDbEntity
  8
0
  6
SLD-Сплошная
 62
     7
370
    35
100
AcDbLine
 10
-294.4289899283
 20
308.8698463104
 30
0.0
 11
-295.5506015249
 21
309.278079546
 31
0.0
  0
LINE
  5
BE
330
1F
100
AcDbEntity
  8
0
  6
SLD-Сплошная
 62
     7
370
    35
100
AcDbLine
 10
-304.6421692029
 20
309.207916739
 30
0.0
 11
-305.5710100717
 21
308.8698463104
 31
0.0
  0
LINE
  5
BF
330
1F
100
AcDbEntity
  8
0
  6
SLD-Сплошная
 62
     7
370
    35
100
AcDbLine
 10
-302.5
 20
300.5
 30
0.0
 11
-302.5
 21
296.345
 31
0.0
  0
LINE
  5
C0
330
1F
100
AcDbEntity
  8
0
  6
SLD-Сплошная
 62
     7
370
    35
100
AcDbLine
 10
-297.5
 20
296.345
 30
0.0
 11
-297.5
 21
300.5
 31
0.0
  0
LINE
  5
C1
330
1F
100
AcDbEntity
  8
0
  6
SLD-Сплошная
 62
     7
370
    35
100
AcDbLine
 10
-302.5
 20
296.345
 30
0.0
 11
-302.055
 21
295.9
 31
0.0
  0
LINE
  5
C2
330
1F
100
AcDbEntity
  8
0
  6
SLD-Сплошная
 62
     7
370
    35
100
AcDbLine
 10
-297.945
 20
295.9
 30
0.0
 11
-297.5
 21
296.345
 31
0.0
  0
LINE
  5
C3
330
1F
100
AcDbEntity
  8
0
  6
SLD-Сплошная
 62
     7
370
    35
100
AcDbLine
 10
-304.0
 20
313.3
 30
0.0
 11
-304.2529320993
 21
313.1539695844
 31
0.0
  0
LINE
  5
C4
330
1F
100
AcDbEntity
  8
0
  6
SLD-Сплошная
 62
     7
370
    35
100
AcDbLine
 10
-295.7470679007
 20
313.1539695844
 30
0.0
 11
-296.0
 21
313.3
 31
0.0
  0
ARC
  5
C5
330
1F
100
AcDbEntity
  8
0
  6
SLD-Сплошная
 62
     7
370
    35
100
AcDbCircle
 10
94.6
 20
308.4
 30
0.0
 40
0.5
100
AcDbArc
 50
110.0
 51
270.0
  0
ARC
  5
C6
330
1F
100
AcDbEntity
  8
0
  6
SLD-Сплошная
 62
     7
370
    35
100
AcDbCircle
 10
105.4
 20
308.4
 30
0.0
 40
0.5
100
AcDbArc
 50
270.0
 51
70.0
  0
LINE
  5
C7
330
1F
100
AcDbEntity
  8
0
  6
SLD-Сплошная
 62
     7
370
    35
100
AcDbLine
 10
105.5710100717
 20
308.8698463104
 30
0.0
 11
104.4493984751
 21
309.278079546
 31
0.0
  0
LINE
  5
C8
330
1F
100
AcDbEntity
  8
0
  6
SLD-Сплошная
 62
     7
370
    35
100
AcDbLine
 10
95.3578307971
 20
309.207916739
 30
0.0
 11
94.4289899283
 21
308.8698463104
 31
0.0
  0
LINE
  5
C9
330
1F
100
AcDbEntity
  8
0
  6
SLD-Сплошная
 62
     7
370
    35
100
AcDbLine
 10
97.5
 20
296.345
 30
0.0
 11
97.945
 21
295.9
 31
0.0
  0
LINE
  5
CA
330
1F
100
AcDbEntity
  8
0
  6
SLD-Сплошная
 62
     7
370
    35
100
AcDbLine
 10
102.055
 20
295.9
 30
0.0
 11
102.5
 21
296.345
 31
0.0
  0
LINE
  5
CB
330
1F
100
AcDbEntity
  8
0
  6
SLD-Сплошная
 62
     7
370
    35
100
AcDbLine
 10
97.5
 20
300.5
 30
0.0
 11
97.5
 21
296.345
 31
0.0
  0
LINE
  5
CC
330
1F
100
AcDbEntity
  8
0
  6
SLD-Сплошная
 62
     7
370
    35
100
AcDbLine
 10
102.5
 20
296.345
 30
0.0
 11
102.5
 21
300.5
 31
0.0
  0
LINE
  5
CD
330
1F
100
AcDbEntity
  8
0
  6
SLD-Сплошная
 62
     7
370
    35
100
AcDbLine
 10
96.0
 20
313.3
 30
0.0
 11
95.7470679007
 21
313.1539695844
 31
0.0
  0
LINE
  5
CE
330
1F
100
AcDbEntity
  8
0
  6
SLD-Сплошная
 62
     7
370
    35
100
AcDbLine
 10
104.2529320993
 20
313.1539695844
 30
0.0
 11
104.0
 21
313.3
 31
0.0
  0
ARC
  5
CF
330
1F
100
AcDbEntity
  8
0
  6
SLD-Сплошная
 62
     7
370
    35
100
AcDbCircle
 10
294.6
 20
308.4
 30
0.0
 40
0.5
100
AcDbArc
 50
110.0
 51
270.0
  0
ARC
  5
D0
330
1F
100
AcDbEntity
  8
0
  6
SLD-Сплошная
 62
     7
370
    35
100
AcDbCircle
 10
305.4
 20
308.4
 30
0.0
 40
0.5
100
AcDbArc
 50
270.0
 51
70.0
  0
LINE
  5
D1
330
1F
100
AcDbEntity
  8
0
  6
SLD-Сплошная
 62
     7
370
    35
100
AcDbLine
 10
305.5710100717
 20
308.8698463104
 30
0.0
 11
304.4493984751
 21
309.278079546
 31
0.0
  0
LINE
  5
D2
330
1F
100
AcDbEntity
  8
0
  6
SLD-Сплошная
 62
     7
370
    35
100
AcDbLine
 10
295.3578307971
 20
309.207916739
 30
0.0
 11
294.4289899283
 21
308.8698463104
 31
0.0
  0
LINE
  5
D3
330
1F
100
AcDbEntity
  8
0
  6
SLD-Сплошная
 62
     7
370
    35
100
AcDbLine
 10
297.5
 20
296.345
 30
0.0
 11
297.945
 21
295.9
 31
0.0
  0
LINE
  5
D4
330
1F
100
AcDbEntity
  8
0
  6
SLD-Сплошная
 62
     7
370
    35
100
AcDbLine
 10
302.055
 20
295.9
 30
0.0
 11
302.5
 21
296.345
 31
0.0
  0
LINE
  5
D5
330
1F
100
AcDbEntity
  8
0
  6
SLD-Сплошная
 62
     7
370
    35
100
AcDbLine
 10
297.5
 20
300.5
 30
0.0
 11
297.5
 21
296.345
 31
0.0
  0
LINE
  5
D6
330
1F
100
AcDbEntity
  8
0
  6
SLD-Сплошная
 62
     7
370
    35
100
AcDbLine
 10
302.5
 20
296.345
 30
0.0
 11
302.5
 21
300.5
 31
0.0
  0
LINE
  5
D7
330
1F
100
AcDbEntity
  8
0
  6
SLD-Сплошная
 62
     7
370
    35
100
AcDbLine
 10
296.0
 20
313.3
 30
0.0
 11
295.7470679007
 21
313.1539695844
 31
0.0
  0
LINE
  5
D8
330
1F
100
AcDbEntity
  8
0
  6
SLD-Сплошная
 62
     7
370
    35
100
AcDbLine
 10
304.2529320993
 20
313.1539695844
 30
0.0
 11
304.0
 21
313.3
 31
0.0
  0
LINE
  5
D9
330
1F
100
AcDbEntity
  8
0
  6
SLD-Сплошная
 62
     7
370
    35
100
AcDbLine
 10
632.4090914783
 20
306.7
 30
0.0
 11
-632.4090914783
 21
306.7
 31
0.0
  0
LINE
  5
DA
330
1F
100
AcDbEntity
  8
0
  6
SLD-Сплошная
 62
     7
370
    35
100
AcDbLine
 10
632.4090914783
 20
305.5
 30
0.0
 11
-632.4090914783
 21
305.5
 31
0.0
  0
LINE
  5
DB
330
1F
100
AcDbEntity
  8
0
  6
SLD-Сплошная
 62
     7
370
    35
100
AcDbLine
 10
-637.4090914783
 20
305.5
 30
0.0
 11
-637.4090914783
 21
306.7
 31
0.0
  0
LINE
  5
DC
330
1F
100
AcDbEntity
  8
0
  6
SLD-Сплошная
 62
     7
370
    35
100
AcDbLine
 10
-632.4090914783
 20
305.5
 30
0.0
 11
-637.4090914783
 21
305.5
 31
0.0
  0
LINE
  5
DD
330
1F
100
AcDbEntity
  8
0
  6
SLD-Сплошная
 62
     7
370
    35
100
AcDbLine
 10
637.4090914783
 20
306.7
 30
0.0
 11
637.4090914783
 21
305.5
 31
0.0
  0
LINE
  5
DE
330
1F
100
AcDbEntity
  8
0
  6
SLD-Сплошная
 62
     7
370
    35
100
AcDbLine
 10
637.4090914783
 20
305.5
 30
0.0
 11
632.4090914783
 21
305.5
 31
0.0
  0
CIRCLE
  5
DF
330
1F
100
AcDbEntity
  8
0
  6
SLD-Сплошная
 62
     7
370
    35
100
AcDbCircle
 10
0.0
 20
-494.1
 30
0.0
 40
2.050000000000011
  0
LINE
  5
E0
330
1F
100
AcDbEntity
  8
0
  6
SLD-Сплошная
 62
     7
370
    35
100
AcDbLine
 10
-637.4090914783
 20
305.5
 30
0.0
 11
-637.4090914783
 21
304.5
 31
0.0
  0
LINE
  5
E1
330
1F
100
AcDbEntity
  8
0
  6
SLD-Сплошная
 62
     7
370
    35
100
AcDbLine
 10
637.4090914783
 20
304.5
 30
0.0
 11
637.4090914783
 21
305.5
 31
0.0
  0
ARC
  5
E2
330
1F
100
AcDbEntity
  8
0
  6
SLD-Сплошная
 62
     7
370
    35
100
AcDbCircle
 10
-750.0
 20
-292.1
 30
0.0
 40
599.0355266391967
100
AcDbArc
 50
0.3778202113
 51
78.7742330987
  0
ARC
  5
E3
330
1F
100
AcDbEntity
  8
0
  6
SLD-Сплошная
 62
     7
370
    35
100
AcDbCircle
 10
-632.4090914783
 20
300.3789411239
 30
0.0
 40
5.0
100
AcDbArc
 50
180.0
 51
258.7742330987
  0
LINE
  5
E4
330
1F
100
AcDbEntity
  8
0
  6
SLD-Сплошная
 62
     7
370
    35
100
AcDbLine
 10
-637.4090914783
 20
304.5
 30
0.0
 11
-637.4090914783
 21
300.3789411239
 31
0.0
  0
LINE
  5
E5
330
1F
100
AcDbEntity
  8
0
  6
SLD-Сплошная
 62
     7
370
    35
100
AcDbLine
 10
637.4090914783
 20
300.3789411239
 30
0.0
 11
637.4090914783
 21
304.5
 31
0.0
  0
ARC
  5
E6
330
1F
100
AcDbEntity
  8
0
  6
SLD-Сплошная
 62
     7
370
    35
100
AcDbCircle
 10
632.4090914783
 20
300.3789411239
 30
0.0
 40
4.999999999999942
100
AcDbArc
 50
281.2257669013
 51
0.0
  0
ARC
  5
E7
330
1F
100
AcDbEntity
  8
0
  6
SLD-Сплошная
 62
     7
370
    35
100
AcDbCircle
 10
750.0
 20
-292.1
 30
0.0
 40
599.0355266391967
100
AcDbArc
 50
101.2257669013
 51
179.6221797887
  0
ARC
  5
E8
330
1F
100
AcDbEntity
  8
0
  6
SLD-Сплошная
 62
     7
370
    35
100
AcDbCircle
 10
145.9776061212
 20
-288.1168937697
 30
0.0
 40
5.000000000000064
100
AcDbArc
 50
312.6287966705
 51
359.6221797887
  0
ARC
  5
E9
330
1F
100
AcDbEntity
  8
0
  6
SLD-Сплошная
 62
     7
370
    35
100
AcDbCircle
 10
150.5
 20
-294.3
 30
0.0
 40
2.750000000000054
100
AcDbArc
 50
114.4029164586
 51
236.9442688491
  0
LINE
  5
EA
330
1F
100
AcDbEntity
  8
0
  6
SLD-Сплошная
 62
     7
370
    35
100
AcDbLine
 10
149.0
 20
-296.6048861143
 30
0.0
 11
149.0
 21
-297.1
 31
0.0
  0
LINE
  5
EB
330
1F
100
AcDbEntity
  8
0
  6
SLD-Сплошная
 62
     7
370
    35
100
AcDbLine
 10
149.0
 20
-504.1
 30
0.0
 11
149.0
 21
-479.1
 31
0.0
  0
ARC
  5
EC
330
1F
100
AcDbEntity
  8
0
  6
SLD-Сплошная
 62
     7
370
    35
100
AcDbCircle
 10
144.0
 20
-504.1
 30
0.0
 40
5.000000000000142
100
AcDbArc
 50
270.0
 51
0.0
  0
LINE
  5
ED
330
1F
100
AcDbEntity
  8
0
  6
SLD-Сплошная
 62
     7
370
    35
100
AcDbLine
 10
-144.0
 20
-509.1
 30
0.0
 11
144.0
 21
-509.1
 31
0.0
  0
ARC
  5
EE
330
1F
100
AcDbEntity
  8
0
  6
SLD-Сплошная
 62
     7
370
    35
100
AcDbCircle
 10
-144.0
 20
-504.1
 30
0.0
 40
5.0
100
AcDbArc
 50
180.0
 51
270.0
  0
LINE
  5
EF
330
1F
100
AcDbEntity
  8
0
  6
SLD-Сплошная
 62
     7
370
    35
100
AcDbLine
 10
-149.0
 20
-504.1
 30
0.0
 11
-149.0
 21
-479.1
 31
0.0
  0
LINE
  5
F0
330
1F
100
AcDbEntity
  8
0
  6
SLD-Сплошная
 62
     7
370
    35
100
AcDbLine
 10
-149.0
 20
-296.6048861143
 30
0.0
 11
-149.0
 21
-297.1
 31
0.0
  0
ARC
  5
F1
330
1F
100
AcDbEntity
  8
0
  6
SLD-Сплошная
 62
     7
370
    35
100
AcDbCircle
 10
-150.5
 20
-294.3
 30
0.0
 40
2.74999999999999
100
AcDbArc
 50
303.0557311509
 51
65.597083542
  0
ARC
  5
F2
330
1F
100
AcDbEntity
  8
0
  6
SLD-Сплошная
 62
     7
370
    35
100
AcDbCircle
 10
-145.9776061212
 20
-288.1168937698
 30
0.0
 40
5.000000000000036
100
AcDbArc
 50
180.3778202113
 51
227.3712033291
  0
LINE
  5
F3
330
1F
100
AcDbEntity
  8
0
  6
SLD-Сплошная
 62
     7
370
    35
100
AcDbLine
 10
151.2
 20
-479.1
 30
0.0
 11
151.2
 21
-297.1
 31
0.0
  0
LINE
  5
F4
330
1F
100
AcDbEntity
  8
0
  6
SLD-Сплошная
 62
     7
370
    35
100
AcDbLine
 10
151.2
 20
-479.1
 30
0.0
 11
149.0
 21
-479.1
 31
0.0
  0
LINE
  5
F5
330
1F
100
AcDbEntity
  8
0
  6
SLD-Сплошная
 62
     7
370
    35
100
AcDbLine
 10
149.0
 20
-297.1
 30
0.0
 11
151.2
 21
-297.1
 31
0.0
  0
LINE
  5
F6
330
1F
100
AcDbEntity
  8
0
  6
SLD-Сплошная
 62
     7
370
    35
100
AcDbLine
 10
-149.0
 20
-479.1
 30
0.0
 11
-151.2
 21
-479.1
 31
0.0
  0
LINE
  5
F7
330
1F
100
AcDbEntity
  8
0
  6
SLD-Сплошная
 62
     7
370
    35
100
AcDbLine
 10
-151.2
 20
-479.1
 30
0.0
 11
-151.2
 21
-297.1
 31
0.0
  0
LINE
  5
F8
330
1F
100
AcDbEntity
  8
0
  6
SLD-Сплошная
 62
     7
370
    35
100
AcDbLine
 10
-151.2
 20
-297.1
 30
0.0
 11
-149.0
 21
-297.1
 31
0.0
  0
LINE
  5
F9
330
1F
100
AcDbEntity
  8
0
  6
SLD-Сплошная
 62
     7
370
    35
100
AcDbLine
 10
495.8015570643
 20
304.0199357781
 30
0.0
 11
495.8015964467
 21
304.0193224936
 31
0.0
  0
LINE
  5
FA
330
1F
100
AcDbEntity
  8
0
  6
SLD-Сплошная
 62
     7
370
    35
100
AcDbLine
 10
504.2001225188
 20
304.0483037301
 30
0.0
 11
504.1995439011
 21
304.038583126
 31
0.0
  0
SPLINE
  5
FB
330
1F
100
AcDbEntity
  8
0
  6
SLD-Сплошная
 62
     7
370
    35
100
AcDbSpline
210
0.0
220
0.0
230
1.0
 70
    24
 71
     3
 72
    12
 73
     8
 74
     0
 42
0.000000001
 43
0.00000001
 40
0.0
 40
0.0
 40
0.0
 40
0.0
 40
0.0086674047364441
 40
0.2676326298829182
 40
0.528661600250874
 40
0.7638461449005823
 40
1.0
 40
1.0
 40
1.0
 40
1.0
 10
500.0000000000002
 20
304.2458850428872
 30
0.0
 10
500.0000000000002
 20
304.2454667745475
 30
0.0
 10
499.9999999999992
 20
304.2325514603152
 30
0.0
 10
500.0000000000007
 20
304.1973309185182
 30
0.0
 10
500.0
 20
304.1233414225051
 30
0.0
 10
500.0000000000006
 20
304.0327416643881
 30
0.0
 10
500.0000000000005
 20
303.9664897181839
 30
0.0
 10
500.0000000000003
 20
303.9332956213052
 30
0.0
  0
SPLINE
  5
FC
330
1F
100
AcDbEntity
  8
0
  6
SLD-Сплошная
 62
     7
370
    35
100
AcDbSpline
210
0.0
220
0.0
230
1.0
 70
     8
 71
     3
 72
    12
 73
     8
 74
     0
 42
0.000000001
 43
0.00000001
 40
0.0
 40
0.0
 40
0.0
 40
0.0
 40
0.0086674047363283
 40
0.267632629882784
 40
0.5286616002507958
 40
0.7638461449005343
 40
0.9999999999999999
 40
0.9999999999999999
 40
0.9999999999999999
 40
0.9999999999999999
 10
495.7888594398181
 20
304.2458850428872
 30
0.0
 10
495.789845767847
 20
304.2454667745475
 30
0.0
 10
495.8203016623478
 20
304.2325514603148
 30
0.0
 10
495.8777942821259
 20
304.1973309185183
 30
0.0
 10
495.9443789750624
 20
304.1233414225051
 30
0.0
 10
495.9905773641674
 20
304.0327416643879
 30
0.0
 10
495.996854818181
 20
303.9664897181839
 30
0.0
 10
496.0000000000002
 20
303.9332956213051
 30
0.0
  0
SPLINE
  5
FD
330
1F
100
AcDbEntity
  8
0
  6
SLD-Сплошная
 62
     7
370
    35
100
AcDbSpline
210
0.0
220
0.0
230
1.0
 70
     8
 71
     3
 72
    12
 73
     8
 74
     0
 42
0.000000001
 43
0.00000001
 40
0.0
 40
0.0
 40
0.0
 40
0.0
 40
0.2361538550994141
 40
0.4713383997490971
 40
0.732367370117046
 40
0.9913325952634743
 40
1.0
 40
1.0
 40
1.0
 40
1.0
 10
504.0000000000002
 20
303.9332956213051
 30
0.0
 10
504.0031451818193
 20
303.9664897181839
 30
0.0
 10
504.0094226358329
 20
304.0327416643879
 30
0.0
 10
504.0556210249381
 20
304.1233414225052
 30
0.0
 10
504.122205717875
 20
304.1973309185178
 30
0.0
 10
504.1796983376507
 20
304.2325514603159
 30
0.0
 10
504.2101542321535
 20
304.2454667745475
 30
0.0
 10
504.2111405601825
 20
304.2458850428872
 30
0.0
  0
SPLINE
  5
FE
330
1F
100
AcDbEntity
  8
0
  6
SLD-Сплошная
 62
     7
370
    35
100
AcDbSpline
210
0.0
220
0.0
230
1.0
 70
     8
 71
     3
 72
     9
 73
     5
 74
     0
 42
0.000000001
 43
0.00000001
 40
0.0
 40
0.0
 40
0.0
 40
0.0
 40
0.6837814517460596
 40
1.0
 40
1.0
 40
1.0
 40
1.0
 10
498.0000000000002
 20
300.4999999999998
 30
0.0
 10
498.4595507780101
 20
300.523226170757
 30
0.0
 10
499.1316233778684
 20
300.5571934137964
 30
0.0
 10
499.7913744680531
 20
300.7036786509626
 30
0.0
 10
500.0000000000002
 20
300.7499999999998
 30
0.0
  0
LINE
  5
FF
330
1F
100
AcDbEntity
  8
0
  6
SLD-Сплошная
 62
     7
370
    35
100
AcDbLine
 10
496.0
 20
300.75
 30
0.0
 11
498.0
 21
300.5
 31
0.0
  0
LINE
  5
100
330
1F
100
AcDbEntity
  8
0
  6
SLD-Сплошная
 62
     7
370
    35
100
AcDbLine
 10
496.0
 20
303.9332956213
 30
0.0
 11
496.0
 21
300.75
 31
0.0
  0
LINE
  5
101
330
1F
100
AcDbEntity
  8
0
  6
SLD-Сплошная
 62
     7
370
    35
100
AcDbLine
 10
500.0
 20
303.9332956213
 30
0.0
 11
500.0
 21
300.75
 31
0.0
  0
SPLINE
  5
102
330
1F
100
AcDbEntity
  8
0
  6
SLD-Сплошная
 62
     7
370
    35
100
AcDbSpline
210
0.0
220
0.0
230
1.0
 70
     8
 71
     3
 72
     9
 73
     5
 74
     0
 42
0.000000001
 43
0.00000001
 40
0.0
 40
0.0
 40
0.0
 40
0.0
 40
0.6837814517460612
 40
1.0
 40
1.0
 40
1.0
 40
1.0
 10
502.0000000000002
 20
300.4999999999998
 30
0.0
 10
502.4595507780101
 20
300.523226170757
 30
0.0
 10
503.1316233778686
 20
300.5571934137963
 30
0.0
 10
503.791374468053
 20
300.7036786509626
 30
0.0
 10
504.0000000000002
 20
300.7499999999998
 30
0.0
  0
LINE
  5
103
330
1F
100
AcDbEntity
  8
0
  6
SLD-Сплошная
 62
     7
370
    35
100
AcDbLine
 10
500.0
 20
300.75
 30
0.0
 11
502.0
 21
300.5
 31
0.0
  0
LINE
  5
104
330
1F
100
AcDbEntity
  8
0
  6
SLD-Сплошная
 62
     7
370
    35
100
AcDbLine
 10
504.0
 20
303.9332956213
 30
0.0
 11
504.0
 21
300.75
 31
0.0
  0
LINE
  5
105
330
1F
100
AcDbEntity
  8
0
  6
SLD-Сплошная
 62
     7
370
    35
100
AcDbLine
 10
498.0
 20
300.5
 30
0.0
 11
502.0
 21
300.5
 31
0.0
  0
SPLINE
  5
106
330
1F
100
AcDbEntity
  8
0
  6
SLD-Сплошная
 62
     7
370
    35
100
AcDbSpline
210
0.0
220
0.0
230
1.0
 70
    24
 71
     3
 72
     9
 73
     5
 74
     0
 42
0.000000001
 43
0.00000001
 40
0.0
 40
0.0
 40
0.0
 40
0.0
 40
0.8037424145840063
 40
1.0
 40
1.0
 40
1.0
 40
1.0
 10
504.0000000000002
 20
300.4999999999998
 30
0.0
 10
504.0000000000005
 20
300.5318203256768
 30
0.0
 10
504.0000000000003
 20
300.5714105290796
 30
0.0
 10
504.0000000000001
 20
300.7207006761996
 30
0.0
 10
504.0000000000002
 20
300.7499999999998
 30
0.0
  0
LINE
  5
107
330
1F
100
AcDbEntity
  8
0
  6
SLD-Сплошная
 62
     7
370
    35
100
AcDbLine
 10
504.0
 20
300.5
 30
0.0
 11
502.0
 21
300.5
 31
0.0
  0
SPLINE
  5
108
330
1F
100
AcDbEntity
  8
0
  6
SLD-Сплошная
 62
     7
370
    35
100
AcDbSpline
210
0.0
220
0.0
230
1.0
 70
    24
 71
     3
 72
     9
 73
     5
 74
     0
 42
0.000000001
 43
0.00000001
 40
0.0
 40
0.0
 40
0.0
 40
0.0
 40
0.8037424145840146
 40
1.0
 40
1.0
 40
1.0
 40
1.0
 10
496.0000000000003
 20
300.4999999999998
 30
0.0
 10
496.0000000000006
 20
300.5318203256768
 30
0.0
 10
496.0000000000007
 20
300.5714105290798
 30
0.0
 10
496.0000000000003
 20
300.7207006761996
 30
0.0
 10
496.0000000000003
 20
300.7499999999998
 30
0.0
  0
LINE
  5
109
330
1F
100
AcDbEntity
  8
0
  6
SLD-Сплошная
 62
     7
370
    35
100
AcDbLine
 10
496.0
 20
300.5
 30
0.0
 11
498.0
 21
300.5
 31
0.0
  0
LINE
  5
10A
330
1F
100
AcDbEntity
  8
0
  6
SLD-Сплошная
 62
     7
370
    35
100
AcDbLine
 10
295.8015570643
 20
304.0199357781
 30
0.0
 11
295.8015964467
 21
304.0193224936
 31
0.0
  0
LINE
  5
10B
330
1F
100
AcDbEntity
  8
0
  6
SLD-Сплошная
 62
     7
370
    35
100
AcDbLine
 10
304.2001225188
 20
304.0483037301
 30
0.0
 11
304.1995439011
 21
304.038583126
 31
0.0
  0
SPLINE
  5
10C
330
1F
100
AcDbEntity
  8
0
  6
SLD-Сплошная
 62
     7
370
    35
100
AcDbSpline
210
0.0
220
0.0
230
1.0
 70
    24
 71
     3
 72
    12
 73
     8
 74
     0
 42
0.000000001
 43
0.00000001
 40
0.0
 40
0.0
 40
0.0
 40
0.0
 40
0.0086674047364441
 40
0.2676326298829182
 40
0.528661600250874
 40
0.7638461449005823
 40
1.0
 40
1.0
 40
1.0
 40
1.0
 10
300.0000000000003
 20
304.2458850428872
 30
0.0
 10
300.0000000000003
 20
304.2454667745475
 30
0.0
 10
299.9999999999994
 20
304.2325514603152
 30
0.0
 10
300.0000000000007
 20
304.1973309185182
 30
0.0
 10
300.0000000000003
 20
304.1233414225051
 30
0.0
 10
300.0000000000005
 20
304.0327416643881
 30
0.0
 10
300.0000000000005
 20
303.9664897181839
 30
0.0
 10
300.0000000000004
 20
303.9332956213052
 30
0.0
  0
SPLINE
  5
10D
330
1F
100
AcDbEntity
  8
0
  6
SLD-Сплошная
 62
     7
370
    35
100
AcDbSpline
210
0.0
220
0.0
230
1.0
 70
     8
 71
     3
 72
    12
 73
     8
 74
     0
 42
0.000000001
 43
0.00000001
 40
0.0
 40
0.0
 40
0.0
 40
0.0
 40
0.2361538550994141
 40
0.4713383997490971
 40
0.732367370117046
 40
0.9913325952634743
 40
1.0
 40
1.0
 40
1.0
 40
1.0
 10
304.0000000000003
 20
303.9332956213051
 30
0.0
 10
304.0031451818195
 20
303.9664897181839
 30
0.0
 10
304.0094226358332
 20
304.0327416643879
 30
0.0
 10
304.0556210249376
 20
304.1233414225052
 30
0.0
 10
304.1222057178766
 20
304.1973309185178
 30
0.0
 10
304.1796983376472
 20
304.2325514603159
 30
0.0
 10
304.2101542321537
 20
304.2454667745475
 30
0.0
 10
304.2111405601825
 20
304.2458850428872
 30
0.0
  0
SPLINE
  5
10E
330
1F
100
AcDbEntity
  8
0
  6
SLD-Сплошная
 62
     7
370
    35
100
AcDbSpline
210
0.0
220
0.0
230
1.0
 70
     8
 71
     3
 72
    12
 73
     8
 74
     0
 42
0.000000001
 43
0.00000001
 40
0.0
 40
0.0
 40
0.0
 40
0.0
 40
0.0086674047363283
 40
0.267632629882784
 40
0.5286616002507958
 40
0.7638461449005343
 40
0.9999999999999999
 40
0.9999999999999999
 40
0.9999999999999999
 40
0.9999999999999999
 10
295.7888594398182
 20
304.2458850428872
 30
0.0
 10
295.7898457678469
 20
304.2454667745475
 30
0.0
 10
295.8203016623489
 20
304.2325514603148
 30
0.0
 10
295.8777942821256
 20
304.1973309185183
 30
0.0
 10
295.9443789750626
 20
304.1233414225051
 30
0.0
 10
295.9905773641672
 20
304.0327416643879
 30
0.0
 10
295.9968548181812
 20
303.9664897181839
 30
0.0
 10
296.0000000000003
 20
303.9332956213051
 30
0.0
  0
SPLINE
  5
10F
330
1F
100
AcDbEntity
  8
0
  6
SLD-Сплошная
 62
     7
370
    35
100
AcDbSpline
210
0.0
220
0.0
230
1.0
 70
     8
 71
     3
 72
     9
 73
     5
 74
     0
 42
0.000000001
 43
0.00000001
 40
0.0
 40
0.0
 40
0.0
 40
0.0
 40
0.6837814517460612
 40
1.0
 40
1.0
 40
1.0
 40
1.0
 10
302.0000000000003
 20
300.4999999999998
 30
0.0
 10
302.45955077801
 20
300.523226170757
 30
0.0
 10
303.1316233778685
 20
300.5571934137963
 30
0.0
 10
303.791374468053
 20
300.7036786509626
 30
0.0
 10
304.0000000000003
 20
300.7499999999998
 30
0.0
  0
LINE
  5
110
330
1F
100
AcDbEntity
  8
0
  6
SLD-Сплошная
 62
     7
370
    35
100
AcDbLine
 10
300.0
 20
300.75
 30
0.0
 11
302.0
 21
300.5
 31
0.0
  0
LINE
  5
111
330
1F
100
AcDbEntity
  8
0
  6
SLD-Сплошная
 62
     7
370
    35
100
AcDbLine
 10
300.0
 20
303.9332956213
 30
0.0
 11
300.0
 21
300.75
 31
0.0
  0
LINE
  5
112
330
1F
100
AcDbEntity
  8
0
  6
SLD-Сплошная
 62
     7
370
    35
100
AcDbLine
 10
304.0
 20
303.9332956213
 30
0.0
 11
304.0
 21
300.75
 31
0.0
  0
SPLINE
  5
113
330
1F
100
AcDbEntity
  8
0
  6
SLD-Сплошная
 62
     7
370
    35
100
AcDbSpline
210
0.0
220
0.0
230
1.0
 70
     8
 71
     3
 72
     9
 73
     5
 74
     0
 42
0.000000001
 43
0.00000001
 40
0.0
 40
0.0
 40
0.0
 40
0.0
 40
0.6837814517460596
 40
1.0
 40
1.0
 40
1.0
 40
1.0
 10
298.0000000000003
 20
300.4999999999998
 30
0.0
 10
298.4595507780102
 20
300.523226170757
 30
0.0
 10
299.1316233778685
 20
300.5571934137964
 30
0.0
 10
299.7913744680532
 20
300.7036786509626
 30
0.0
 10
300.0000000000003
 20
300.7499999999998
 30
0.0
  0
LINE
  5
114
330
1F
100
AcDbEntity
  8
0
  6
SLD-Сплошная
 62
     7
370
    35
100
AcDbLine
 10
296.0
 20
300.75
 30
0.0
 11
298.0
 21
300.5
 31
0.0
  0
LINE
  5
115
330
1F
100
AcDbEntity
  8
0
  6
SLD-Сплошная
 62
     7
370
    35
100
AcDbLine
 10
296.0
 20
303.9332956213
 30
0.0
 11
296.0
 21
300.75
 31
0.0
  0
LINE
  5
116
330
1F
100
AcDbEntity
  8
0
  6
SLD-Сплошная
 62
     7
370
    35
100
AcDbLine
 10
298.0
 20
300.5
 30
0.0
 11
302.0
 21
300.5
 31
0.0
  0
SPLINE
  5
117
330
1F
100
AcDbEntity
  8
0
  6
SLD-Сплошная
 62
     7
370
    35
100
AcDbSpline
210
0.0
220
0.0
230
1.0
 70
    24
 71
     3
 72
     9
 73
     5
 74
     0
 42
0.000000001
 43
0.00000001
 40
0.0
 40
0.0
 40
0.0
 40
0.0
 40
0.8037424145840063
 40
1.0
 40
1.0
 40
1.0
 40
1.0
 10
304.0000000000003
 20
300.4999999999998
 30
0.0
 10
304.0000000000004
 20
300.5318203256768
 30
0.0
 10
304.0000000000003
 20
300.5714105290796
 30
0.0
 10
304.0000000000002
 20
300.7207006761996
 30
0.0
 10
304.0000000000003
 20
300.7499999999998
 30
0.0
  0
LINE
  5
118
330
1F
100
AcDbEntity
  8
0
  6
SLD-Сплошная
 62
     7
370
    35
100
AcDbLine
 10
304.0
 20
300.5
 30
0.0
 11
302.0
 21
300.5
 31
0.0
  0
SPLINE
  5
119
330
1F
100
AcDbEntity
  8
0
  6
SLD-Сплошная
 62
     7
370
    35
100
AcDbSpline
210
0.0
220
0.0
230
1.0
 70
    24
 71
     3
 72
     9
 73
     5
 74
     0
 42
0.000000001
 43
0.00000001
 40
0.0
 40
0.0
 40
0.0
 40
0.0
 40
0.8037424145840146
 40
1.0
 40
1.0
 40
1.0
 40
1.0
 10
296.0000000000004
 20
300.4999999999998
 30
0.0
 10
296.0000000000005
 20
300.5318203256768
 30
0.0
 10
296.0000000000008
 20
300.5714105290798
 30
0.0
 10
296.0000000000003
 20
300.7207006761996
 30
0.0
 10
296.0000000000004
 20
300.7499999999998
 30
0.0
  0
LINE
  5
11A
330
1F
100
AcDbEntity
  8
0
  6
SLD-Сплошная
 62
     7
370
    35
100
AcDbLine
 10
296.0
 20
300.5
 30
0.0
 11
298.0
 21
300.5
 31
0.0
  0
LINE
  5
11B
330
1F
100
AcDbEntity
  8
0
  6
SLD-Сплошная
 62
     7
370
    35
100
AcDbLine
 10
-304.1984429357
 20
304.0199357781
 30
0.0
 11
-304.1984035533
 21
304.0193224936
 31
0.0
  0
LINE
  5
11C
330
1F
100
AcDbEntity
  8
0
  6
SLD-Сплошная
 62
     7
370
    35
100
AcDbLine
 10
-295.7998774812
 20
304.0483037301
 30
0.0
 11
-295.8004560989
 21
304.038583126
 31
0.0
  0
SPLINE
  5
11D
330
1F
100
AcDbEntity
  8
0
  6
SLD-Сплошная
 62
     7
370
    35
100
AcDbSpline
210
0.0
220
0.0
230
1.0
 70
    24
 71
     3
 72
    12
 73
     8
 74
     0
 42
0.000000001
 43
0.00000001
 40
0.0
 40
0.0
 40
0.0
 40
0.0
 40
0.0086674047364441
 40
0.2676326298829182
 40
0.528661600250874
 40
0.7638461449005823
 40
1.0
 40
1.0
 40
1.0
 40
1.0
 10
-299.9999999999998
 20
304.2458850428872
 30
0.0
 10
-299.9999999999998
 20
304.2454667745475
 30
0.0
 10
-299.9999999999998
 20
304.2325514603152
 30
0.0
 10
-299.9999999999998
 20
304.1973309185182
 30
0.0
 10
-299.9999999999998
 20
304.1233414225051
 30
0.0
 10
-299.9999999999998
 20
304.0327416643881
 30
0.0
 10
-299.9999999999998
 20
303.9664897181839
 30
0.0
 10
-299.9999999999998
 20
303.9332956213052
 30
0.0
  0
SPLINE
  5
11E
330
1F
100
AcDbEntity
  8
0
  6
SLD-Сплошная
 62
     7
370
    35
100
AcDbSpline
210
0.0
220
0.0
230
1.0
 70
     8
 71
     3
 72
    12
 73
     8
 74
     0
 42
0.000000001
 43
0.00000001
 40
0.0
 40
0.0
 40
0.0
 40
0.0
 40
0.2361538550994141
 40
0.4713383997490971
 40
0.732367370117046
 40
0.9913325952634743
 40
1.0
 40
1.0
 40
1.0
 40
1.0
 10
-295.9999999999998
 20
303.9332956213051
 30
0.0
 10
-295.9968548181807
 20
303.9664897181839
 30
0.0
 10
-295.9905773641669
 20
304.0327416643879
 30
0.0
 10
-295.9443789750621
 20
304.1233414225052
 30
0.0
 10
-295.8777942821244
 20
304.1973309185178
 30
0.0
 10
-295.8203016623506
 20
304.2325514603159
 30
0.0
 10
-295.7898457678464
 20
304.2454667745475
 30
0.0
 10
-295.7888594398176
 20
304.2458850428872
 30
0.0
  0
SPLINE
  5
11F
330
1F
100
AcDbEntity
  8
0
  6
SLD-Сплошная
 62
     7
370
    35
100
AcDbSpline
210
0.0
220
0.0
230
1.0
 70
     8
 71
     3
 72
    12
 73
     8
 74
     0
 42
0.000000001
 43
0.00000001
 40
0.0
 40
0.0
 40
0.0
 40
0.0
 40
0.0086674047363283
 40
0.267632629882784
 40
0.5286616002507958
 40
0.7638461449005343
 40
0.9999999999999999
 40
0.9999999999999999
 40
0.9999999999999999
 40
0.9999999999999999
 10
-304.2111405601819
 20
304.2458850428872
 30
0.0
 10
-304.2101542321531
 20
304.2454667745475
 30
0.0
 10
-304.1796983376497
 20
304.2325514603148
 30
0.0
 10
-304.122205717875
 20
304.1973309185183
 30
0.0
 10
-304.0556210249375
 20
304.1233414225051
 30
0.0
 10
-304.0094226358327
 20
304.0327416643879
 30
0.0
 10
-304.003145181819
 20
303.9664897181839
 30
0.0
 10
-303.9999999999998
 20
303.9332956213051
 30
0.0
  0
SPLINE
  5
120
330
1F
100
AcDbEntity
  8
0
  6
SLD-Сплошная
 62
     7
370
    35
100
AcDbSpline
210
0.0
220
0.0
230
1.0
 70
     8
 71
     3
 72
     9
 73
     5
 74
     0
 42
0.000000001
 43
0.00000001
 40
0.0
 40
0.0
 40
0.0
 40
0.0
 40
0.6837814517460596
 40
1.0
 40
1.0
 40
1.0
 40
1.0
 10
-301.9999999999998
 20
300.4999999999998
 30
0.0
 10
-301.5404492219899
 20
300.523226170757
 30
0.0
 10
-300.8683766221316
 20
300.5571934137964
 30
0.0
 10
-300.208625531947
 20
300.7036786509626
 30
0.0
 10
-299.9999999999998
 20
300.7499999999998
 30
0.0
  0
LINE
  5
121
330
1F
100
AcDbEntity
  8
0
  6
SLD-Сплошная
 62
     7
370
    35
100
AcDbLine
 10
-300.0
 20
300.75
 30
0.0
 11
-298.0
 21
300.5
 31
0.0
  0
LINE
  5
122
330
1F
100
AcDbEntity
  8
0
  6
SLD-Сплошная
 62
     7
370
    35
100
AcDbLine
 10
-302.0
 20
300.5
 30
0.0
 11
-298.0
 21
300.5
 31
0.0
  0
SPLINE
  5
123
330
1F
100
AcDbEntity
  8
0
  6
SLD-Сплошная
 62
     7
370
    35
100
AcDbSpline
210
0.0
220
0.0
230
1.0
 70
     8
 71
     3
 72
     9
 73
     5
 74
     0
 42
0.000000001
 43
0.00000001
 40
0.0
 40
0.0
 40
0.0
 40
0.0
 40
0.6837814517460612
 40
1.0
 40
1.0
 40
1.0
 40
1.0
 10
-297.9999999999998
 20
300.4999999999998
 30
0.0
 10
-297.5404492219899
 20
300.523226170757
 30
0.0
 10
-296.8683766221316
 20
300.5571934137963
 30
0.0
 10
-296.208625531947
 20
300.7036786509626
 30
0.0
 10
-295.9999999999998
 20
300.7499999999998
 30
0.0
  0
LINE
  5
124
330
1F
100
AcDbEntity
  8
0
  6
SLD-Сплошная
 62
     7
370
    35
100
AcDbLine
 10
-300.0
 20
303.9332956213
 30
0.0
 11
-300.0
 21
300.75
 31
0.0
  0
LINE
  5
125
330
1F
100
AcDbEntity
  8
0
  6
SLD-Сплошная
 62
     7
370
    35
100
AcDbLine
 10
-296.0
 20
303.9332956213
 30
0.0
 11
-296.0
 21
300.75
 31
0.0
  0
LINE
  5
126
330
1F
100
AcDbEntity
  8
0
  6
SLD-Сплошная
 62
     7
370
    35
100
AcDbLine
 10
-304.0
 20
300.75
 30
0.0
 11
-302.0
 21
300.5
 31
0.0
  0
LINE
  5
127
330
1F
100
AcDbEntity
  8
0
  6
SLD-Сплошная
 62
     7
370
    35
100
AcDbLine
 10
-304.0
 20
303.9332956213
 30
0.0
 11
-304.0
 21
300.75
 31
0.0
  0
SPLINE
  5
128
330
1F
100
AcDbEntity
  8
0
  6
SLD-Сплошная
 62
     7
370
    35
100
AcDbSpline
210
0.0
220
0.0
230
1.0
 70
    24
 71
     3
 72
     9
 73
     5
 74
     0
 42
0.000000001
 43
0.00000001
 40
0.0
 40
0.0
 40
0.0
 40
0.0
 40
0.8037424145840146
 40
1.0
 40
1.0
 40
1.0
 40
1.0
 10
-303.9999999999998
 20
300.4999999999998
 30
0.0
 10
-303.9999999999998
 20
300.5318203256768
 30
0.0
 10
-303.9999999999998
 20
300.5714105290798
 30
0.0
 10
-303.9999999999998
 20
300.7207006761996
 30
0.0
 10
-303.9999999999998
 20
300.7499999999998
 30
0.0
  0
LINE
  5
129
330
1F
100
AcDbEntity
  8
0
  6
SLD-Сплошная
 62
     7
370
    35
100
AcDbLine
 10
-304.0
 20
300.5
 30
0.0
 11
-302.0
 21
300.5
 31
0.0
  0
SPLINE
  5
12A
330
1F
100
AcDbEntity
  8
0
  6
SLD-Сплошная
 62
     7
370
    35
100
AcDbSpline
210
0.0
220
0.0
230
1.0
 70
    24
 71
     3
 72
     9
 73
     5
 74
     0
 42
0.000000001
 43
0.00000001
 40
0.0
 40
0.0
 40
0.0
 40
0.0
 40
0.8037424145840063
 40
1.0
 40
1.0
 40
1.0
 40
1.0
 10
-295.9999999999998
 20
300.4999999999998
 30
0.0
 10
-295.9999999999998
 20
300.5318203256768
 30
0.0
 10
-295.9999999999998
 20
300.5714105290796
 30
0.0
 10
-295.9999999999998
 20
300.7207006761996
 30
0.0
 10
-295.9999999999998
 20
300.7499999999998
 30
0.0
  0
LINE
  5
12B
330
1F
100
AcDbEntity
  8
0
  6
SLD-Сплошная
 62
     7
370
    35
100
AcDbLine
 10
-296.0
 20
300.5
 30
0.0
 11
-298.0
 21
300.5
 31
0.0
  0
LINE
  5
12C
330
1F
100
AcDbEntity
  8
0
  6
SLD-Сплошная
 62
     7
370
    35
100
AcDbLine
 10
95.8015570643
 20
304.0199357781
 30
0.0
 11
95.8015964467
 21
304.0193224936
 31
0.0
  0
LINE
  5
12D
330
1F
100
AcDbEntity
  8
0
  6
SLD-Сплошная
 62
     7
370
    35
100
AcDbLine
 10
104.2001225188
 20
304.0483037301
 30
0.0
 11
104.1995439011
 21
304.038583126
 31
0.0
  0
SPLINE
  5
12E
330
1F
100
AcDbEntity
  8
0
  6
SLD-Сплошная
 62
     7
370
    35
100
AcDbSpline
210
0.0
220
0.0
230
1.0
 70
    24
 71
     3
 72
    12
 73
     8
 74
     0
 42
0.000000001
 43
0.00000001
 40
0.0
 40
0.0
 40
0.0
 40
0.0
 40
0.0086674047364441
 40
0.2676326298829182
 40
0.528661600250874
 40
0.7638461449005823
 40
1.0
 40
1.0
 40
1.0
 40
1.0
 10
100.0000000000002
 20
304.2458850428872
 30
0.0
 10
100.0000000000002
 20
304.2454667745475
 30
0.0
 10
99.99999999999959
 20
304.2325514603152
 30
0.0
 10
100.0000000000005
 20
304.1973309185182
 30
0.0
 10
100.0000000000001
 20
304.1233414225051
 30
0.0
 10
100.0000000000004
 20
304.0327416643881
 30
0.0
 10
100.0000000000003
 20
303.9664897181839
 30
0.0
 10
100.0000000000003
 20
303.9332956213052
 30
0.0
  0
SPLINE
  5
12F
330
1F
100
AcDbEntity
  8
0
  6
SLD-Сплошная
 62
     7
370
    35
100
AcDbSpline
210
0.0
220
0.0
230
1.0
 70
     8
 71
     3
 72
    12
 73
     8
 74
     0
 42
0.000000001
 43
0.00000001
 40
0.0
 40
0.0
 40
0.0
 40
0.0
 40
0.0086674047363283
 40
0.267632629882784
 40
0.5286616002507958
 40
0.7638461449005343
 40
0.9999999999999999
 40
0.9999999999999999
 40
0.9999999999999999
 40
0.9999999999999999
 10
95.78885943981807
 20
304.2458850428872
 30
0.0
 10
95.78984576784694
 20
304.2454667745475
 30
0.0
 10
95.82030166234922
 20
304.2325514603148
 30
0.0
 10
95.87779428212545
 20
304.1973309185183
 30
0.0
 10
95.94437897506248
 20
304.1233414225051
 30
0.0
 10
95.99057736416717
 20
304.0327416643879
 30
0.0
 10
95.99685481818105
 20
303.9664897181839
 30
0.0
 10
96.0000000000002
 20
303.9332956213051
 30
0.0
  0
SPLINE
  5
130
330
1F
100
AcDbEntity
  8
0
  6
SLD-Сплошная
 62
     7
370
    35
100
AcDbSpline
210
0.0
220
0.0
230
1.0
 70
     8
 71
     3
 72
    12
 73
     8
 74
     0
 42
0.000000001
 43
0.00000001
 40
0.0
 40
0.0
 40
0.0
 40
0.0
 40
0.2361538550994141
 40
0.4713383997490971
 40
0.732367370117046
 40
0.9913325952634743
 40
1.0
 40
1.0
 40
1.0
 40
1.0
 10
104.0000000000002
 20
303.9332956213051
 30
0.0
 10
104.0031451818193
 20
303.9664897181839
 30
0.0
 10
104.0094226358331
 20
304.0327416643879
 30
0.0
 10
104.0556210249378
 20
304.1233414225052
 30
0.0
 10
104.1222057178759
 20
304.1973309185178
 30
0.0
 10
104.1796983376487
 20
304.2325514603159
 30
0.0
 10
104.2101542321536
 20
304.2454667745475
 30
0.0
 10
104.2111405601824
 20
304.2458850428872
 30
0.0
  0
SPLINE
  5
131
330
1F
100
AcDbEntity
  8
0
  6
SLD-Сплошная
 62
     7
370
    35
100
AcDbSpline
210
0.0
220
0.0
230
1.0
 70
     8
 71
     3
 72
     9
 73
     5
 74
     0
 42
0.000000001
 43
0.00000001
 40
0.0
 40
0.0
 40
0.0
 40
0.0
 40
0.6837814517460596
 40
1.0
 40
1.0
 40
1.0
 40
1.0
 10
98.0000000000002
 20
300.4999999999998
 30
0.0
 10
98.45955077801005
 20
300.523226170757
 30
0.0
 10
99.13162337786835
 20
300.5571934137964
 30
0.0
 10
99.79137446805308
 20
300.7036786509626
 30
0.0
 10
100.0000000000002
 20
300.7499999999998
 30
0.0
  0
LINE
  5
132
330
1F
100
AcDbEntity
  8
0
  6
SLD-Сплошная
 62
     7
370
    35
100
AcDbLine
 10
100.0
 20
300.75
 30
0.0
 11
102.0
 21
300.5
 31
0.0
  0
LINE
  5
133
330
1F
100
AcDbEntity
  8
0
  6
SLD-Сплошная
 62
     7
370
    35
100
AcDbLine
 10
98.0
 20
300.5
 30
0.0
 11
102.0
 21
300.5
 31
0.0
  0
SPLINE
  5
134
330
1F
100
AcDbEntity
  8
0
  6
SLD-Сплошная
 62
     7
370
    35
100
AcDbSpline
210
0.0
220
0.0
230
1.0
 70
     8
 71
     3
 72
     9
 73
     5
 74
     0
 42
0.000000001
 43
0.00000001
 40
0.0
 40
0.0
 40
0.0
 40
0.0
 40
0.6837814517460612
 40
1.0
 40
1.0
 40
1.0
 40
1.0
 10
102.0000000000002
 20
300.4999999999998
 30
0.0
 10
102.4595507780101
 20
300.523226170757
 30
0.0
 10
103.1316233778684
 20
300.5571934137963
 30
0.0
 10
103.7913744680531
 20
300.7036786509626
 30
0.0
 10
104.0000000000002
 20
300.7499999999998
 30
0.0
  0
LINE
  5
135
330
1F
100
AcDbEntity
  8
0
  6
SLD-Сплошная
 62
     7
370
    35
100
AcDbLine
 10
100.0
 20
303.9332956213
 30
0.0
 11
100.0
 21
300.75
 31
0.0
  0
LINE
  5
136
330
1F
100
AcDbEntity
  8
0
  6
SLD-Сплошная
 62
     7
370
    35
100
AcDbLine
 10
104.0
 20
303.9332956213
 30
0.0
 11
104.0
 21
300.75
 31
0.0
  0
LINE
  5
137
330
1F
100
AcDbEntity
  8
0
  6
SLD-Сплошная
 62
     7
370
    35
100
AcDbLine
 10
96.0
 20
300.75
 30
0.0
 11
98.0
 21
300.5
 31
0.0
  0
LINE
  5
138
330
1F
100
AcDbEntity
  8
0
  6
SLD-Сплошная
 62
     7
370
    35
100
AcDbLine
 10
96.0
 20
303.9332956213
 30
0.0
 11
96.0
 21
300.75
 31
0.0
  0
SPLINE
  5
139
330
1F
100
AcDbEntity
  8
0
  6
SLD-Сплошная
 62
     7
370
    35
100
AcDbSpline
210
0.0
220
0.0
230
1.0
 70
    24
 71
     3
 72
     9
 73
     5
 74
     0
 42
0.000000001
 43
0.00000001
 40
0.0
 40
0.0
 40
0.0
 40
0.0
 40
0.8037424145840146
 40
1.0
 40
1.0
 40
1.0
 40
1.0
 10
96.00000000000026
 20
300.4999999999998
 30
0.0
 10
96.0000000000002
 20
300.5318203256768
 30
0.0
 10
96.00000000000031
 20
300.5714105290798
 30
0.0
 10
96.00000000000026
 20
300.7207006761996
 30
0.0
 10
96.00000000000026
 20
300.7499999999998
 30
0.0
  0
LINE
  5
13A
330
1F
100
AcDbEntity
  8
0
  6
SLD-Сплошная
 62
     7
370
    35
100
AcDbLine
 10
96.0
 20
300.5
 30
0.0
 11
98.0
 21
300.5
 31
0.0
  0
SPLINE
  5
13B
330
1F
100
AcDbEntity
  8
0
  6
SLD-Сплошная
 62
     7
370
    35
100
AcDbSpline
210
0.0
220
0.0
230
1.0
 70
    24
 71
     3
 72
     9
 73
     5
 74
     0
 42
0.000000001
 43
0.00000001
 40
0.0
 40
0.0
 40
0.0
 40
0.0
 40
0.8037424145840063
 40
1.0
 40
1.0
 40
1.0
 40
1.0
 10
104.0000000000002
 20
300.4999999999998
 30
0.0
 10
104.0000000000003
 20
300.5318203256768
 30
0.0
 10
104.0000000000003
 20
300.5714105290796
 30
0.0
 10
104.0000000000001
 20
300.7207006761996
 30
0.0
 10
104.0000000000002
 20
300.7499999999998
 30
0.0
  0
LINE
  5
13C
330
1F
100
AcDbEntity
  8
0
  6
SLD-Сплошная
 62
     7
370
    35
100
AcDbLine
 10
104.0
 20
300.5
 30
0.0
 11
102.0
 21
300.5
 31
0.0
  0
LINE
  5
13D
330
1F
100
AcDbEntity
  8
0
  6
SLD-Сплошная
 62
     7
370
    35
100
AcDbLine
 10
-104.1984429357
 20
304.0199357781
 30
0.0
 11
-104.1984035533
 21
304.0193224936
 31
0.0
  0
LINE
  5
13E
330
1F
100
AcDbEntity
  8
0
  6
SLD-Сплошная
 62
     7
370
    35
100
AcDbLine
 10
-95.7998774812
 20
304.0483037301
 30
0.0
 11
-95.8004560989
 21
304.038583126
 31
0.0
  0
SPLINE
  5
13F
330
1F
100
AcDbEntity
  8
0
  6
SLD-Сплошная
 62
     7
370
    35
100
AcDbSpline
210
0.0
220
0.0
230
1.0
 70
    24
 71
     3
 72
    12
 73
     8
 74
     0
 42
0.000000001
 43
0.00000001
 40
0.0
 40
0.0
 40
0.0
 40
0.0
 40
0.0086674047364441
 40
0.2676326298829182
 40
0.528661600250874
 40
0.7638461449005823
 40
1.0
 40
1.0
 40
1.0
 40
1.0
 10
-99.99999999999987
 20
304.2458850428872
 30
0.0
 10
-99.99999999999993
 20
304.2454667745475
 30
0.0
 10
-100.0000000000002
 20
304.2325514603152
 30
0.0
 10
-99.9999999999997
 20
304.1973309185182
 30
0.0
 10
-99.99999999999993
 20
304.1233414225051
 30
0.0
 10
-99.99999999999976
 20
304.0327416643881
 30
0.0
 10
-99.99999999999982
 20
303.9664897181839
 30
0.0
 10
-99.99999999999982
 20
303.9332956213052
 30
0.0
  0
SPLINE
  5
140
330
1F
100
AcDbEntity
  8
0
  6
SLD-Сплошная
 62
     7
370
    35
100
AcDbSpline
210
0.0
220
0.0
230
1.0
 70
     8
 71
     3
 72
    12
 73
     8
 74
     0
 42
0.000000001
 43
0.00000001
 40
0.0
 40
0.0
 40
0.0
 40
0.0
 40
0.2361538550994141
 40
0.4713383997490971
 40
0.732367370117046
 40
0.9913325952634743
 40
1.0
 40
1.0
 40
1.0
 40
1.0
 10
-95.99999999999986
 20
303.9332956213051
 30
0.0
 10
-95.99685481818065
 20
303.9664897181839
 30
0.0
 10
-95.99057736416688
 20
304.0327416643879
 30
0.0
 10
-95.94437897506225
 20
304.1233414225052
 30
0.0
 10
-95.87779428212417
 20
304.1973309185178
 30
0.0
 10
-95.8203016623514
 20
304.2325514603159
 30
0.0
 10
-95.78984576784644
 20
304.2454667745475
 30
0.0
 10
-95.78885943981763
 20
304.2458850428872
 30
0.0
  0
SPLINE
  5
141
330
1F
100
AcDbEntity
  8
0
  6
SLD-Сплошная
 62
     7
370
    35
100
AcDbSpline
210
0.0
220
0.0
230
1.0
 70
     8
 71
     3
 72
    12
 73
     8
 74
     0
 42
0.000000001
 43
0.00000001
 40
0.0
 40
0.0
 40
0.0
 40
0.0
 40
0.0086674047363283
 40
0.267632629882784
 40
0.5286616002507958
 40
0.7638461449005343
 40
0.9999999999999999
 40
0.9999999999999999
 40
0.9999999999999999
 40
0.9999999999999999
 10
-104.211140560182
 20
304.2458850428872
 30
0.0
 10
-104.2101542321532
 20
304.2454667745475
 30
0.0
 10
-104.1796983376504
 20
304.2325514603148
 30
0.0
 10
-104.1222057178748
 20
304.1973309185183
 30
0.0
 10
-104.0556210249376
 20
304.1233414225051
 30
0.0
 10
-104.0094226358328
 20
304.0327416643879
 30
0.0
 10
-104.003145181819
 20
303.9664897181839
 30
0.0
 10
-103.9999999999999
 20
303.9332956213051
 30
0.0
  0
SPLINE
  5
142
330
1F
100
AcDbEntity
  8
0
  6
SLD-Сплошная
 62
     7
370
    35
100
AcDbSpline
210
0.0
220
0.0
230
1.0
 70
     8
 71
     3
 72
     9
 73
     5
 74
     0
 42
0.000000001
 43
0.00000001
 40
0.0
 40
0.0
 40
0.0
 40
0.0
 40
0.6837814517460596
 40
1.0
 40
1.0
 40
1.0
 40
1.0
 10
-101.9999999999999
 20
300.4999999999998
 30
0.0
 10
-101.54044922199
 20
300.523226170757
 30
0.0
 10
-100.8683766221317
 20
300.5571934137964
 30
0.0
 10
-100.208625531947
 20
300.7036786509626
 30
0.0
 10
-99.99999999999987
 20
300.7499999999998
 30
0.0
  0
LINE
  5
143
330
1F
100
AcDbEntity
  8
0
  6
SLD-Сплошная
 62
     7
370
    35
100
AcDbLine
 10
-104.0
 20
300.75
 30
0.0
 11
-102.0
 21
300.5
 31
0.0
  0
LINE
  5
144
330
1F
100
AcDbEntity
  8
0
  6
SLD-Сплошная
 62
     7
370
    35
100
AcDbLine
 10
-104.0
 20
303.9332956213
 30
0.0
 11
-104.0
 21
300.75
 31
0.0
  0
LINE
  5
145
330
1F
100
AcDbEntity
  8
0
  6
SLD-Сплошная
 62
     7
370
    35
100
AcDbLine
 10
-100.0
 20
303.9332956213
 30
0.0
 11
-100.0
 21
300.75
 31
0.0
  0
SPLINE
  5
146
330
1F
100
AcDbEntity
  8
0
  6
SLD-Сплошная
 62
     7
370
    35
100
AcDbSpline
210
0.0
220
0.0
230
1.0
 70
     8
 71
     3
 72
     9
 73
     5
 74
     0
 42
0.000000001
 43
0.00000001
 40
0.0
 40
0.0
 40
0.0
 40
0.0
 40
0.6837814517460612
 40
1.0
 40
1.0
 40
1.0
 40
1.0
 10
-97.99999999999986
 20
300.4999999999998
 30
0.0
 10
-97.54044922199002
 20
300.523226170757
 30
0.0
 10
-96.8683766221316
 20
300.5571934137963
 30
0.0
 10
-96.20862553194704
 20
300.7036786509626
 30
0.0
 10
-95.99999999999986
 20
300.7499999999998
 30
0.0
  0
LINE
  5
147
330
1F
100
AcDbEntity
  8
0
  6
SLD-Сплошная
 62
     7
370
    35
100
AcDbLine
 10
-100.0
 20
300.75
 30
0.0
 11
-98.0
 21
300.5
 31
0.0
  0
LINE
  5
148
330
1F
100
AcDbEntity
  8
0
  6
SLD-Сплошная
 62
     7
370
    35
100
AcDbLine
 10
-96.0
 20
303.9332956213
 30
0.0
 11
-96.0
 21
300.75
 31
0.0
  0
LINE
  5
149
330
1F
100
AcDbEntity
  8
0
  6
SLD-Сплошная
 62
     7
370
    35
100
AcDbLine
 10
-102.0
 20
300.5
 30
0.0
 11
-98.0
 21
300.5
 31
0.0
  0
SPLINE
  5
14A
330
1F
100
AcDbEntity
  8
0
  6
SLD-Сплошная
 62
     7
370
    35
100
AcDbSpline
210
0.0
220
0.0
230
1.0
 70
    24
 71
     3
 72
     9
 73
     5
 74
     0
 42
0.000000001
 43
0.00000001
 40
0.0
 40
0.0
 40
0.0
 40
0.0
 40
0.8037424145840146
 40
1.0
 40
1.0
 40
1.0
 40
1.0
 10
-103.9999999999998
 20
300.4999999999998
 30
0.0
 10
-103.9999999999999
 20
300.5318203256768
 30
0.0
 10
-103.9999999999999
 20
300.5714105290798
 30
0.0
 10
-103.9999999999998
 20
300.7207006761996
 30
0.0
 10
-103.9999999999998
 20
300.7499999999998
 30
0.0
  0
LINE
  5
14B
330
1F
100
AcDbEntity
  8
0
  6
SLD-Сплошная
 62
     7
370
    35
100
AcDbLine
 10
-104.0
 20
300.5
 30
0.0
 11
-102.0
 21
300.5
 31
0.0
  0
SPLINE
  5
14C
330
1F
100
AcDbEntity
  8
0
  6
SLD-Сплошная
 62
     7
370
    35
100
AcDbSpline
210
0.0
220
0.0
230
1.0
 70
    24
 71
     3
 72
     9
 73
     5
 74
     0
 42
0.000000001
 43
0.00000001
 40
0.0
 40
0.0
 40
0.0
 40
0.0
 40
0.8037424145840063
 40
1.0
 40
1.0
 40
1.0
 40
1.0
 10
-95.99999999999986
 20
300.4999999999998
 30
0.0
 10
-95.9999999999998
 20
300.5318203256768
 30
0.0
 10
-95.9999999999998
 20
300.5714105290796
 30
0.0
 10
-95.99999999999991
 20
300.7207006761996
 30
0.0
 10
-95.99999999999986
 20
300.7499999999998
 30
0.0
  0
LINE
  5
14D
330
1F
100
AcDbEntity
  8
0
  6
SLD-Сплошная
 62
     7
370
    35
100
AcDbLine
 10
-96.0
 20
300.5
 30
0.0
 11
-98.0
 21
300.5
 31
0.0
  0
LINE
  5
14E
330
1F
100
AcDbEntity
  8
0
  6
SLD-Сплошная
 62
     7
370
    35
100
AcDbLine
 10
-504.1984429357
 20
304.0199357781
 30
0.0
 11
-504.1984035533
 21
304.0193224936
 31
0.0
  0
LINE
  5
14F
330
1F
100
AcDbEntity
  8
0
  6
SLD-Сплошная
 62
     7
370
    35
100
AcDbLine
 10
-495.7998774812
 20
304.0483037301
 30
0.0
 11
-495.8004560989
 21
304.038583126
 31
0.0
  0
SPLINE
  5
150
330
1F
100
AcDbEntity
  8
0
  6
SLD-Сплошная
 62
     7
370
    35
100
AcDbSpline
210
0.0
220
0.0
230
1.0
 70
    24
 71
     3
 72
    12
 73
     8
 74
     0
 42
0.000000001
 43
0.00000001
 40
0.0
 40
0.0
 40
0.0
 40
0.0
 40
0.0086674047364441
 40
0.2676326298829182
 40
0.528661600250874
 40
0.7638461449005823
 40
1.0
 40
1.0
 40
1.0
 40
1.0
 10
-499.9999999999998
 20
304.2458850428872
 30
0.0
 10
-499.9999999999998
 20
304.2454667745475
 30
0.0
 10
-499.9999999999996
 20
304.2325514603152
 30
0.0
 10
-499.9999999999998
 20
304.1973309185182
 30
0.0
 10
-499.9999999999998
 20
304.1233414225051
 30
0.0
 10
-499.9999999999998
 20
304.0327416643881
 30
0.0
 10
-499.9999999999998
 20
303.9664897181839
 30
0.0
 10
-499.9999999999998
 20
303.9332956213052
 30
0.0
  0
SPLINE
  5
151
330
1F
100
AcDbEntity
  8
0
  6
SLD-Сплошная
 62
     7
370
    35
100
AcDbSpline
210
0.0
220
0.0
230
1.0
 70
     8
 71
     3
 72
    12
 73
     8
 74
     0
 42
0.000000001
 43
0.00000001
 40
0.0
 40
0.0
 40
0.0
 40
0.0
 40
0.0086674047363283
 40
0.267632629882784
 40
0.5286616002507958
 40
0.7638461449005343
 40
0.9999999999999999
 40
0.9999999999999999
 40
0.9999999999999999
 40
0.9999999999999999
 10
-504.2111405601819
 20
304.2458850428872
 30
0.0
 10
-504.2101542321531
 20
304.2454667745475
 30
0.0
 10
-504.179698337649
 20
304.2325514603148
 30
0.0
 10
-504.1222057178751
 20
304.1973309185183
 30
0.0
 10
-504.0556210249375
 20
304.1233414225051
 30
0.0
 10
-504.0094226358327
 20
304.0327416643879
 30
0.0
 10
-504.003145181819
 20
303.9664897181839
 30
0.0
 10
-503.9999999999998
 20
303.9332956213051
 30
0.0
  0
SPLINE
  5
152
330
1F
100
AcDbEntity
  8
0
  6
SLD-Сплошная
 62
     7
370
    35
100
AcDbSpline
210
0.0
220
0.0
230
1.0
 70
     8
 71
     3
 72
    12
 73
     8
 74
     0
 42
0.000000001
 43
0.00000001
 40
0.0
 40
0.0
 40
0.0
 40
0.0
 40
0.2361538550994141
 40
0.4713383997490971
 40
0.732367370117046
 40
0.9913325952634743
 40
1.0
 40
1.0
 40
1.0
 40
1.0
 10
-495.9999999999998
 20
303.9332956213051
 30
0.0
 10
-495.9968548181806
 20
303.9664897181839
 30
0.0
 10
-495.9905773641668
 20
304.0327416643879
 30
0.0
 10
-495.9443789750621
 20
304.1233414225052
 30
0.0
 10
-495.8777942821243
 20
304.1973309185178
 30
0.0
 10
-495.8203016623508
 20
304.2325514603159
 30
0.0
 10
-495.7898457678464
 20
304.2454667745475
 30
0.0
 10
-495.7888594398175
 20
304.2458850428872
 30
0.0
  0
SPLINE
  5
153
330
1F
100
AcDbEntity
  8
0
  6
SLD-Сплошная
 62
     7
370
    35
100
AcDbSpline
210
0.0
220
0.0
230
1.0
 70
     8
 71
     3
 72
     9
 73
     5
 74
     0
 42
0.000000001
 43
0.00000001
 40
0.0
 40
0.0
 40
0.0
 40
0.0
 40
0.6837814517460596
 40
1.0
 40
1.0
 40
1.0
 40
1.0
 10
-501.9999999999998
 20
300.4999999999998
 30
0.0
 10
-501.5404492219899
 20
300.523226170757
 30
0.0
 10
-500.8683766221316
 20
300.5571934137964
 30
0.0
 10
-500.2086255319469
 20
300.7036786509626
 30
0.0
 10
-499.9999999999998
 20
300.7499999999998
 30
0.0
  0
LINE
  5
154
330
1F
100
AcDbEntity
  8
0
  6
SLD-Сплошная
 62
     7
370
    35
100
AcDbLine
 10
-504.0
 20
300.75
 30
0.0
 11
-502.0
 21
300.5
 31
0.0
  0
LINE
  5
155
330
1F
100
AcDbEntity
  8
0
  6
SLD-Сплошная
 62
     7
370
    35
100
AcDbLine
 10
-504.0
 20
303.9332956213
 30
0.0
 11
-504.0
 21
300.75
 31
0.0
  0
LINE
  5
156
330
1F
100
AcDbEntity
  8
0
  6
SLD-Сплошная
 62
     7
370
    35
100
AcDbLine
 10
-500.0
 20
303.9332956213
 30
0.0
 11
-500.0
 21
300.75
 31
0.0
  0
LINE
  5
157
330
1F
100
AcDbEntity
  8
0
  6
SLD-Сплошная
 62
     7
370
    35
100
AcDbLine
 10
-500.0
 20
300.75
 30
0.0
 11
-498.0
 21
300.5
 31
0.0
  0
LINE
  5
158
330
1F
100
AcDbEntity
  8
0
  6
SLD-Сплошная
 62
     7
370
    35
100
AcDbLine
 10
-502.0
 20
300.5
 30
0.0
 11
-498.0
 21
300.5
 31
0.0
  0
SPLINE
  5
159
330
1F
100
AcDbEntity
  8
0
  6
SLD-Сплошная
 62
     7
370
    35
100
AcDbSpline
210
0.0
220
0.0
230
1.0
 70
     8
 71
     3
 72
     9
 73
     5
 74
     0
 42
0.000000001
 43
0.00000001
 40
0.0
 40
0.0
 40
0.0
 40
0.0
 40
0.6837814517460612
 40
1.0
 40
1.0
 40
1.0
 40
1.0
 10
-497.9999999999998
 20
300.4999999999998
 30
0.0
 10
-497.5404492219899
 20
300.523226170757
 30
0.0
 10
-496.8683766221316
 20
300.5571934137963
 30
0.0
 10
-496.208625531947
 20
300.7036786509626
 30
0.0
 10
-495.9999999999998
 20
300.7499999999998
 30
0.0
  0
LINE
  5
15A
330
1F
100
AcDbEntity
  8
0
  6
SLD-Сплошная
 62
     7
370
    35
100
AcDbLine
 10
-496.0
 20
303.9332956213
 30
0.0
 11
-496.0
 21
300.75
 31
0.0
  0
SPLINE
  5
15B
330
1F
100
AcDbEntity
  8
0
  6
SLD-Сплошная
 62
     7
370
    35
100
AcDbSpline
210
0.0
220
0.0
230
1.0
 70
    24
 71
     3
 72
     9
 73
     5
 74
     0
 42
0.000000001
 43
0.00000001
 40
0.0
 40
0.0
 40
0.0
 40
0.0
 40
0.8037424145840063
 40
1.0
 40
1.0
 40
1.0
 40
1.0
 10
-495.9999999999998
 20
300.4999999999998
 30
0.0
 10
-495.9999999999998
 20
300.5318203256768
 30
0.0
 10
-495.9999999999997
 20
300.5714105290796
 30
0.0
 10
-495.9999999999998
 20
300.7207006761996
 30
0.0
 10
-495.9999999999998
 20
300.7499999999998
 30
0.0
  0
LINE
  5
15C
330
1F
100
AcDbEntity
  8
0
  6
SLD-Сплошная
 62
     7
370
    35
100
AcDbLine
 10
-496.0
 20
300.5
 30
0.0
 11
-498.0
 21
300.5
 31
0.0
  0
SPLINE
  5
15D
330
1F
100
AcDbEntity
  8
0
  6
SLD-Сплошная
 62
     7
370
    35
100
AcDbSpline
210
0.0
220
0.0
230
1.0
 70
    24
 71
     3
 72
     9
 73
     5
 74
     0
 42
0.000000001
 43
0.00000001
 40
0.0
 40
0.0
 40
0.0
 40
0.0
 40
0.8037424145840146
 40
1.0
 40
1.0
 40
1.0
 40
1.0
 10
-503.9999999999998
 20
300.4999999999998
 30
0.0
 10
-503.9999999999998
 20
300.5318203256768
 30
0.0
 10
-503.9999999999998
 20
300.5714105290798
 30
0.0
 10
-503.9999999999998
 20
300.7207006761996
 30
0.0
 10
-503.9999999999998
 20
300.7499999999998
 30
0.0
  0
LINE
  5
15E
330
1F
100
AcDbEntity
  8
0
  6
SLD-Сплошная
 62
     7
370
    35
100
AcDbLine
 10
-504.0
 20
300.5
 30
0.0
 11
-502.0
 21
300.5
 31
0.0
  0
SPLINE
  5
15F
330
1F
100
AcDbEntity
  8
0
  6
SLD-Сплошная
 62
     7
370
    35
100
AcDbSpline
210
0.0
220
0.0
230
1.0
 70
     8
 71
     3
 72
    12
 73
     8
 74
     0
 42
0.000000001
 43
0.00000001
 40
0.0
 40
0.0
 40
0.0
 40
0.0
 40
0.2361538550993211
 40
0.4713383997491504
 40
0.7323673701167224
 40
0.9913325952635341
 40
0.9999999999999999
 40
0.9999999999999999
 40
0.9999999999999999
 40
0.9999999999999999
 10
503.050383509642
 20
309.4402736288811
 30
0.0
 10
503.0527820123311
 20
309.4070795320023
 30
0.0
 10
503.0575691728825
 20
309.3408275857983
 30
0.0
 10
503.0927998739571
 20
309.2502278276812
 30
0.0
 10
503.1435770862885
 20
309.176238331668
 30
0.0
 10
503.1874207211123
 20
309.1410177898707
 30
0.0
 10
503.2106462607024
 20
309.1281024756387
 30
0.0
 10
503.2113984303911
 20
309.127684207299
 30
0.0
  0
SPLINE
  5
160
330
1F
100
AcDbEntity
  8
0
  6
SLD-Сплошная
 62
     7
370
    35
100
AcDbSpline
210
0.0
220
0.0
230
1.0
 70
     8
 71
     3
 72
    12
 73
     8
 74
     0
 42
0.000000001
 43
0.00000001
 40
0.0
 40
0.0
 40
0.0
 40
0.0
 40
0.236153855099561
 40
0.4713383997492528
 40
0.732367370117147
 40
0.9913325952640775
 40
1.0
 40
1.0
 40
1.0
 40
1.0
 10
498.5216321444457
 20
309.4402736288811
 30
0.0
 10
498.5204697105203
 20
309.4070795320023
 30
0.0
 10
498.518149613963
 20
309.3408275857983
 30
0.0
 10
498.5010750606052
 20
309.2502278276811
 30
0.0
 10
498.476465893178
 20
309.1762383316681
 30
0.0
 10
498.4552170829248
 20
309.1410177898706
 30
0.0
 10
498.4439608290646
 20
309.1281024756387
 30
0.0
 10
498.4435962901514
 20
309.127684207299
 30
0.0
  0
LINE
  5
161
330
1F
100
AcDbEntity
  8
0
  6
SLD-Сплошная
 62
     7
370
    35
100
AcDbLine
 10
498.5216321444
 20
312.9427344101
 30
0.0
 11
500.786007827
 21
313.3
 31
0.0
  0
SPLINE
  5
162
330
1F
100
AcDbEntity
  8
0
  6
SLD-Сплошная
 62
     7
370
    35
100
AcDbSpline
210
0.0
220
0.0
230
1.0
 70
     8
 71
     3
 72
     9
 73
     5
 74
     0
 42
0.000000001
 43
0.00000001
 40
0.0
 40
0.0
 40
0.0
 40
0.0
 40
0.0701852045454769
 40
1.0
 40
1.0
 40
1.0
 40
1.0
 10
500.7860078270438
 20
313.2999999999997
 30
0.0
 10
500.8396751619243
 20
313.2996432638502
 30
0.0
 10
501.6043282711966
 20
313.294560481064
 30
0.0
 10
502.3536515958241
 20
313.1122496853332
 30
0.0
 10
503.0503835096419
 20
312.9427344100916
 30
0.0
  0
LINE
  5
163
330
1F
100
AcDbEntity
  8
0
  6
SLD-Сплошная
 62
     7
370
    35
100
AcDbLine
 10
503.0503835096
 20
309.4402736289
 30
0.0
 11
503.0503835096
 21
312.9427344101
 31
0.0
  0
LINE
  5
164
330
1F
100
AcDbEntity
  8
0
  6
SLD-Сплошная
 62
     7
370
    35
100
AcDbLine
 10
498.5216321444
 20
309.4402736289
 30
0.0
 11
498.5216321444
 21
312.9427344101
 31
0.0
  0
SPLINE
  5
165
330
1F
100
AcDbEntity
  8
0
  6
SLD-Сплошная
 62
     7
370
    35
100
AcDbSpline
210
0.0
220
0.0
230
1.0
 70
     8
 71
     3
 72
     9
 73
     5
 74
     0
 42
0.000000001
 43
0.00000001
 40
0.0
 40
0.0
 40
0.0
 40
0.0
 40
0.2210460768286991
 40
1.0
 40
1.0
 40
1.0
 40
1.0
 10
496.9964403896244
 20
313.2999999999997
 30
0.0
 10
497.1105056464979
 20
313.2964177496901
 30
0.0
 10
497.6265304432723
 20
313.2802118510778
 30
0.0
 10
498.1296922674853
 20
313.0905062962625
 30
0.0
 10
498.5216321444457
 20
312.9427344100916
 30
0.0
  0
LINE
  5
166
330
1F
100
AcDbEntity
  8
0
  6
SLD-Сплошная
 62
     7
370
    35
100
AcDbLine
 10
496.9964403896
 20
313.3
 30
0.0
 11
500.786007827
 21
313.3
 31
0.0
  0
LINE
  5
167
330
1F
100
AcDbEntity
  8
0
  6
SLD-Сплошная
 62
     7
370
    35
100
AcDbLine
 10
503.0503835096
 20
312.9427344101
 30
0.0
 11
503.7895674374
 21
313.3
 31
0.0
  0
LINE
  5
168
330
1F
100
AcDbEntity
  8
0
  6
SLD-Сплошная
 62
     7
370
    35
100
AcDbLine
 10
503.7895674374
 20
313.3
 30
0.0
 11
500.786007827
 21
313.3
 31
0.0
  0
SPLINE
  5
169
330
1F
100
AcDbEntity
  8
0
  6
SLD-Сплошная
 62
     7
370
    35
100
AcDbSpline
210
0.0
220
0.0
230
1.0
 70
     8
 71
     3
 72
    12
 73
     8
 74
     0
 42
0.000000001
 43
0.00000001
 40
0.0
 40
0.0
 40
0.0
 40
0.0
 40
0.2361538550995605
 40
0.4713383997492716
 40
0.7323673701179826
 40
0.9913325952638453
 40
0.9999999999999999
 40
0.9999999999999999
 40
0.9999999999999999
 40
0.9999999999999999
 10
495.4712486348034
 20
309.4402736288811
 30
0.0
 10
495.4676876981891
 20
309.4070795320023
 30
0.0
 10
495.4605804410803
 20
309.3408275857984
 30
0.0
 10
495.4082751866487
 20
309.250227827681
 30
0.0
 10
495.3328888068871
 20
309.1762383316682
 30
0.0
 10
495.2677963618147
 20
309.1410177898708
 30
0.0
 10
495.2333145683617
 20
309.1281024756386
 30
0.0
 10
495.2321978597602
 20
309.127684207299
 30
0.0
  0
SPLINE
  5
16A
330
1F
100
AcDbEntity
  8
0
  6
SLD-Сплошная
 62
     7
370
    35
100
AcDbSpline
210
0.0
220
0.0
230
1.0
 70
     8
 71
     3
 72
     9
 73
     5
 74
     0
 42
0.000000001
 43
0.00000001
 40
0.0
 40
0.0
 40
0.0
 40
0.0
 40
0.1972242043131442
 40
1.0
 40
1.0
 40
1.0
 40
1.0
 10
495.4712486348034
 20
312.9427344100916
 30
0.0
 10
495.5691624553027
 20
312.9843725670051
 30
0.0
 10
496.0656219078339
 20
313.1954934943707
 30
0.0
 10
496.5819470570941
 20
313.2534632684709
 30
0.0
 10
496.9964403896244
 20
313.2999999999997
 30
0.0
  0
LINE
  5
16B
330
1F
100
AcDbEntity
  8
0
  6
SLD-Сплошная
 62
     7
370
    35
100
AcDbLine
 10
495.4712486348
 20
309.4402736289
 30
0.0
 11
495.4712486348
 21
312.9427344101
 31
0.0
  0
SPLINE
  5
16C
330
1F
100
AcDbEntity
  8
0
  6
SLD-Сплошная
 62
     7
370
    35
100
AcDbSpline
210
0.0
220
0.0
230
1.0
 70
     8
 71
     3
 72
    10
 73
     6
 74
     0
 42
0.000000001
 43
0.00000001
 40
0.0
 40
0.0
 40
0.0
 40
0.0
 40
0.2602598142131034
 40
0.6293692668821762
 40
0.9999999999999999
 40
0.9999999999999999
 40
0.9999999999999999
 40
0.9999999999999999
 10
504.6421692028875
 20
309.2079167389967
 30
0.0
 10
504.6249912221206
 20
309.2232510742313
 30
0.0
 10
504.5834508360468
 20
309.2603330930358
 30
0.0
 10
504.5398419229191
 20
309.3413063290131
 30
0.0
 10
504.5324532826988
 20
309.4072393317104
 30
0.0
 10
504.5287513651958
 20
309.4402736288811
 30
0.0
  0
LINE
  5
16D
330
1F
100
AcDbEntity
  8
0
  6
SLD-Сплошная
 62
     7
370
    35
100
AcDbLine
 10
498.1227752435
 20
296.345
 30
0.0
 11
502.5
 21
296.345
 31
0.0
  0
LINE
  5
16E
330
1F
100
AcDbEntity
  8
0
  6
SLD-Сплошная
 62
     7
370
    35
100
AcDbLine
 10
497.5
 20
296.345
 30
0.0
 11
498.1227752435
 21
296.345
 31
0.0
  0
LINE
  5
16F
330
1F
100
AcDbEntity
  8
0
  6
SLD-Сплошная
 62
     7
370
    35
100
AcDbLine
 10
498.4569212502
 20
295.9
 30
0.0
 11
502.055
 21
295.9
 31
0.0
  0
LINE
  5
170
330
1F
100
AcDbEntity
  8
0
  6
SLD-Сплошная
 62
     7
370
    35
100
AcDbLine
 10
497.945
 20
295.9
 30
0.0
 11
498.4569212502
 21
295.9
 31
0.0
  0
SPLINE
  5
171
330
1F
100
AcDbEntity
  8
0
  6
SLD-Сплошная
 62
     7
370
    35
100
AcDbSpline
210
0.0
220
0.0
230
1.0
 70
     8
 71
     3
 72
     9
 73
     5
 74
     0
 42
0.000000001
 43
0.00000001
 40
0.0
 40
0.0
 40
0.0
 40
0.0
 40
0.119920100117127
 40
1.0
 40
1.0
 40
1.0
 40
1.0
 10
503.789567437419
 20
313.2999999999997
 30
0.0
 10
503.807092451714
 20
313.2998494777303
 30
0.0
 10
503.9532315416411
 20
313.29859428974
 30
0.0
 10
504.0964418048728
 20
313.1936135017248
 30
0.0
 10
504.2224782789997
 20
313.1012220203186
 30
0.0
  0
LINE
  5
172
330
1F
100
AcDbEntity
  8
0
  6
SLD-Сплошная
 62
     7
370
    35
100
AcDbLine
 10
504.5287513652
 20
309.4402736289
 30
0.0
 11
504.5287513652
 21
312.9427344101
 31
0.0
  0
LINE
  5
173
330
1F
100
AcDbEntity
  8
0
  6
SLD-Сплошная
 62
     7
370
    35
100
AcDbLine
 10
495.777521721
 20
313.1012220203
 30
0.0
 11
495.4712486348
 21
312.9427344101
 31
0.0
  0
LINE
  5
174
330
1F
100
AcDbEntity
  8
0
  6
SLD-Сплошная
 62
     7
370
    35
100
AcDbLine
 10
496.9964403896
 20
313.3
 30
0.0
 11
496.0
 21
313.3
 31
0.0
  0
LINE
  5
175
330
1F
100
AcDbEntity
  8
0
  6
SLD-Сплошная
 62
     7
370
    35
100
AcDbLine
 10
504.0
 20
313.3
 30
0.0
 11
503.7895674374
 21
313.3
 31
0.0
  0
SPLINE
  5
176
330
1F
100
AcDbEntity
  8
0
  6
SLD-Сплошная
 62
     7
370
    35
100
AcDbSpline
210
0.0
220
0.0
230
1.0
 70
     8
 71
     3
 72
    12
 73
     8
 74
     0
 42
0.000000001
 43
0.00000001
 40
0.0
 40
0.0
 40
0.0
 40
0.0
 40
0.2361538550993356
 40
0.471338399749137
 40
0.732367370116788
 40
0.9913325952636156
 40
1.0
 40
1.0
 40
1.0
 40
1.0
 10
-96.94961649035811
 20
309.4402736288811
 30
0.0
 10
-96.94721798766915
 20
309.4070795320023
 30
0.0
 10
-96.94243082711768
 20
309.3408275857981
 30
0.0
 10
-96.90720012604353
 20
309.2502278276812
 30
0.0
 10
-96.85642291371039
 20
309.176238331668
 30
0.0
 10
-96.81257927889003
 20
309.1410177898708
 30
0.0
 10
-96.78935373929764
 20
309.1281024756387
 30
0.0
 10
-96.78860156960906
 20
309.127684207299
 30
0.0
  0
SPLINE
  5
177
330
1F
100
AcDbEntity
  8
0
  6
SLD-Сплошная
 62
     7
370
    35
100
AcDbSpline
210
0.0
220
0.0
230
1.0
 70
     8
 71
     3
 72
    12
 73
     8
 74
     0
 42
0.000000001
 43
0.00000001
 40
0.0
 40
0.0
 40
0.0
 40
0.0
 40
0.2361538550995459
 40
0.4713383997492301
 40
0.7323673701171158
 40
0.9913325952640378
 40
1.0
 40
1.0
 40
1.0
 40
1.0
 10
-101.4783678555545
 20
309.4402736288811
 30
0.0
 10
-101.4795302894799
 20
309.4070795320023
 30
0.0
 10
-101.481850386037
 20
309.3408275857984
 30
0.0
 10
-101.4989249393951
 20
309.2502278276809
 30
0.0
 10
-101.5235341068221
 20
309.1762383316681
 30
0.0
 10
-101.5447829170745
 20
309.1410177898708
 30
0.0
 10
-101.5560391709355
 20
309.1281024756387
 30
0.0
 10
-101.5564037098487
 20
309.127684207299
 30
0.0
  0
LINE
  5
178
330
1F
100
AcDbEntity
  8
0
  6
SLD-Сплошная
 62
     7
370
    35
100
AcDbLine
 10
-101.4783678556
 20
312.9427344101
 30
0.0
 11
-99.213992173
 21
313.3
 31
0.0
  0
SPLINE
  5
179
330
1F
100
AcDbEntity
  8
0
  6
SLD-Сплошная
 62
     7
370
    35
100
AcDbSpline
210
0.0
220
0.0
230
1.0
 70
     8
 71
     3
 72
     9
 73
     5
 74
     0
 42
0.000000001
 43
0.00000001
 40
0.0
 40
0.0
 40
0.0
 40
0.0
 40
0.0701852045454786
 40
1.0
 40
1.0
 40
1.0
 40
1.0
 10
-99.2139921729563
 20
313.2999999999997
 30
0.0
 10
-99.16032483807568
 20
313.2996432638502
 30
0.0
 10
-98.39567172880315
 20
313.2945604810638
 30
0.0
 10
-97.6463484041758
 20
313.1122496853331
 30
0.0
 10
-96.94961649035815
 20
312.9427344100916
 30
0.0
  0
LINE
  5
17A
330
1F
100
AcDbEntity
  8
0
  6
SLD-Сплошная
 62
     7
370
    35
100
AcDbLine
 10
-96.9496164904
 20
309.4402736289
 30
0.0
 11
-96.9496164904
 21
312.9427344101
 31
0.0
  0
LINE
  5
17B
330
1F
100
AcDbEntity
  8
0
  6
SLD-Сплошная
 62
     7
370
    35
100
AcDbLine
 10
-101.4783678556
 20
309.4402736289
 30
0.0
 11
-101.4783678556
 21
312.9427344101
 31
0.0
  0
SPLINE
  5
17C
330
1F
100
AcDbEntity
  8
0
  6
SLD-Сплошная
 62
     7
370
    35
100
AcDbSpline
210
0.0
220
0.0
230
1.0
 70
     8
 71
     3
 72
     9
 73
     5
 74
     0
 42
0.000000001
 43
0.00000001
 40
0.0
 40
0.0
 40
0.0
 40
0.0
 40
0.2210460768287147
 40
1.0
 40
1.0
 40
1.0
 40
1.0
 10
-103.0035596103757
 20
313.2999999999997
 30
0.0
 10
-102.8894943535024
 20
313.29641774969
 30
0.0
 10
-102.3734695567276
 20
313.2802118510778
 30
0.0
 10
-101.8703077325149
 20
313.0905062962624
 30
0.0
 10
-101.4783678555544
 20
312.9427344100916
 30
0.0
  0
LINE
  5
17D
330
1F
100
AcDbEntity
  8
0
  6
SLD-Сплошная
 62
     7
370
    35
100
AcDbLine
 10
-103.0035596104
 20
313.3
 30
0.0
 11
-99.213992173
 21
313.3
 31
0.0
  0
LINE
  5
17E
330
1F
100
AcDbEntity
  8
0
  6
SLD-Сплошная
 62
     7
370
    35
100
AcDbLine
 10
-96.9496164904
 20
312.9427344101
 30
0.0
 11
-96.2104325626
 21
313.3
 31
0.0
  0
LINE
  5
17F
330
1F
100
AcDbEntity
  8
0
  6
SLD-Сплошная
 62
     7
370
    35
100
AcDbLine
 10
-96.2104325626
 20
313.3
 30
0.0
 11
-99.213992173
 21
313.3
 31
0.0
  0
SPLINE
  5
180
330
1F
100
AcDbEntity
  8
0
  6
SLD-Сплошная
 62
     7
370
    35
100
AcDbSpline
210
0.0
220
0.0
230
1.0
 70
     8
 71
     3
 72
    12
 73
     8
 74
     0
 42
0.000000001
 43
0.00000001
 40
0.0
 40
0.0
 40
0.0
 40
0.0
 40
0.236153855099566
 40
0.4713383997491967
 40
0.7323673701178883
 40
0.9913325952638461
 40
1.0
 40
1.0
 40
1.0
 40
1.0
 10
-104.5287513651967
 20
309.4402736288811
 30
0.0
 10
-104.5323123018111
 20
309.4070795320022
 30
0.0
 10
-104.53941955892
 20
309.3408275857983
 30
0.0
 10
-104.5917248133517
 20
309.2502278276808
 30
0.0
 10
-104.6671111931126
 20
309.1762383316683
 30
0.0
 10
-104.7322036381851
 20
309.1410177898712
 30
0.0
 10
-104.7666854316383
 20
309.1281024756387
 30
0.0
 10
-104.76780214024
 20
309.127684207299
 30
0.0
  0
SPLINE
  5
181
330
1F
100
AcDbEntity
  8
0
  6
SLD-Сплошная
 62
     7
370
    35
100
AcDbSpline
210
0.0
220
0.0
230
1.0
 70
     8
 71
     3
 72
     9
 73
     5
 74
     0
 42
0.000000001
 43
0.00000001
 40
0.0
 40
0.0
 40
0.0
 40
0.0
 40
0.197224204313132
 40
1.0
 40
1.0
 40
1.0
 40
1.0
 10
-104.5287513651967
 20
312.9427344100916
 30
0.0
 10
-104.4308375446975
 20
312.9843725670051
 30
0.0
 10
-103.934378092166
 20
313.1954934943709
 30
0.0
 10
-103.418052942906
 20
313.2534632684709
 30
0.0
 10
-103.0035596103757
 20
313.2999999999997
 30
0.0
  0
LINE
  5
182
330
1F
100
AcDbEntity
  8
0
  6
SLD-Сплошная
 62
     7
370
    35
100
AcDbLine
 10
-104.5287513652
 20
309.4402736289
 30
0.0
 11
-104.5287513652
 21
312.9427344101
 31
0.0
  0
SPLINE
  5
183
330
1F
100
AcDbEntity
  8
0
  6
SLD-Сплошная
 62
     7
370
    35
100
AcDbSpline
210
0.0
220
0.0
230
1.0
 70
     8
 71
     3
 72
    10
 73
     6
 74
     0
 42
0.000000001
 43
0.00000001
 40
0.0
 40
0.0
 40
0.0
 40
0.0
 40
0.2602598142129778
 40
0.6293692668821808
 40
1.0
 40
1.0
 40
1.0
 40
1.0
 10
-95.35783079711257
 20
309.2079167389968
 30
0.0
 10
-95.37500877787957
 20
309.2232510742314
 30
0.0
 10
-95.41654916395309
 20
309.260333093036
 30
0.0
 10
-95.46015807708136
 20
309.341306329013
 30
0.0
 10
-95.46754671730129
 20
309.4072393317105
 30
0.0
 10
-95.47124863480438
 20
309.4402736288811
 30
0.0
  0
LINE
  5
184
330
1F
100
AcDbEntity
  8
0
  6
SLD-Сплошная
 62
     7
370
    35
100
AcDbLine
 10
-101.8772247565
 20
296.345
 30
0.0
 11
-97.5
 21
296.345
 31
0.0
  0
LINE
  5
185
330
1F
100
AcDbEntity
  8
0
  6
SLD-Сплошная
 62
     7
370
    35
100
AcDbLine
 10
-102.5
 20
296.345
 30
0.0
 11
-101.8772247565
 21
296.345
 31
0.0
  0
LINE
  5
186
330
1F
100
AcDbEntity
  8
0
  6
SLD-Сплошная
 62
     7
370
    35
100
AcDbLine
 10
-101.5430787498
 20
295.9
 30
0.0
 11
-97.945
 21
295.9
 31
0.0
  0
LINE
  5
187
330
1F
100
AcDbEntity
  8
0
  6
SLD-Сплошная
 62
     7
370
    35
100
AcDbLine
 10
-102.055
 20
295.9
 30
0.0
 11
-101.5430787498
 21
295.9
 31
0.0
  0
SPLINE
  5
188
330
1F
100
AcDbEntity
  8
0
  6
SLD-Сплошная
 62
     7
370
    35
100
AcDbSpline
210
0.0
220
0.0
230
1.0
 70
     8
 71
     3
 72
     9
 73
     5
 74
     0
 42
0.000000001
 43
0.00000001
 40
0.0
 40
0.0
 40
0.0
 40
0.0
 40
0.1199201001171156
 40
1.0
 40
1.0
 40
1.0
 40
1.0
 10
-96.21043256258105
 20
313.2999999999997
 30
0.0
 10
-96.19290754828602
 20
313.2998494777303
 30
0.0
 10
-96.0467684583593
 20
313.2985942897399
 30
0.0
 10
-95.90355819512759
 20
313.1936135017247
 30
0.0
 10
-95.77752172100051
 20
313.1012220203186
 30
0.0
  0
LINE
  5
189
330
1F
100
AcDbEntity
  8
0
  6
SLD-Сплошная
 62
     7
370
    35
100
AcDbLine
 10
-95.4712486348
 20
309.4402736289
 30
0.0
 11
-95.4712486348
 21
312.9427344101
 31
0.0
  0
LINE
  5
18A
330
1F
100
AcDbEntity
  8
0
  6
SLD-Сплошная
 62
     7
370
    35
100
AcDbLine
 10
-104.222478279
 20
313.1012220203
 30
0.0
 11
-104.5287513652
 21
312.9427344101
 31
0.0
  0
LINE
  5
18B
330
1F
100
AcDbEntity
  8
0
  6
SLD-Сплошная
 62
     7
370
    35
100
AcDbLine
 10
-103.0035596104
 20
313.3
 30
0.0
 11
-104.0
 21
313.3
 31
0.0
  0
LINE
  5
18C
330
1F
100
AcDbEntity
  8
0
  6
SLD-Сплошная
 62
     7
370
    35
100
AcDbLine
 10
-96.0
 20
313.3
 30
0.0
 11
-96.2104325626
 21
313.3
 31
0.0
  0
SPLINE
  5
18D
330
1F
100
AcDbEntity
  8
0
  6
SLD-Сплошная
 62
     7
370
    35
100
AcDbSpline
210
0.0
220
0.0
230
1.0
 70
     8
 71
     3
 72
    12
 73
     8
 74
     0
 42
0.000000001
 43
0.00000001
 40
0.0
 40
0.0
 40
0.0
 40
0.0
 40
0.2361538550993162
 40
0.4713383997491457
 40
0.7323673701167923
 40
0.9913325952636158
 40
1.0
 40
1.0
 40
1.0
 40
1.0
 10
-496.9496164903581
 20
309.4402736288811
 30
0.0
 10
-496.947217987669
 20
309.4070795320023
 30
0.0
 10
-496.9424308271176
 20
309.3408275857983
 30
0.0
 10
-496.9072001260434
 20
309.2502278276812
 30
0.0
 10
-496.85642291371
 20
309.1762383316684
 30
0.0
 10
-496.8125792788906
 20
309.1410177898701
 30
0.0
 10
-496.7893537392976
 20
309.1281024756387
 30
0.0
 10
-496.7886015696089
 20
309.127684207299
 30
0.0
  0
SPLINE
  5
18E
330
1F
100
AcDbEntity
  8
0
  6
SLD-Сплошная
 62
     7
370
    35
100
AcDbSpline
210
0.0
220
0.0
230
1.0
 70
     8
 71
     3
 72
    12
 73
     8
 74
     0
 42
0.000000001
 43
0.00000001
 40
0.0
 40
0.0
 40
0.0
 40
0.0
 40
0.2361538550995444
 40
0.4713383997492444
 40
0.7323673701171154
 40
0.9913325952640379
 40
1.0
 40
1.0
 40
1.0
 40
1.0
 10
-501.4783678555543
 20
309.4402736288811
 30
0.0
 10
-501.4795302894798
 20
309.4070795320023
 30
0.0
 10
-501.481850386037
 20
309.3408275857983
 30
0.0
 10
-501.498924939395
 20
309.2502278276814
 30
0.0
 10
-501.5235341068221
 20
309.1762383316675
 30
0.0
 10
-501.5447829170746
 20
309.1410177898716
 30
0.0
 10
-501.5560391709355
 20
309.1281024756387
 30
0.0
 10
-501.5564037098486
 20
309.127684207299
 30
0.0
  0
LINE
  5
18F
330
1F
100
AcDbEntity
  8
0
  6
SLD-Сплошная
 62
     7
370
    35
100
AcDbLine
 10
-501.4783678556
 20
312.9427344101
 30
0.0
 11
-499.213992173
 21
313.3
 31
0.0
  0
SPLINE
  5
190
330
1F
100
AcDbEntity
  8
0
  6
SLD-Сплошная
 62
     7
370
    35
100
AcDbSpline
210
0.0
220
0.0
230
1.0
 70
     8
 71
     3
 72
     9
 73
     5
 74
     0
 42
0.000000001
 43
0.00000001
 40
0.0
 40
0.0
 40
0.0
 40
0.0
 40
0.0701852045454715
 40
1.0
 40
1.0
 40
1.0
 40
1.0
 10
-499.2139921729562
 20
313.2999999999997
 30
0.0
 10
-499.1603248380756
 20
313.2996432638502
 30
0.0
 10
-498.3956717288031
 20
313.2945604810637
 30
0.0
 10
-497.6463484041757
 20
313.1122496853331
 30
0.0
 10
-496.9496164903581
 20
312.9427344100916
 30
0.0
  0
LINE
  5
191
330
1F
100
AcDbEntity
  8
0
  6
SLD-Сплошная
 62
     7
370
    35
100
AcDbLine
 10
-496.9496164904
 20
309.4402736289
 30
0.0
 11
-496.9496164904
 21
312.9427344101
 31
0.0
  0
LINE
  5
192
330
1F
100
AcDbEntity
  8
0
  6
SLD-Сплошная
 62
     7
370
    35
100
AcDbLine
 10
-501.4783678556
 20
309.4402736289
 30
0.0
 11
-501.4783678556
 21
312.9427344101
 31
0.0
  0
SPLINE
  5
193
330
1F
100
AcDbEntity
  8
0
  6
SLD-Сплошная
 62
     7
370
    35
100
AcDbSpline
210
0.0
220
0.0
230
1.0
 70
     8
 71
     3
 72
     9
 73
     5
 74
     0
 42
0.000000001
 43
0.00000001
 40
0.0
 40
0.0
 40
0.0
 40
0.0
 40
0.2210460768287147
 40
1.0
 40
1.0
 40
1.0
 40
1.0
 10
-503.0035596103756
 20
313.2999999999997
 30
0.0
 10
-502.8894943535023
 20
313.29641774969
 30
0.0
 10
-502.3734695567275
 20
313.2802118510778
 30
0.0
 10
-501.8703077325148
 20
313.0905062962624
 30
0.0
 10
-501.4783678555543
 20
312.9427344100916
 30
0.0
  0
LINE
  5
194
330
1F
100
AcDbEntity
  8
0
  6
SLD-Сплошная
 62
     7
370
    35
100
AcDbLine
 10
-503.0035596104
 20
313.3
 30
0.0
 11
-499.213992173
 21
313.3
 31
0.0
  0
LINE
  5
195
330
1F
100
AcDbEntity
  8
0
  6
SLD-Сплошная
 62
     7
370
    35
100
AcDbLine
 10
-496.9496164904
 20
312.9427344101
 30
0.0
 11
-496.2104325626
 21
313.3
 31
0.0
  0
LINE
  5
196
330
1F
100
AcDbEntity
  8
0
  6
SLD-Сплошная
 62
     7
370
    35
100
AcDbLine
 10
-496.2104325626
 20
313.3
 30
0.0
 11
-499.213992173
 21
313.3
 31
0.0
  0
SPLINE
  5
197
330
1F
100
AcDbEntity
  8
0
  6
SLD-Сплошная
 62
     7
370
    35
100
AcDbSpline
210
0.0
220
0.0
230
1.0
 70
     8
 71
     3
 72
    12
 73
     8
 74
     0
 42
0.000000001
 43
0.00000001
 40
0.0
 40
0.0
 40
0.0
 40
0.0
 40
0.2361538550995481
 40
0.4713383997492039
 40
0.7323673701178652
 40
0.991332595263816
 40
1.0
 40
1.0
 40
1.0
 40
1.0
 10
-504.5287513651966
 20
309.4402736288811
 30
0.0
 10
-504.532312301811
 20
309.4070795320023
 30
0.0
 10
-504.5394195589199
 20
309.3408275857984
 30
0.0
 10
-504.5917248133516
 20
309.2502278276808
 30
0.0
 10
-504.6671111931126
 20
309.176238331669
 30
0.0
 10
-504.732203638185
 20
309.1410177898694
 30
0.0
 10
-504.7666854316383
 20
309.1281024756387
 30
0.0
 10
-504.76780214024
 20
309.127684207299
 30
0.0
  0
SPLINE
  5
198
330
1F
100
AcDbEntity
  8
0
  6
SLD-Сплошная
 62
     7
370
    35
100
AcDbSpline
210
0.0
220
0.0
230
1.0
 70
     8
 71
     3
 72
     9
 73
     5
 74
     0
 42
0.000000001
 43
0.00000001
 40
0.0
 40
0.0
 40
0.0
 40
0.0
 40
0.197224204313135
 40
1.0
 40
1.0
 40
1.0
 40
1.0
 10
-504.5287513651966
 20
312.9427344100916
 30
0.0
 10
-504.4308375446974
 20
312.9843725670052
 30
0.0
 10
-503.934378092166
 20
313.195493494371
 30
0.0
 10
-503.418052942906
 20
313.2534632684709
 30
0.0
 10
-503.0035596103756
 20
313.2999999999997
 30
0.0
  0
LINE
  5
199
330
1F
100
AcDbEntity
  8
0
  6
SLD-Сплошная
 62
     7
370
    35
100
AcDbLine
 10
-504.5287513652
 20
309.4402736289
 30
0.0
 11
-504.5287513652
 21
312.9427344101
 31
0.0
  0
SPLINE
  5
19A
330
1F
100
AcDbEntity
  8
0
  6
SLD-Сплошная
 62
     7
370
    35
100
AcDbSpline
210
0.0
220
0.0
230
1.0
 70
     8
 71
     3
 72
    10
 73
     6
 74
     0
 42
0.000000001
 43
0.00000001
 40
0.0
 40
0.0
 40
0.0
 40
0.0
 40
0.2602598142131785
 40
0.6293692668822567
 40
1.0
 40
1.0
 40
1.0
 40
1.0
 10
-495.3578307971125
 20
309.2079167389967
 30
0.0
 10
-495.3750087778794
 20
309.2232510742313
 30
0.0
 10
-495.4165491639531
 20
309.2603330930358
 30
0.0
 10
-495.4601580770812
 20
309.341306329013
 30
0.0
 10
-495.4675467173012
 20
309.4072393317103
 30
0.0
 10
-495.4712486348043
 20
309.4402736288811
 30
0.0
  0
LINE
  5
19B
330
1F
100
AcDbEntity
  8
0
  6
SLD-Сплошная
 62
     7
370
    35
100
AcDbLine
 10
-501.8772247565
 20
296.345
 30
0.0
 11
-497.5
 21
296.345
 31
0.0
  0
LINE
  5
19C
330
1F
100
AcDbEntity
  8
0
  6
SLD-Сплошная
 62
     7
370
    35
100
AcDbLine
 10
-502.5
 20
296.345
 30
0.0
 11
-501.8772247565
 21
296.345
 31
0.0
  0
LINE
  5
19D
330
1F
100
AcDbEntity
  8
0
  6
SLD-Сплошная
 62
     7
370
    35
100
AcDbLine
 10
-501.5430787498
 20
295.9
 30
0.0
 11
-497.945
 21
295.9
 31
0.0
  0
LINE
  5
19E
330
1F
100
AcDbEntity
  8
0
  6
SLD-Сплошная
 62
     7
370
    35
100
AcDbLine
 10
-502.055
 20
295.9
 30
0.0
 11
-501.5430787498
 21
295.9
 31
0.0
  0
SPLINE
  5
19F
330
1F
100
AcDbEntity
  8
0
  6
SLD-Сплошная
 62
     7
370
    35
100
AcDbSpline
210
0.0
220
0.0
230
1.0
 70
     8
 71
     3
 72
     9
 73
     5
 74
     0
 42
0.000000001
 43
0.00000001
 40
0.0
 40
0.0
 40
0.0
 40
0.0
 40
0.1199201001171148
 40
1.0
 40
1.0
 40
1.0
 40
1.0
 10
-496.2104325625809
 20
313.2999999999997
 30
0.0
 10
-496.1929075482859
 20
313.2998494777303
 30
0.0
 10
-496.0467684583593
 20
313.2985942897399
 30
0.0
 10
-495.9035581951276
 20
313.1936135017248
 30
0.0
 10
-495.7775217210004
 20
313.1012220203186
 30
0.0
  0
LINE
  5
1A0
330
1F
100
AcDbEntity
  8
0
  6
SLD-Сплошная
 62
     7
370
    35
100
AcDbLine
 10
-495.4712486348
 20
309.4402736289
 30
0.0
 11
-495.4712486348
 21
312.9427344101
 31
0.0
  0
LINE
  5
1A1
330
1F
100
AcDbEntity
  8
0
  6
SLD-Сплошная
 62
     7
370
    35
100
AcDbLine
 10
-504.222478279
 20
313.1012220203
 30
0.0
 11
-504.5287513652
 21
312.9427344101
 31
0.0
  0
LINE
  5
1A2
330
1F
100
AcDbEntity
  8
0
  6
SLD-Сплошная
 62
     7
370
    35
100
AcDbLine
 10
-503.0035596104
 20
313.3
 30
0.0
 11
-504.0
 21
313.3
 31
0.0
  0
LINE
  5
1A3
330
1F
100
AcDbEntity
  8
0
  6
SLD-Сплошная
 62
     7
370
    35
100
AcDbLine
 10
-496.0
 20
313.3
 30
0.0
 11
-496.2104325626
 21
313.3
 31
0.0
  0
SPLINE
  5
1A4
330
1F
100
AcDbEntity
  8
0
  6
SLD-Сплошная
 62
     7
370
    35
100
AcDbSpline
210
0.0
220
0.0
230
1.0
 70
     8
 71
     3
 72
    12
 73
     8
 74
     0
 42
0.000000001
 43
0.00000001
 40
0.0
 40
0.0
 40
0.0
 40
0.0
 40
0.2361538550993162
 40
0.4713383997491457
 40
0.7323673701167923
 40
0.9913325952636158
 40
1.0
 40
1.0
 40
1.0
 40
1.0
 10
-296.949616490358
 20
309.4402736288811
 30
0.0
 10
-296.9472179876691
 20
309.4070795320023
 30
0.0
 10
-296.9424308271176
 20
309.3408275857983
 30
0.0
 10
-296.9072001260434
 20
309.2502278276812
 30
0.0
 10
-296.85642291371
 20
309.1762383316684
 30
0.0
 10
-296.8125792788904
 20
309.1410177898701
 30
0.0
 10
-296.7893537392976
 20
309.1281024756387
 30
0.0
 10
-296.788601569609
 20
309.127684207299
 30
0.0
  0
SPLINE
  5
1A5
330
1F
100
AcDbEntity
  8
0
  6
SLD-Сплошная
 62
     7
370
    35
100
AcDbSpline
210
0.0
220
0.0
230
1.0
 70
     8
 71
     3
 72
    12
 73
     8
 74
     0
 42
0.000000001
 43
0.00000001
 40
0.0
 40
0.0
 40
0.0
 40
0.0
 40
0.2361538550995444
 40
0.4713383997492444
 40
0.7323673701171154
 40
0.9913325952640379
 40
1.0
 40
1.0
 40
1.0
 40
1.0
 10
-301.4783678555544
 20
309.4402736288811
 30
0.0
 10
-301.4795302894798
 20
309.4070795320023
 30
0.0
 10
-301.4818503860369
 20
309.3408275857983
 30
0.0
 10
-301.4989249393948
 20
309.2502278276814
 30
0.0
 10
-301.5235341068222
 20
309.1762383316675
 30
0.0
 10
-301.5447829170745
 20
309.1410177898716
 30
0.0
 10
-301.5560391709355
 20
309.1281024756387
 30
0.0
 10
-301.5564037098487
 20
309.127684207299
 30
0.0
  0
LINE
  5
1A6
330
1F
100
AcDbEntity
  8
0
  6
SLD-Сплошная
 62
     7
370
    35
100
AcDbLine
 10
-301.4783678556
 20
312.9427344101
 30
0.0
 11
-299.213992173
 21
313.3
 31
0.0
  0
SPLINE
  5
1A7
330
1F
100
AcDbEntity
  8
0
  6
SLD-Сплошная
 62
     7
370
    35
100
AcDbSpline
210
0.0
220
0.0
230
1.0
 70
     8
 71
     3
 72
     9
 73
     5
 74
     0
 42
0.000000001
 43
0.00000001
 40
0.0
 40
0.0
 40
0.0
 40
0.0
 40
0.0701852045454715
 40
1.0
 40
1.0
 40
1.0
 40
1.0
 10
-299.2139921729562
 20
313.2999999999997
 30
0.0
 10
-299.1603248380757
 20
313.2996432638502
 30
0.0
 10
-298.3956717288032
 20
313.2945604810637
 30
0.0
 10
-297.6463484041758
 20
313.1122496853331
 30
0.0
 10
-296.949616490358
 20
312.9427344100916
 30
0.0
  0
LINE
  5
1A8
330
1F
100
AcDbEntity
  8
0
  6
SLD-Сплошная
 62
     7
370
    35
100
AcDbLine
 10
-296.9496164904
 20
309.4402736289
 30
0.0
 11
-296.9496164904
 21
312.9427344101
 31
0.0
  0
LINE
  5
1A9
330
1F
100
AcDbEntity
  8
0
  6
SLD-Сплошная
 62
     7
370
    35
100
AcDbLine
 10
-301.4783678556
 20
309.4402736289
 30
0.0
 11
-301.4783678556
 21
312.9427344101
 31
0.0
  0
SPLINE
  5
1AA
330
1F
100
AcDbEntity
  8
0
  6
SLD-Сплошная
 62
     7
370
    35
100
AcDbSpline
210
0.0
220
0.0
230
1.0
 70
     8
 71
     3
 72
     9
 73
     5
 74
     0
 42
0.000000001
 43
0.00000001
 40
0.0
 40
0.0
 40
0.0
 40
0.0
 40
0.2210460768287147
 40
1.0
 40
1.0
 40
1.0
 40
1.0
 10
-303.0035596103756
 20
313.2999999999997
 30
0.0
 10
-302.8894943535022
 20
313.29641774969
 30
0.0
 10
-302.3734695567275
 20
313.2802118510778
 30
0.0
 10
-301.8703077325149
 20
313.0905062962624
 30
0.0
 10
-301.4783678555544
 20
312.9427344100916
 30
0.0
  0
LINE
  5
1AB
330
1F
100
AcDbEntity
  8
0
  6
SLD-Сплошная
 62
     7
370
    35
100
AcDbLine
 10
-303.0035596104
 20
313.3
 30
0.0
 11
-299.213992173
 21
313.3
 31
0.0
  0
LINE
  5
1AC
330
1F
100
AcDbEntity
  8
0
  6
SLD-Сплошная
 62
     7
370
    35
100
AcDbLine
 10
-296.9496164904
 20
312.9427344101
 30
0.0
 11
-296.2104325626
 21
313.3
 31
0.0
  0
LINE
  5
1AD
330
1F
100
AcDbEntity
  8
0
  6
SLD-Сплошная
 62
     7
370
    35
100
AcDbLine
 10
-296.2104325626
 20
313.3
 30
0.0
 11
-299.213992173
 21
313.3
 31
0.0
  0
SPLINE
  5
1AE
330
1F
100
AcDbEntity
  8
0
  6
SLD-Сплошная
 62
     7
370
    35
100
AcDbSpline
210
0.0
220
0.0
230
1.0
 70
     8
 71
     3
 72
    12
 73
     8
 74
     0
 42
0.000000001
 43
0.00000001
 40
0.0
 40
0.0
 40
0.0
 40
0.0
 40
0.2361538550995481
 40
0.4713383997492039
 40
0.7323673701178652
 40
0.991332595263816
 40
1.0
 40
1.0
 40
1.0
 40
1.0
 10
-304.5287513651966
 20
309.4402736288811
 30
0.0
 10
-304.532312301811
 20
309.4070795320023
 30
0.0
 10
-304.5394195589199
 20
309.3408275857984
 30
0.0
 10
-304.5917248133516
 20
309.2502278276808
 30
0.0
 10
-304.6671111931124
 20
309.176238331669
 30
0.0
 10
-304.7322036381856
 20
309.1410177898694
 30
0.0
 10
-304.7666854316383
 20
309.1281024756387
 30
0.0
 10
-304.76780214024
 20
309.127684207299
 30
0.0
  0
SPLINE
  5
1AF
330
1F
100
AcDbEntity
  8
0
  6
SLD-Сплошная
 62
     7
370
    35
100
AcDbSpline
210
0.0
220
0.0
230
1.0
 70
     8
 71
     3
 72
     9
 73
     5
 74
     0
 42
0.000000001
 43
0.00000001
 40
0.0
 40
0.0
 40
0.0
 40
0.0
 40
0.197224204313135
 40
1.0
 40
1.0
 40
1.0
 40
1.0
 10
-304.5287513651966
 20
312.9427344100916
 30
0.0
 10
-304.4308375446974
 20
312.9843725670052
 30
0.0
 10
-303.9343780921661
 20
313.195493494371
 30
0.0
 10
-303.418052942906
 20
313.2534632684709
 30
0.0
 10
-303.0035596103756
 20
313.2999999999997
 30
0.0
  0
LINE
  5
1B0
330
1F
100
AcDbEntity
  8
0
  6
SLD-Сплошная
 62
     7
370
    35
100
AcDbLine
 10
-304.5287513652
 20
309.4402736289
 30
0.0
 11
-304.5287513652
 21
312.9427344101
 31
0.0
  0
SPLINE
  5
1B1
330
1F
100
AcDbEntity
  8
0
  6
SLD-Сплошная
 62
     7
370
    35
100
AcDbSpline
210
0.0
220
0.0
230
1.0
 70
     8
 71
     3
 72
    10
 73
     6
 74
     0
 42
0.000000001
 43
0.00000001
 40
0.0
 40
0.0
 40
0.0
 40
0.0
 40
0.2602598142131785
 40
0.6293692668822567
 40
1.0
 40
1.0
 40
1.0
 40
1.0
 10
-295.3578307971125
 20
309.2079167389967
 30
0.0
 10
-295.3750087778795
 20
309.2232510742313
 30
0.0
 10
-295.4165491639531
 20
309.2603330930358
 30
0.0
 10
-295.4601580770812
 20
309.341306329013
 30
0.0
 10
-295.4675467173012
 20
309.4072393317103
 30
0.0
 10
-295.4712486348043
 20
309.4402736288811
 30
0.0
  0
LINE
  5
1B2
330
1F
100
AcDbEntity
  8
0
  6
SLD-Сплошная
 62
     7
370
    35
100
AcDbLine
 10
-301.8772247565
 20
296.345
 30
0.0
 11
-297.5
 21
296.345
 31
0.0
  0
LINE
  5
1B3
330
1F
100
AcDbEntity
  8
0
  6
SLD-Сплошная
 62
     7
370
    35
100
AcDbLine
 10
-302.5
 20
296.345
 30
0.0
 11
-301.8772247565
 21
296.345
 31
0.0
  0
LINE
  5
1B4
330
1F
100
AcDbEntity
  8
0
  6
SLD-Сплошная
 62
     7
370
    35
100
AcDbLine
 10
-301.5430787498
 20
295.9
 30
0.0
 11
-297.945
 21
295.9
 31
0.0
  0
LINE
  5
1B5
330
1F
100
AcDbEntity
  8
0
  6
SLD-Сплошная
 62
     7
370
    35
100
AcDbLine
 10
-302.055
 20
295.9
 30
0.0
 11
-301.5430787498
 21
295.9
 31
0.0
  0
SPLINE
  5
1B6
330
1F
100
AcDbEntity
  8
0
  6
SLD-Сплошная
 62
     7
370
    35
100
AcDbSpline
210
0.0
220
0.0
230
1.0
 70
     8
 71
     3
 72
     9
 73
     5
 74
     0
 42
0.000000001
 43
0.00000001
 40
0.0
 40
0.0
 40
0.0
 40
0.0
 40
0.1199201001171148
 40
1.0
 40
1.0
 40
1.0
 40
1.0
 10
-296.210432562581
 20
313.2999999999997
 30
0.0
 10
-296.192907548286
 20
313.2998494777303
 30
0.0
 10
-296.0467684583593
 20
313.2985942897399
 30
0.0
 10
-295.9035581951276
 20
313.1936135017248
 30
0.0
 10
-295.7775217210005
 20
313.1012220203186
 30
0.0
  0
LINE
  5
1B7
330
1F
100
AcDbEntity
  8
0
  6
SLD-Сплошная
 62
     7
370
    35
100
AcDbLine
 10
-295.4712486348
 20
309.4402736289
 30
0.0
 11
-295.4712486348
 21
312.9427344101
 31
0.0
  0
LINE
  5
1B8
330
1F
100
AcDbEntity
  8
0
  6
SLD-Сплошная
 62
     7
370
    35
100
AcDbLine
 10
-304.222478279
 20
313.1012220203
 30
0.0
 11
-304.5287513652
 21
312.9427344101
 31
0.0
  0
LINE
  5
1B9
330
1F
100
AcDbEntity
  8
0
  6
SLD-Сплошная
 62
     7
370
    35
100
AcDbLine
 10
-303.0035596104
 20
313.3
 30
0.0
 11
-304.0
 21
313.3
 31
0.0
  0
LINE
  5
1BA
330
1F
100
AcDbEntity
  8
0
  6
SLD-Сплошная
 62
     7
370
    35
100
AcDbLine
 10
-296.0
 20
313.3
 30
0.0
 11
-296.2104325626
 21
313.3
 31
0.0
  0
SPLINE
  5
1BB
330
1F
100
AcDbEntity
  8
0
  6
SLD-Сплошная
 62
     7
370
    35
100
AcDbSpline
210
0.0
220
0.0
230
1.0
 70
     8
 71
     3
 72
    12
 73
     8
 74
     0
 42
0.000000001
 43
0.00000001
 40
0.0
 40
0.0
 40
0.0
 40
0.0
 40
0.2361538550993356
 40
0.471338399749137
 40
0.732367370116788
 40
0.9913325952636156
 40
1.0
 40
1.0
 40
1.0
 40
1.0
 10
103.050383509642
 20
309.4402736288811
 30
0.0
 10
103.052782012331
 20
309.4070795320023
 30
0.0
 10
103.0575691728825
 20
309.3408275857981
 30
0.0
 10
103.0927998739563
 20
309.2502278276812
 30
0.0
 10
103.1435770862901
 20
309.176238331668
 30
0.0
 10
103.1874207211093
 20
309.1410177898708
 30
0.0
 10
103.2106462607025
 20
309.1281024756387
 30
0.0
 10
103.211398430391
 20
309.127684207299
 30
0.0
  0
SPLINE
  5
1BC
330
1F
100
AcDbEntity
  8
0
  6
SLD-Сплошная
 62
     7
370
    35
100
AcDbSpline
210
0.0
220
0.0
230
1.0
 70
     8
 71
     3
 72
    12
 73
     8
 74
     0
 42
0.000000001
 43
0.00000001
 40
0.0
 40
0.0
 40
0.0
 40
0.0
 40
0.2361538550995459
 40
0.4713383997492301
 40
0.7323673701171158
 40
0.9913325952640378
 40
1.0
 40
1.0
 40
1.0
 40
1.0
 10
98.52163214444559
 20
309.4402736288811
 30
0.0
 10
98.52046971052026
 20
309.4070795320023
 30
0.0
 10
98.51814961396316
 20
309.3408275857984
 30
0.0
 10
98.50107506060479
 20
309.2502278276809
 30
0.0
 10
98.47646589317849
 20
309.1762383316681
 30
0.0
 10
98.45521708292453
 20
309.1410177898708
 30
0.0
 10
98.4439608290646
 20
309.1281024756387
 30
0.0
 10
98.44359629015138
 20
309.127684207299
 30
0.0
  0
LINE
  5
1BD
330
1F
100
AcDbEntity
  8
0
  6
SLD-Сплошная
 62
     7
370
    35
100
AcDbLine
 10
98.5216321444
 20
312.9427344101
 30
0.0
 11
100.786007827
 21
313.3
 31
0.0
  0
SPLINE
  5
1BE
330
1F
100
AcDbEntity
  8
0
  6
SLD-Сплошная
 62
     7
370
    35
100
AcDbSpline
210
0.0
220
0.0
230
1.0
 70
     8
 71
     3
 72
     9
 73
     5
 74
     0
 42
0.000000001
 43
0.00000001
 40
0.0
 40
0.0
 40
0.0
 40
0.0
 40
0.0701852045454786
 40
1.0
 40
1.0
 40
1.0
 40
1.0
 10
100.7860078270438
 20
313.2999999999997
 30
0.0
 10
100.8396751619243
 20
313.2996432638502
 30
0.0
 10
101.6043282711968
 20
313.2945604810638
 30
0.0
 10
102.3536515958243
 20
313.1122496853331
 30
0.0
 10
103.0503835096419
 20
312.9427344100916
 30
0.0
  0
LINE
  5
1BF
330
1F
100
AcDbEntity
  8
0
  6
SLD-Сплошная
 62
     7
370
    35
100
AcDbLine
 10
103.0503835096
 20
309.4402736289
 30
0.0
 11
103.0503835096
 21
312.9427344101
 31
0.0
  0
LINE
  5
1C0
330
1F
100
AcDbEntity
  8
0
  6
SLD-Сплошная
 62
     7
370
    35
100
AcDbLine
 10
98.5216321444
 20
309.4402736289
 30
0.0
 11
98.5216321444
 21
312.9427344101
 31
0.0
  0
SPLINE
  5
1C1
330
1F
100
AcDbEntity
  8
0
  6
SLD-Сплошная
 62
     7
370
    35
100
AcDbSpline
210
0.0
220
0.0
230
1.0
 70
     8
 71
     3
 72
     9
 73
     5
 74
     0
 42
0.000000001
 43
0.00000001
 40
0.0
 40
0.0
 40
0.0
 40
0.0
 40
0.2210460768287147
 40
1.0
 40
1.0
 40
1.0
 40
1.0
 10
96.99644038962435
 20
313.2999999999997
 30
0.0
 10
97.11050564649776
 20
313.29641774969
 30
0.0
 10
97.62653044327246
 20
313.2802118510778
 30
0.0
 10
98.12969226748514
 20
313.0905062962624
 30
0.0
 10
98.52163214444565
 20
312.9427344100916
 30
0.0
  0
LINE
  5
1C2
330
1F
100
AcDbEntity
  8
0
  6
SLD-Сплошная
 62
     7
370
    35
100
AcDbLine
 10
96.9964403896
 20
313.3
 30
0.0
 11
100.786007827
 21
313.3
 31
0.0
  0
LINE
  5
1C3
330
1F
100
AcDbEntity
  8
0
  6
SLD-Сплошная
 62
     7
370
    35
100
AcDbLine
 10
103.0503835096
 20
312.9427344101
 30
0.0
 11
103.7895674374
 21
313.3
 31
0.0
  0
LINE
  5
1C4
330
1F
100
AcDbEntity
  8
0
  6
SLD-Сплошная
 62
     7
370
    35
100
AcDbLine
 10
103.7895674374
 20
313.3
 30
0.0
 11
100.786007827
 21
313.3
 31
0.0
  0
SPLINE
  5
1C5
330
1F
100
AcDbEntity
  8
0
  6
SLD-Сплошная
 62
     7
370
    35
100
AcDbSpline
210
0.0
220
0.0
230
1.0
 70
     8
 71
     3
 72
    12
 73
     8
 74
     0
 42
0.000000001
 43
0.00000001
 40
0.0
 40
0.0
 40
0.0
 40
0.0
 40
0.236153855099566
 40
0.4713383997491967
 40
0.7323673701178883
 40
0.9913325952638461
 40
1.0
 40
1.0
 40
1.0
 40
1.0
 10
95.47124863480339
 20
309.4402736288811
 30
0.0
 10
95.46768769818887
 20
309.4070795320022
 30
0.0
 10
95.46058044108008
 20
309.3408275857983
 30
0.0
 10
95.40827518664824
 20
309.2502278276808
 30
0.0
 10
95.33288880688757
 20
309.1762383316683
 30
0.0
 10
95.26779636181499
 20
309.1410177898712
 30
0.0
 10
95.23331456836176
 20
309.1281024756387
 30
0.0
 10
95.23219785976006
 20
309.127684207299
 30
0.0
  0
SPLINE
  5
1C6
330
1F
100
AcDbEntity
  8
0
  6
SLD-Сплошная
 62
     7
370
    35
100
AcDbSpline
210
0.0
220
0.0
230
1.0
 70
     8
 71
     3
 72
     9
 73
     5
 74
     0
 42
0.000000001
 43
0.00000001
 40
0.0
 40
0.0
 40
0.0
 40
0.0
 40
0.197224204313132
 40
1.0
 40
1.0
 40
1.0
 40
1.0
 10
95.47124863480339
 20
312.9427344100916
 30
0.0
 10
95.56916245530256
 20
312.9843725670051
 30
0.0
 10
96.06562190783407
 20
313.1954934943709
 30
0.0
 10
96.58194705709406
 20
313.2534632684709
 30
0.0
 10
96.99644038962435
 20
313.2999999999997
 30
0.0
  0
LINE
  5
1C7
330
1F
100
AcDbEntity
  8
0
  6
SLD-Сплошная
 62
     7
370
    35
100
AcDbLine
 10
95.4712486348
 20
309.4402736289
 30
0.0
 11
95.4712486348
 21
312.9427344101
 31
0.0
  0
SPLINE
  5
1C8
330
1F
100
AcDbEntity
  8
0
  6
SLD-Сплошная
 62
     7
370
    35
100
AcDbSpline
210
0.0
220
0.0
230
1.0
 70
     8
 71
     3
 72
    10
 73
     6
 74
     0
 42
0.000000001
 43
0.00000001
 40
0.0
 40
0.0
 40
0.0
 40
0.0
 40
0.2602598142131034
 40
0.6293692668821762
 40
0.9999999999999999
 40
0.9999999999999999
 40
0.9999999999999999
 40
0.9999999999999999
 10
104.6421692028875
 20
309.2079167389967
 30
0.0
 10
104.6249912221205
 20
309.2232510742313
 30
0.0
 10
104.5834508360469
 20
309.2603330930358
 30
0.0
 10
104.5398419229189
 20
309.3413063290131
 30
0.0
 10
104.5324532826989
 20
309.4072393317104
 30
0.0
 10
104.5287513651958
 20
309.4402736288811
 30
0.0
  0
LINE
  5
1C9
330
1F
100
AcDbEntity
  8
0
  6
SLD-Сплошная
 62
     7
370
    35
100
AcDbLine
 10
98.4569212502
 20
295.9
 30
0.0
 11
102.055
 21
295.9
 31
0.0
  0
LINE
  5
1CA
330
1F
100
AcDbEntity
  8
0
  6
SLD-Сплошная
 62
     7
370
    35
100
AcDbLine
 10
97.945
 20
295.9
 30
0.0
 11
98.4569212502
 21
295.9
 31
0.0
  0
LINE
  5
1CB
330
1F
100
AcDbEntity
  8
0
  6
SLD-Сплошная
 62
     7
370
    35
100
AcDbLine
 10
98.1227752435
 20
296.345
 30
0.0
 11
102.5
 21
296.345
 31
0.0
  0
LINE
  5
1CC
330
1F
100
AcDbEntity
  8
0
  6
SLD-Сплошная
 62
     7
370
    35
100
AcDbLine
 10
97.5
 20
296.345
 30
0.0
 11
98.1227752435
 21
296.345
 31
0.0
  0
SPLINE
  5
1CD
330
1F
100
AcDbEntity
  8
0
  6
SLD-Сплошная
 62
     7
370
    35
100
AcDbSpline
210
0.0
220
0.0
230
1.0
 70
     8
 71
     3
 72
     9
 73
     5
 74
     0
 42
0.000000001
 43
0.00000001
 40
0.0
 40
0.0
 40
0.0
 40
0.0
 40
0.119920100117127
 40
1.0
 40
1.0
 40
1.0
 40
1.0
 10
103.789567437419
 20
313.2999999999997
 30
0.0
 10
103.807092451714
 20
313.2998494777303
 30
0.0
 10
103.953231541641
 20
313.29859428974
 30
0.0
 10
104.0964418048727
 20
313.1936135017248
 30
0.0
 10
104.2224782789997
 20
313.1012220203186
 30
0.0
  0
LINE
  5
1CE
330
1F
100
AcDbEntity
  8
0
  6
SLD-Сплошная
 62
     7
370
    35
100
AcDbLine
 10
104.5287513652
 20
309.4402736289
 30
0.0
 11
104.5287513652
 21
312.9427344101
 31
0.0
  0
LINE
  5
1CF
330
1F
100
AcDbEntity
  8
0
  6
SLD-Сплошная
 62
     7
370
    35
100
AcDbLine
 10
95.777521721
 20
313.1012220203
 30
0.0
 11
95.4712486348
 21
312.9427344101
 31
0.0
  0
LINE
  5
1D0
330
1F
100
AcDbEntity
  8
0
  6
SLD-Сплошная
 62
     7
370
    35
100
AcDbLine
 10
96.9964403896
 20
313.3
 30
0.0
 11
96.0
 21
313.3
 31
0.0
  0
LINE
  5
1D1
330
1F
100
AcDbEntity
  8
0
  6
SLD-Сплошная
 62
     7
370
    35
100
AcDbLine
 10
104.0
 20
313.3
 30
0.0
 11
103.7895674374
 21
313.3
 31
0.0
  0
SPLINE
  5
1D2
330
1F
100
AcDbEntity
  8
0
  6
SLD-Сплошная
 62
     7
370
    35
100
AcDbSpline
210
0.0
220
0.0
230
1.0
 70
     8
 71
     3
 72
    12
 73
     8
 74
     0
 42
0.000000001
 43
0.00000001
 40
0.0
 40
0.0
 40
0.0
 40
0.0
 40
0.2361538550993211
 40
0.4713383997491504
 40
0.7323673701167224
 40
0.9913325952635341
 40
0.9999999999999999
 40
0.9999999999999999
 40
0.9999999999999999
 40
0.9999999999999999
 10
303.050383509642
 20
309.4402736288811
 30
0.0
 10
303.052782012331
 20
309.4070795320023
 30
0.0
 10
303.0575691728825
 20
309.3408275857983
 30
0.0
 10
303.0927998739566
 20
309.2502278276812
 30
0.0
 10
303.1435770862896
 20
309.176238331668
 30
0.0
 10
303.1874207211098
 20
309.1410177898707
 30
0.0
 10
303.2106462607024
 20
309.1281024756387
 30
0.0
 10
303.211398430391
 20
309.127684207299
 30
0.0
  0
SPLINE
  5
1D3
330
1F
100
AcDbEntity
  8
0
  6
SLD-Сплошная
 62
     7
370
    35
100
AcDbSpline
210
0.0
220
0.0
230
1.0
 70
     8
 71
     3
 72
    12
 73
     8
 74
     0
 42
0.000000001
 43
0.00000001
 40
0.0
 40
0.0
 40
0.0
 40
0.0
 40
0.236153855099561
 40
0.4713383997492528
 40
0.732367370117147
 40
0.9913325952640775
 40
1.0
 40
1.0
 40
1.0
 40
1.0
 10
298.5216321444456
 20
309.4402736288811
 30
0.0
 10
298.5204697105203
 20
309.4070795320023
 30
0.0
 10
298.5181496139629
 20
309.3408275857983
 30
0.0
 10
298.5010750606053
 20
309.2502278276811
 30
0.0
 10
298.476465893178
 20
309.1762383316681
 30
0.0
 10
298.4552170829247
 20
309.1410177898706
 30
0.0
 10
298.4439608290646
 20
309.1281024756387
 30
0.0
 10
298.4435962901514
 20
309.127684207299
 30
0.0
  0
LINE
  5
1D4
330
1F
100
AcDbEntity
  8
0
  6
SLD-Сплошная
 62
     7
370
    35
100
AcDbLine
 10
298.5216321444
 20
312.9427344101
 30
0.0
 11
300.786007827
 21
313.3
 31
0.0
  0
SPLINE
  5
1D5
330
1F
100
AcDbEntity
  8
0
  6
SLD-Сплошная
 62
     7
370
    35
100
AcDbSpline
210
0.0
220
0.0
230
1.0
 70
     8
 71
     3
 72
     9
 73
     5
 74
     0
 42
0.000000001
 43
0.00000001
 40
0.0
 40
0.0
 40
0.0
 40
0.0
 40
0.0701852045454769
 40
1.0
 40
1.0
 40
1.0
 40
1.0
 10
300.7860078270437
 20
313.2999999999997
 30
0.0
 10
300.8396751619242
 20
313.2996432638502
 30
0.0
 10
301.6043282711971
 20
313.294560481064
 30
0.0
 10
302.3536515958243
 20
313.1122496853332
 30
0.0
 10
303.0503835096418
 20
312.9427344100916
 30
0.0
  0
LINE
  5
1D6
330
1F
100
AcDbEntity
  8
0
  6
SLD-Сплошная
 62
     7
370
    35
100
AcDbLine
 10
303.0503835096
 20
309.4402736289
 30
0.0
 11
303.0503835096
 21
312.9427344101
 31
0.0
  0
LINE
  5
1D7
330
1F
100
AcDbEntity
  8
0
  6
SLD-Сплошная
 62
     7
370
    35
100
AcDbLine
 10
298.5216321444
 20
309.4402736289
 30
0.0
 11
298.5216321444
 21
312.9427344101
 31
0.0
  0
SPLINE
  5
1D8
330
1F
100
AcDbEntity
  8
0
  6
SLD-Сплошная
 62
     7
370
    35
100
AcDbSpline
210
0.0
220
0.0
230
1.0
 70
     8
 71
     3
 72
     9
 73
     5
 74
     0
 42
0.000000001
 43
0.00000001
 40
0.0
 40
0.0
 40
0.0
 40
0.0
 40
0.2210460768286991
 40
1.0
 40
1.0
 40
1.0
 40
1.0
 10
296.9964403896244
 20
313.2999999999997
 30
0.0
 10
297.1105056464976
 20
313.2964177496901
 30
0.0
 10
297.6265304432723
 20
313.2802118510778
 30
0.0
 10
298.1296922674853
 20
313.0905062962625
 30
0.0
 10
298.5216321444456
 20
312.9427344100916
 30
0.0
  0
LINE
  5
1D9
330
1F
100
AcDbEntity
  8
0
  6
SLD-Сплошная
 62
     7
370
    35
100
AcDbLine
 10
296.9964403896
 20
313.3
 30
0.0
 11
300.786007827
 21
313.3
 31
0.0
  0
LINE
  5
1DA
330
1F
100
AcDbEntity
  8
0
  6
SLD-Сплошная
 62
     7
370
    35
100
AcDbLine
 10
303.0503835096
 20
312.9427344101
 30
0.0
 11
303.7895674374
 21
313.3
 31
0.0
  0
LINE
  5
1DB
330
1F
100
AcDbEntity
  8
0
  6
SLD-Сплошная
 62
     7
370
    35
100
AcDbLine
 10
303.7895674374
 20
313.3
 30
0.0
 11
300.786007827
 21
313.3
 31
0.0
  0
SPLINE
  5
1DC
330
1F
100
AcDbEntity
  8
0
  6
SLD-Сплошная
 62
     7
370
    35
100
AcDbSpline
210
0.0
220
0.0
230
1.0
 70
     8
 71
     3
 72
    12
 73
     8
 74
     0
 42
0.000000001
 43
0.00000001
 40
0.0
 40
0.0
 40
0.0
 40
0.0
 40
0.2361538550995605
 40
0.4713383997492716
 40
0.7323673701179826
 40
0.9913325952638453
 40
0.9999999999999999
 40
0.9999999999999999
 40
0.9999999999999999
 40
0.9999999999999999
 10
295.4712486348033
 20
309.4402736288811
 30
0.0
 10
295.467687698189
 20
309.4070795320023
 30
0.0
 10
295.4605804410803
 20
309.3408275857984
 30
0.0
 10
295.4082751866485
 20
309.250227827681
 30
0.0
 10
295.3328888068872
 20
309.1762383316682
 30
0.0
 10
295.2677963618143
 20
309.1410177898708
 30
0.0
 10
295.2333145683618
 20
309.1281024756386
 30
0.0
 10
295.23219785976
 20
309.127684207299
 30
0.0
  0
SPLINE
  5
1DD
330
1F
100
AcDbEntity
  8
0
  6
SLD-Сплошная
 62
     7
370
    35
100
AcDbSpline
210
0.0
220
0.0
230
1.0
 70
     8
 71
     3
 72
     9
 73
     5
 74
     0
 42
0.000000001
 43
0.00000001
 40
0.0
 40
0.0
 40
0.0
 40
0.0
 40
0.1972242043131442
 40
1.0
 40
1.0
 40
1.0
 40
1.0
 10
295.4712486348033
 20
312.9427344100916
 30
0.0
 10
295.5691624553026
 20
312.9843725670051
 30
0.0
 10
296.0656219078338
 20
313.1954934943707
 30
0.0
 10
296.5819470570941
 20
313.2534632684709
 30
0.0
 10
296.9964403896244
 20
313.2999999999997
 30
0.0
  0
LINE
  5
1DE
330
1F
100
AcDbEntity
  8
0
  6
SLD-Сплошная
 62
     7
370
    35
100
AcDbLine
 10
295.4712486348
 20
309.4402736289
 30
0.0
 11
295.4712486348
 21
312.9427344101
 31
0.0
  0
SPLINE
  5
1DF
330
1F
100
AcDbEntity
  8
0
  6
SLD-Сплошная
 62
     7
370
    35
100
AcDbSpline
210
0.0
220
0.0
230
1.0
 70
     8
 71
     3
 72
    10
 73
     6
 74
     0
 42
0.000000001
 43
0.00000001
 40
0.0
 40
0.0
 40
0.0
 40
0.0
 40
0.2602598142131034
 40
0.6293692668821762
 40
0.9999999999999999
 40
0.9999999999999999
 40
0.9999999999999999
 40
0.9999999999999999
 10
304.6421692028874
 20
309.2079167389967
 30
0.0
 10
304.6249912221205
 20
309.2232510742313
 30
0.0
 10
304.5834508360468
 20
309.2603330930358
 30
0.0
 10
304.5398419229189
 20
309.3413063290131
 30
0.0
 10
304.5324532826988
 20
309.4072393317104
 30
0.0
 10
304.5287513651958
 20
309.4402736288811
 30
0.0
  0
LINE
  5
1E0
330
1F
100
AcDbEntity
  8
0
  6
SLD-Сплошная
 62
     7
370
    35
100
AcDbLine
 10
298.4569212502
 20
295.9
 30
0.0
 11
302.055
 21
295.9
 31
0.0
  0
LINE
  5
1E1
330
1F
100
AcDbEntity
  8
0
  6
SLD-Сплошная
 62
     7
370
    35
100
AcDbLine
 10
297.945
 20
295.9
 30
0.0
 11
298.4569212502
 21
295.9
 31
0.0
  0
LINE
  5
1E2
330
1F
100
AcDbEntity
  8
0
  6
SLD-Сплошная
 62
     7
370
    35
100
AcDbLine
 10
298.1227752435
 20
296.345
 30
0.0
 11
302.5
 21
296.345
 31
0.0
  0
LINE
  5
1E3
330
1F
100
AcDbEntity
  8
0
  6
SLD-Сплошная
 62
     7
370
    35
100
AcDbLine
 10
297.5
 20
296.345
 30
0.0
 11
298.1227752435
 21
296.345
 31
0.0
  0
SPLINE
  5
1E4
330
1F
100
AcDbEntity
  8
0
  6
SLD-Сплошная
 62
     7
370
    35
100
AcDbSpline
210
0.0
220
0.0
230
1.0
 70
     8
 71
     3
 72
     9
 73
     5
 74
     0
 42
0.000000001
 43
0.00000001
 40
0.0
 40
0.0
 40
0.0
 40
0.0
 40
0.119920100117127
 40
1.0
 40
1.0
 40
1.0
 40
1.0
 10
303.7895674374189
 20
313.2999999999997
 30
0.0
 10
303.807092451714
 20
313.2998494777303
 30
0.0
 10
303.9532315416409
 20
313.29859428974
 30
0.0
 10
304.0964418048726
 20
313.1936135017248
 30
0.0
 10
304.2224782789996
 20
313.1012220203186
 30
0.0
  0
LINE
  5
1E5
330
1F
100
AcDbEntity
  8
0
  6
SLD-Сплошная
 62
     7
370
    35
100
AcDbLine
 10
304.5287513652
 20
309.4402736289
 30
0.0
 11
304.5287513652
 21
312.9427344101
 31
0.0
  0
LINE
  5
1E6
330
1F
100
AcDbEntity
  8
0
  6
SLD-Сплошная
 62
     7
370
    35
100
AcDbLine
 10
295.777521721
 20
313.1012220203
 30
0.0
 11
295.4712486348
 21
312.9427344101
 31
0.0
  0
LINE
  5
1E7
330
1F
100
AcDbEntity
  8
0
  6
SLD-Сплошная
 62
     7
370
    35
100
AcDbLine
 10
296.9964403896
 20
313.3
 30
0.0
 11
296.0
 21
313.3
 31
0.0
  0
LINE
  5
1E8
330
1F
100
AcDbEntity
  8
0
  6
SLD-Сплошная
 62
     7
370
    35
100
AcDbLine
 10
304.0
 20
313.3
 30
0.0
 11
303.7895674374
 21
313.3
 31
0.0
  0
LINE
  5
1E9
330
1F
100
AcDbEntity
  8
0
  6
SLD-Сплошная
 62
     7
370
    35
100
AcDbLine
 10
-700.0
 20
306.7
 30
0.0
 11
-700.0
 21
307.9
 31
0.0
  0
LINE
  5
1EA
330
1F
100
AcDbEntity
  8
0
  6
SLD-Сплошная
 62
     7
370
    35
100
AcDbLine
 10
-700.0
 20
307.9
 30
0.0
 11
-695.0
 21
307.9
 31
0.0
  0
LINE
  5
1EB
330
1F
100
AcDbEntity
  8
0
  6
SLD-Сплошная
 62
     7
370
    35
100
AcDbLine
 10
-695.0
 20
306.7
 30
0.0
 11
-700.0
 21
306.7
 31
0.0
  0
LINE
  5
1EC
330
1F
100
AcDbEntity
  8
0
  6
SLD-Сплошная
 62
     7
370
    35
100
AcDbLine
 10
695.0
 20
307.9
 30
0.0
 11
-695.0
 21
307.9
 31
0.0
  0
LINE
  5
1ED
330
1F
100
AcDbEntity
  8
0
  6
SLD-Сплошная
 62
     7
370
    35
100
AcDbLine
 10
695.0
 20
306.7
 30
0.0
 11
-695.0
 21
306.7
 31
0.0
  0
LINE
  5
1EE
330
1F
100
AcDbEntity
  8
0
  6
SLD-Сплошная
 62
     7
370
    35
100
AcDbLine
 10
695.0
 20
509.1
 30
0.0
 11
-695.0
 21
509.1
 31
0.0
  0
LINE
  5
1EF
330
1F
100
AcDbEntity
  8
0
  6
SLD-Сплошная
 62
     7
370
    35
100
AcDbLine
 10
695.0
 20
507.9
 30
0.0
 11
-695.0
 21
507.9
 31
0.0
  0
LINE
  5
1F0
330
1F
100
AcDbEntity
  8
0
  6
SLD-Сплошная
 62
     7
370
    35
100
AcDbLine
 10
700.0
 20
307.9
 30
0.0
 11
700.0
 21
306.7
 31
0.0
  0
LINE
  5
1F1
330
1F
100
AcDbEntity
  8
0
  6
SLD-Сплошная
 62
     7
370
    35
100
AcDbLine
 10
700.0
 20
306.7
 30
0.0
 11
695.0
 21
306.7
 31
0.0
  0
LINE
  5
1F2
330
1F
100
AcDbEntity
  8
0
  6
SLD-Сплошная
 62
     7
370
    35
100
AcDbLine
 10
695.0
 20
307.9
 30
0.0
 11
700.0
 21
307.9
 31
0.0
  0
LINE
  5
1F3
330
1F
100
AcDbEntity
  8
0
  6
SLD-Сплошная
 62
     7
370
    35
100
AcDbLine
 10
700.0
 20
509.1
 30
0.0
 11
700.0
 21
507.9
 31
0.0
  0
LINE
  5
1F4
330
1F
100
AcDbEntity
  8
0
  6
SLD-Сплошная
 62
     7
370
    35
100
AcDbLine
 10
700.0
 20
507.9
 30
0.0
 11
695.0
 21
507.9
 31
0.0
  0
LINE
  5
1F5
330
1F
100
AcDbEntity
  8
0
  6
SLD-Сплошная
 62
     7
370
    35
100
AcDbLine
 10
695.0
 20
509.1
 30
0.0
 11
700.0
 21
509.1
 31
0.0
  0
LINE
  5
1F6
330
1F
100
AcDbEntity
  8
0
  6
SLD-Сплошная
 62
     7
370
    35
100
AcDbLine
 10
-695.0
 20
507.9
 30
0.0
 11
-700.0
 21
507.9
 31
0.0
  0
LINE
  5
1F7
330
1F
100
AcDbEntity
  8
0
  6
SLD-Сплошная
 62
     7
370
    35
100
AcDbLine
 10
-700.0
 20
507.9
 30
0.0
 11
-700.0
 21
509.1
 31
0.0
  0
LINE
  5
1F8
330
1F
100
AcDbEntity
  8
0
  6
SLD-Сплошная
 62
     7
370
    35
100
AcDbLine
 10
-700.0
 20
509.1
 30
0.0
 11
-695.0
 21
509.1
 31
0.0
  0
CIRCLE
  5
1F9
330
1F
100
AcDbEntity
  8
0
  6
SLD-Сплошная
 62
     7
370
    35
100
AcDbCircle
 10
-902.0
 20
407.9
 30
0.0
 40
2.049999999999955
  0
CIRCLE
  5
1FA
330
1F
100
AcDbEntity
  8
0
  6
SLD-Сплошная
 62
     7
370
    35
100
AcDbCircle
 10
902.0
 20
407.9
 30
0.0
 40
2.050000000000011
  0
LINE
  5
1FB
330
1F
100
AcDbEntity
  8
0
  6
SLD-Сплошная
 62
     7
370
    35
100
AcDbLine
 10
-700.0
 20
308.9
 30
0.0
 11
-700.0
 21
307.9
 31
0.0
  0
LINE
  5
1FC
330
1F
100
AcDbEntity
  8
0
  6
SLD-Сплошная
 62
     7
370
    35
100
AcDbLine
 10
700.0
 20
307.9
 30
0.0
 11
700.0
 21
308.9
 31
0.0
  0
LINE
  5
1FD
330
1F
100
AcDbEntity
  8
0
  6
SLD-Сплошная
 62
     7
370
    35
100
AcDbLine
 10
700.0
 20
506.9
 30
0.0
 11
700.0
 21
507.9
 31
0.0
  0
LINE
  5
1FE
330
1F
100
AcDbEntity
  8
0
  6
SLD-Сплошная
 62
     7
370
    35
100
AcDbLine
 10
-700.0
 20
507.9
 30
0.0
 11
-700.0
 21
506.9
 31
0.0
  0
LINE
  5
1FF
330
1F
100
AcDbEntity
  8
0
  6
SLD-Сплошная
 62
     7
370
    35
100
AcDbLine
 10
-912.0
 20
308.9
 30
0.0
 11
-887.0
 21
308.9
 31
0.0
  0
ARC
  5
200
330
1F
100
AcDbEntity
  8
0
  6
SLD-Сплошная
 62
     7
370
    35
100
AcDbCircle
 10
-912.0
 20
313.9
 30
0.0
 40
5.0
100
AcDbArc
 50
180.0
 51
270.0
  0
LINE
  5
201
330
1F
100
AcDbEntity
  8
0
  6
SLD-Сплошная
 62
     7
370
    35
100
AcDbLine
 10
-917.0
 20
501.9
 30
0.0
 11
-917.0
 21
313.9
 31
0.0
  0
ARC
  5
202
330
1F
100
AcDbEntity
  8
0
  6
SLD-Сплошная
 62
     7
370
    35
100
AcDbCircle
 10
-912.0
 20
501.9
 30
0.0
 40
4.999999999999886
100
AcDbArc
 50
90.0
 51
180.0
  0
LINE
  5
203
330
1F
100
AcDbEntity
  8
0
  6
SLD-Сплошная
 62
     7
370
    35
100
AcDbLine
 10
-912.0
 20
506.9
 30
0.0
 11
-887.0
 21
506.9
 31
0.0
  0
LINE
  5
204
330
1F
100
AcDbEntity
  8
0
  6
SLD-Сплошная
 62
     7
370
    35
100
AcDbLine
 10
705.0
 20
506.9
 30
0.0
 11
700.0
 21
506.9
 31
0.0
  0
LINE
  5
205
330
1F
100
AcDbEntity
  8
0
  6
SLD-Сплошная
 62
     7
370
    35
100
AcDbLine
 10
912.0
 20
506.9
 30
0.0
 11
887.0
 21
506.9
 31
0.0
  0
ARC
  5
206
330
1F
100
AcDbEntity
  8
0
  6
SLD-Сплошная
 62
     7
370
    35
100
AcDbCircle
 10
912.0
 20
501.9
 30
0.0
 40
4.999999999999886
100
AcDbArc
 50
0.0
 51
90.0
  0
LINE
  5
207
330
1F
100
AcDbEntity
  8
0
  6
SLD-Сплошная
 62
     7
370
    35
100
AcDbLine
 10
917.0
 20
501.9
 30
0.0
 11
917.0
 21
313.9
 31
0.0
  0
ARC
  5
208
330
1F
100
AcDbEntity
  8
0
  6
SLD-Сплошная
 62
     7
370
    35
100
AcDbCircle
 10
912.0
 20
313.9
 30
0.0
 40
4.999999999999886
100
AcDbArc
 50
270.0
 51
0.0
  0
LINE
  5
209
330
1F
100
AcDbEntity
  8
0
  6
SLD-Сплошная
 62
     7
370
    35
100
AcDbLine
 10
912.0
 20
308.9
 30
0.0
 11
887.0
 21
308.9
 31
0.0
  0
LINE
  5
20A
330
1F
100
AcDbEntity
  8
0
  6
SLD-Сплошная
 62
     7
370
    35
100
AcDbLine
 10
700.0
 20
308.9
 30
0.0
 11
705.0
 21
308.9
 31
0.0
  0
LINE
  5
20B
330
1F
100
AcDbEntity
  8
0
  6
SLD-Сплошная
 62
     7
370
    35
100
AcDbLine
 10
-705.0
 20
308.9
 30
0.0
 11
-700.0
 21
308.9
 31
0.0
  0
LINE
  5
20C
330
1F
100
AcDbEntity
  8
0
  6
SLD-Сплошная
 62
     7
370
    35
100
AcDbLine
 10
-700.0
 20
506.9
 30
0.0
 11
-705.0
 21
506.9
 31
0.0
  0
LINE
  5
20D
330
1F
100
AcDbEntity
  8
0
  6
SLD-Сплошная
 62
     7
370
    35
100
AcDbLine
 10
887.0
 20
308.9
 30
0.0
 11
887.0
 21
306.7
 31
0.0
  0
LINE
  5
20E
330
1F
100
AcDbEntity
  8
0
  6
SLD-Сплошная
 62
     7
370
    35
100
AcDbLine
 10
887.0
 20
306.7
 30
0.0
 11
705.0
 21
306.7
 31
0.0
  0
LINE
  5
20F
330
1F
100
AcDbEntity
  8
0
  6
SLD-Сплошная
 62
     7
370
    35
100
AcDbLine
 10
705.0
 20
306.7
 30
0.0
 11
705.0
 21
308.9
 31
0.0
  0
LINE
  5
210
330
1F
100
AcDbEntity
  8
0
  6
SLD-Сплошная
 62
     7
370
    35
100
AcDbLine
 10
-887.0
 20
506.9
 30
0.0
 11
-887.0
 21
509.1
 31
0.0
  0
LINE
  5
211
330
1F
100
AcDbEntity
  8
0
  6
SLD-Сплошная
 62
     7
370
    35
100
AcDbLine
 10
-887.0
 20
509.1
 30
0.0
 11
-705.0
 21
509.1
 31
0.0
  0
LINE
  5
212
330
1F
100
AcDbEntity
  8
0
  6
SLD-Сплошная
 62
     7
370
    35
100
AcDbLine
 10
-705.0
 20
509.1
 30
0.0
 11
-705.0
 21
506.9
 31
0.0
  0
LINE
  5
213
330
1F
100
AcDbEntity
  8
0
  6
SLD-Сплошная
 62
     7
370
    35
100
AcDbLine
 10
-887.0
 20
306.7
 30
0.0
 11
-705.0
 21
306.7
 31
0.0
  0
LINE
  5
214
330
1F
100
AcDbEntity
  8
0
  6
SLD-Сплошная
 62
     7
370
    35
100
AcDbLine
 10
-887.0
 20
306.7
 30
0.0
 11
-887.0
 21
308.9
 31
0.0
  0
LINE
  5
215
330
1F
100
AcDbEntity
  8
0
  6
SLD-Сплошная
 62
     7
370
    35
100
AcDbLine
 10
-705.0
 20
308.9
 30
0.0
 11
-705.0
 21
306.7
 31
0.0
  0
LINE
  5
216
330
1F
100
AcDbEntity
  8
0
  6
SLD-Сплошная
 62
     7
370
    35
100
AcDbLine
 10
887.0
 20
509.1
 30
0.0
 11
705.0
 21
509.1
 31
0.0
  0
LINE
  5
217
330
1F
100
AcDbEntity
  8
0
  6
SLD-Сплошная
 62
     7
370
    35
100
AcDbLine
 10
705.0
 20
506.9
 30
0.0
 11
705.0
 21
509.1
 31
0.0
  0
LINE
  5
218
330
1F
100
AcDbEntity
  8
0
  6
SLD-Сплошная
 62
     7
370
    35
100
AcDbLine
 10
887.0
 20
509.1
 30
0.0
 11
887.0
 21
506.9
 31
0.0
  0
ARC
  5
219
330
1F
100
AcDbEntity
  8
0
  6
SLD-Сплошная
 62
     7
370
    35
100
AcDbCircle
 10
1199.9577386319
 20
-502.8455844123
 30
0.0
 40
0.2999999999999944
100
AcDbArc
 50
0.0
 51
45.0
  0
ARC
  5
21A
330
1F
100
AcDbEntity
  8
0
  6
SLD-Сплошная
 62
     7
370
    35
100
AcDbCircle
 10
1199.9577386319
 20
-485.3544155877
 30
0.0
 40
0.3000000000000346
100
AcDbArc
 50
315.0
 51
0.0
  0
LINE
  5
21B
330
1F
100
AcDbEntity
  8
0
  6
SLD-Сплошная
 62
     7
370
    35
100
AcDbLine
 10
1200.1698706662
 20
-502.6334523779
 30
0.0
 11
1199.6970784601
 21
-502.1606601718
 31
0.0
  0
LINE
  5
21C
330
1F
100
AcDbEntity
  8
0
  6
SLD-Сплошная
 62
     7
370
    35
100
AcDbLine
 10
1199.6970784601
 20
-486.0393398282
 30
0.0
 11
1200.1698706662
 21
-485.5665476221
 31
0.0
  0
ARC
  5
21D
330
1F
100
AcDbEntity
  8
0
  6
SLD-Сплошная
 62
     7
370
    35
100
AcDbCircle
 10
1200.7577386319
 20
-487.1
 30
0.0
 40
1.500000000000093
100
AcDbArc
 50
135.0
 51
180.0
  0
ARC
  5
21E
330
1F
100
AcDbEntity
  8
0
  6
SLD-Сплошная
 62
     7
370
    35
100
AcDbCircle
 10
1200.7577386319
 20
-501.1
 30
0.0
 40
1.500000000000173
100
AcDbArc
 50
180.0
 51
225.0
  0
LINE
  5
21F
330
1F
100
AcDbEntity
  8
0
  6
SLD-Сплошная
 62
     7
370
    35
100
AcDbLine
 10
1201.4577386319
 20
-490.85
 30
0.0
 11
1202.057738632
 21
-490.85
 31
0.0
  0
LINE
  5
220
330
1F
100
AcDbEntity
  8
0
  6
SLD-Сплошная
 62
     7
370
    35
100
AcDbLine
 10
1202.057738632
 20
-497.35
 30
0.0
 11
1201.4577386319
 21
-497.35
 31
0.0
  0
ARC
  5
221
330
1F
100
AcDbEntity
  8
0
  6
SLD-Сплошная
 62
     7
370
    35
100
AcDbCircle
 10
1187.0732842339
 20
304.9844543979
 30
0.0
 40
0.5155456020629134
100
AcDbArc
 50
90.0
 51
250.0
  0
ARC
  5
222
330
1F
100
AcDbEntity
  8
0
  6
SLD-Сплошная
 62
     7
370
    35
100
AcDbCircle
 10
1197.8421930298
 20
304.9844543979
 30
0.0
 40
0.5155456020629003
100
AcDbArc
 50
290.0
 51
90.0
  0
LINE
  5
223
330
1F
100
AcDbEntity
  8
0
  6
SLD-Сплошная
 62
     7
370
    35
100
AcDbLine
 10
1198.0185200105
 20
304.5
 30
0.0
 11
1197.3203449039
 21
304.2458850429
 31
0.0
  0
LINE
  5
224
330
1F
100
AcDbEntity
  8
0
  6
SLD-Сплошная
 62
     7
370
    35
100
AcDbLine
 10
1187.5951323599
 20
304.2458850429
 30
0.0
 11
1186.8969572532
 21
304.5
 31
0.0
  0
LINE
  5
225
330
1F
100
AcDbEntity
  8
0
  6
SLD-Сплошная
 62
     7
370
    35
100
AcDbLine
 10
1197.0765407854
 20
300.75
 30
0.0
 11
1196.4577386319
 21
300.5
 31
0.0
  0
LINE
  5
226
330
1F
100
AcDbEntity
  8
0
  6
SLD-Сплошная
 62
     7
370
    35
100
AcDbLine
 10
1188.4577386319
 20
300.5
 30
0.0
 11
1187.8389364784
 21
300.75
 31
0.0
  0
ARC
  5
227
330
1F
100
AcDbEntity
  8
0
  6
SLD-Сплошная
 62
     7
370
    35
100
AcDbCircle
 10
1197.8577386319
 20
308.4
 30
0.0
 40
0.5
100
AcDbArc
 50
270.0
 51
70.0
  0
ARC
  5
228
330
1F
100
AcDbEntity
  8
0
  6
SLD-Сплошная
 62
     7
370
    35
100
AcDbCircle
 10
1187.0577386319
 20
308.4
 30
0.0
 40
0.5
100
AcDbArc
 50
110.0
 51
270.0
  0
LINE
  5
229
330
1F
100
AcDbEntity
  8
0
  6
SLD-Сплошная
 62
     7
370
    35
100
AcDbLine
 10
1186.8867285602
 20
308.8698463104
 30
0.0
 11
1188.0366487813
 21
309.2883830426
 31
0.0
  0
LINE
  5
22A
330
1F
100
AcDbEntity
  8
0
  6
SLD-Сплошная
 62
     7
370
    35
100
AcDbLine
 10
1196.7465510227
 20
309.3365281007
 30
0.0
 11
1198.0287487035
 21
308.8698463104
 31
0.0
  0
LINE
  5
22B
330
1F
100
AcDbEntity
  8
0
  6
SLD-Сплошная
 62
     7
370
    35
100
AcDbLine
 10
1194.9577386319
 20
300.5
 30
0.0
 11
1194.9577386319
 21
296.345
 31
0.0
  0
LINE
  5
22C
330
1F
100
AcDbEntity
  8
0
  6
SLD-Сплошная
 62
     7
370
    35
100
AcDbLine
 10
1189.9577386319
 20
296.345
 30
0.0
 11
1189.9577386319
 21
300.5
 31
0.0
  0
LINE
  5
22D
330
1F
100
AcDbEntity
  8
0
  6
SLD-Сплошная
 62
     7
370
    35
100
AcDbLine
 10
1194.9577386319
 20
296.345
 30
0.0
 11
1194.5127386319
 21
295.9
 31
0.0
  0
LINE
  5
22E
330
1F
100
AcDbEntity
  8
0
  6
SLD-Сплошная
 62
     7
370
    35
100
AcDbLine
 10
1190.4027386319
 20
295.9
 30
0.0
 11
1189.9577386319
 21
296.345
 31
0.0
  0
ARC
  5
22F
330
1F
100
AcDbEntity
  8
0
  6
SLD-Сплошная
 62
     7
370
    35
100
AcDbCircle
 10
1199.9577386319
 20
399.1544155877
 30
0.0
 40
0.3000000000000748
100
AcDbArc
 50
0.0
 51
45.0
  0
ARC
  5
230
330
1F
100
AcDbEntity
  8
0
  6
SLD-Сплошная
 62
     7
370
    35
100
AcDbCircle
 10
1199.9577386319
 20
416.6455844123
 30
0.0
 40
0.3000000000000748
100
AcDbArc
 50
315.0
 51
0.0
  0
LINE
  5
231
330
1F
100
AcDbEntity
  8
0
  6
SLD-Сплошная
 62
     7
370
    35
100
AcDbLine
 10
1200.1698706662
 20
399.3665476221
 30
0.0
 11
1199.6970784601
 21
399.8393398282
 31
0.0
  0
LINE
  5
232
330
1F
100
AcDbEntity
  8
0
  6
SLD-Сплошная
 62
     7
370
    35
100
AcDbLine
 10
1199.6970784601
 20
415.9606601718
 30
0.0
 11
1200.1698706662
 21
416.4334523779
 31
0.0
  0
ARC
  5
233
330
1F
100
AcDbEntity
  8
0
  6
SLD-Сплошная
 62
     7
370
    35
100
AcDbCircle
 10
1200.7577386319
 20
414.9
 30
0.0
 40
1.500000000000227
100
AcDbArc
 50
135.0
 51
180.0
  0
ARC
  5
234
330
1F
100
AcDbEntity
  8
0
  6
SLD-Сплошная
 62
     7
370
    35
100
AcDbCircle
 10
1200.7577386319
 20
400.9
 30
0.0
 40
1.500000000000227
100
AcDbArc
 50
180.0
 51
225.0
  0
LINE
  5
235
330
1F
100
AcDbEntity
  8
0
  6
SLD-Сплошная
 62
     7
370
    35
100
AcDbLine
 10
1201.4577386319
 20
411.15
 30
0.0
 11
1202.057738632
 21
411.15
 31
0.0
  0
LINE
  5
236
330
1F
100
AcDbEntity
  8
0
  6
SLD-Сплошная
 62
     7
370
    35
100
AcDbLine
 10
1202.057738632
 20
404.65
 30
0.0
 11
1201.4577386319
 21
404.65
 31
0.0
  0
LINE
  5
237
330
1F
100
AcDbEntity
  8
0
  6
SLD-Сплошная
 62
     7
370
    35
100
AcDbLine
 10
1201.4577386319
 20
304.5
 30
0.0
 11
1201.4577386319
 21
300.3789411239
 31
0.0
  0
LINE
  5
238
330
1F
100
AcDbEntity
  8
0
  6
SLD-Сплошная
 62
     7
370
    35
100
AcDbLine
 10
1200.2577386319
 20
304.5
 30
0.0
 11
1200.2577386319
 21
300.3789411239
 31
0.0
  0
LINE
  5
239
330
1F
100
AcDbEntity
  8
0
  6
SLD-Сплошная
 62
     7
370
    35
100
AcDbLine
 10
1201.4577386319
 20
295.4746025959
 30
0.0
 11
1201.4577386319
 21
300.3789411239
 31
0.0
  0
LINE
  5
23A
330
1F
100
AcDbEntity
  8
0
  6
SLD-Сплошная
 62
     7
370
    35
100
AcDbLine
 10
1200.2577386319
 20
300.3789411239
 30
0.0
 11
1200.2577386319
 21
295.4746025959
 31
0.0
  0
LINE
  5
23B
330
1F
100
AcDbEntity
  8
0
  6
SLD-Сплошная
 62
     7
370
    35
100
AcDbLine
 10
1191.4577386319
 20
305.5
 30
0.0
 11
1199.2577386319
 21
305.5
 31
0.0
  0
LINE
  5
23C
330
1F
100
AcDbEntity
  8
0
  6
SLD-Сплошная
 62
     7
370
    35
100
AcDbLine
 10
1186.4577386319
 20
306.7
 30
0.0
 11
1186.4577386319
 21
305.5
 31
0.0
  0
LINE
  5
23D
330
1F
100
AcDbEntity
  8
0
  6
SLD-Сплошная
 62
     7
370
    35
100
AcDbLine
 10
1186.4577386319
 20
305.5
 30
0.0
 11
1191.4577386319
 21
305.5
 31
0.0
  0
ARC
  5
23E
330
1F
100
AcDbEntity
  8
0
  6
SLD-Сплошная
 62
     7
370
    35
100
AcDbCircle
 10
1199.2577386319
 20
304.5
 30
0.0
 40
1.0
100
AcDbArc
 50
360.0
 51
90.0
  0
ARC
  5
23F
330
1F
100
AcDbEntity
  8
0
  6
SLD-Сплошная
 62
     7
370
    35
100
AcDbCircle
 10
1199.2577386319
 20
304.5
 30
0.0
 40
2.200000000000045
100
AcDbArc
 50
0.0
 51
90.0
  0
LINE
  5
240
330
1F
100
AcDbEntity
  8
0
  6
SLD-Сплошная
 62
     7
370
    35
100
AcDbLine
 10
1201.4577386319
 20
295.4746025959
 30
0.0
 11
1201.4577386319
 21
-288.1498645641
 31
0.0
  0
LINE
  5
241
330
1F
100
AcDbEntity
  8
0
  6
SLD-Сплошная
 62
     7
370
    35
100
AcDbLine
 10
1200.2577386319
 20
295.4746025959
 30
0.0
 11
1200.2577386319
 21
-288.1498645641
 31
0.0
  0
ARC
  5
242
330
1F
100
AcDbEntity
  8
0
  6
SLD-Сплошная
 62
     7
370
    35
100
AcDbCircle
 10
1209.5720875626
 20
-459.1
 30
0.0
 40
2.750000000000141
100
AcDbArc
 50
175.0714870831
 51
184.9285129169
  0
LINE
  5
243
330
1F
100
AcDbEntity
  8
0
  6
SLD-Сплошная
 62
     7
370
    35
100
AcDbLine
 10
1206.8322552323
 20
-297.1
 30
0.0
 11
1202.4577386319
 21
-297.1
 31
0.0
  0
LINE
  5
244
330
1F
100
AcDbEntity
  8
0
  6
SLD-Сплошная
 62
     7
370
    35
100
AcDbLine
 10
1202.4577386319
 20
-479.1
 30
0.0
 11
1206.8322552323
 21
-479.1
 31
0.0
  0
SPLINE
  5
245
330
1F
100
AcDbEntity
  8
0
  6
SLD-Сплошная
 62
     7
370
    35
100
AcDbSpline
210
0.0
220
0.0
230
1.0
 70
     8
 71
     3
 72
    11
 73
     7
 74
     0
 42
0.000000001
 43
0.00000001
 40
0.0
 40
0.0
 40
0.0
 40
0.0
 40
0.1999256775961503
 40
0.4255600785814158
 40
0.6896360664549623
 40
1.0
 40
1.0
 40
1.0
 40
1.0
 10
1206.832255232291
 20
-458.8637399702864
 30
0.0
 10
1206.88171853723
 20
-458.6893446213808
 30
0.0
 10
1206.98700570289
 20
-458.3181281809673
 30
0.0
 10
1207.362046037482
 20
-457.8126036953377
 30
0.0
 10
1207.869500556033
 20
-457.3170295034403
 30
0.0
 10
1208.206053879654
 20
-457.0318109748729
 30
0.0
 10
1208.387890150902
 20
-456.877710361135
 30
0.0
  0
LINE
  5
246
330
1F
100
AcDbEntity
  8
0
  6
SLD-Сплошная
 62
     7
370
    35
100
AcDbLine
 10
1208.3878901509
 20
-297.1
 30
0.0
 11
1206.8322552323
 21
-297.1
 31
0.0
  0
LINE
  5
247
330
1F
100
AcDbEntity
  8
0
  6
SLD-Сплошная
 62
     7
370
    35
100
AcDbLine
 10
1206.8322552323
 20
-479.1
 30
0.0
 11
1208.3878901509
 21
-479.1
 31
0.0
  0
SPLINE
  5
248
330
1F
100
AcDbEntity
  8
0
  6
SLD-Сплошная
 62
     7
370
    35
100
AcDbSpline
210
0.0
220
0.0
230
1.0
 70
     8
 71
     3
 72
    11
 73
     7
 74
     0
 42
0.000000001
 43
0.00000001
 40
0.0
 40
0.0
 40
0.0
 40
0.0
 40
0.264865227187358
 40
0.5126647275748929
 40
0.753900347597835
 40
1.0
 40
1.0
 40
1.0
 40
1.0
 10
1208.387890150902
 20
-461.3222896388654
 30
0.0
 10
1208.226854546293
 20
-461.2047933727069
 30
0.0
 10
1207.915159140885
 20
-460.9773713289722
 30
0.0
 10
1207.439061097955
 20
-460.507646696011
 30
0.0
 10
1207.056109340716
 20
-459.9617982283444
 30
0.0
 10
1206.907368124257
 20
-459.5461555883193
 30
0.0
 10
1206.832255232291
 20
-459.336260029714
 30
0.0
  0
LINE
  5
249
330
1F
100
AcDbEntity
  8
0
  6
SLD-Сплошная
 62
     7
370
    35
100
AcDbLine
 10
1200.2577386319
 20
-479.1
 30
0.0
 11
1202.4577386319
 21
-479.1
 31
0.0
  0
LINE
  5
24A
330
1F
100
AcDbEntity
  8
0
  6
SLD-Сплошная
 62
     7
370
    35
100
AcDbLine
 10
1202.4577386319
 20
-297.1
 30
0.0
 11
1200.2577386319
 21
-297.1
 31
0.0
  0
LINE
  5
24B
330
1F
100
AcDbEntity
  8
0
  6
SLD-Сплошная
 62
     7
370
    35
100
AcDbLine
 10
1200.2577386319
 20
-479.1
 30
0.0
 11
1200.2577386319
 21
-297.1
 31
0.0
  0
LINE
  5
24C
330
1F
100
AcDbEntity
  8
0
  6
SLD-Сплошная
 62
     7
370
    35
100
AcDbLine
 10
1200.2577386319
 20
-291.7956777624
 30
0.0
 11
1201.4577386319
 21
-291.7956777624
 31
0.0
  0
LINE
  5
24D
330
1F
100
AcDbEntity
  8
0
  6
SLD-Сплошная
 62
     7
370
    35
100
AcDbLine
 10
1201.4577386319
 20
-291.7956777624
 30
0.0
 11
1201.4577386319
 21
-288.1498645641
 31
0.0
  0
LINE
  5
24E
330
1F
100
AcDbEntity
  8
0
  6
SLD-Сплошная
 62
     7
370
    35
100
AcDbLine
 10
1200.2577386319
 20
-288.1498645641
 30
0.0
 11
1200.2577386319
 21
-291.7956777624
 31
0.0
  0
ARC
  5
24F
330
1F
100
AcDbEntity
  8
0
  6
SLD-Сплошная
 62
     7
370
    35
100
AcDbCircle
 10
1210.1128843722
 20
-301.6560692778
 30
0.0
 40
4.927633568713267
100
AcDbArc
 50
354.831212758
 51
64.1056628133
  0
ARC
  5
250
330
1F
100
AcDbEntity
  8
0
  6
SLD-Сплошная
 62
     7
370
    35
100
AcDbCircle
 10
1210.1128843722
 20
-474.5439307222
 30
0.0
 40
4.92763356871328
100
AcDbArc
 50
295.8943371867
 51
5.168787242
  0
LINE
  5
251
330
1F
100
AcDbEntity
  8
0
  6
SLD-Сплошная
 62
     7
370
    35
100
AcDbLine
 10
1215.0204803317
 20
-474.1
 30
0.0
 11
1215.0204803317
 21
-302.1
 31
0.0
  0
ARC
  5
252
330
1F
100
AcDbEntity
  8
0
  6
SLD-Сплошная
 62
     7
370
    35
100
AcDbCircle
 10
1210.9614125096
 20
-301.6560692778
 30
0.0
 40
4.927633568713267
100
AcDbArc
 50
354.831212758
 51
64.1056628133
  0
LINE
  5
253
330
1F
100
AcDbEntity
  8
0
  6
SLD-Сплошная
 62
     7
370
    35
100
AcDbLine
 10
1213.1133735505
 20
-297.2231654591
 30
0.0
 11
1212.2648454131
 21
-297.2231654591
 31
0.0
  0
ARC
  5
254
330
1F
100
AcDbEntity
  8
0
  6
SLD-Сплошная
 62
     7
370
    35
100
AcDbCircle
 10
1210.9614125096
 20
-474.5439307222
 30
0.0
 40
4.92763356871328
100
AcDbArc
 50
295.8943371867
 51
5.168787242
  0
LINE
  5
255
330
1F
100
AcDbEntity
  8
0
  6
SLD-Сплошная
 62
     7
370
    35
100
AcDbLine
 10
1212.2648454131
 20
-478.9768345409
 30
0.0
 11
1213.1133735505
 21
-478.9768345409
 31
0.0
  0
LINE
  5
256
330
1F
100
AcDbEntity
  8
0
  6
SLD-Сплошная
 62
     7
370
    35
100
AcDbLine
 10
1215.8690084691
 20
-474.1
 30
0.0
 11
1215.8690084691
 21
-302.1
 31
0.0
  0
ARC
  5
257
330
1F
100
AcDbEntity
  8
0
  6
SLD-Сплошная
 62
     7
370
    35
100
AcDbCircle
 10
1208.5327956423
 20
-460.071286418
 30
0.0
 40
1.806813700627392
100
AcDbArc
 50
288.5980102471
 51
324.410159473
  0
ARC
  5
258
330
1F
100
AcDbEntity
  8
0
  6
SLD-Сплошная
 62
     7
370
    35
100
AcDbCircle
 10
1209.5433995784
 20
-460.2859622437
 30
0.0
 40
1.552152217751088
100
AcDbArc
 50
221.8875833935
 51
327.3738309362
  0
LINE
  5
259
330
1F
100
AcDbEntity
  8
0
  6
SLD-Сплошная
 62
     7
370
    35
100
AcDbLine
 10
1210.8506318507
 20
-461.1228136602
 30
0.0
 11
1210.0021037133
 21
-461.1228136602
 31
0.0
  0
LINE
  5
25A
330
1F
100
AcDbEntity
  8
0
  6
SLD-Сплошная
 62
     7
370
    35
100
AcDbLine
 10
1210.8506318507
 20
-297.1
 30
0.0
 11
1208.3878901509
 21
-297.1
 31
0.0
  0
ARC
  5
25B
330
1F
100
AcDbEntity
  8
0
  6
SLD-Сплошная
 62
     7
370
    35
100
AcDbCircle
 10
1209.5433995784
 20
-457.9140377563
 30
0.0
 40
1.552152217751058
100
AcDbArc
 50
32.6261690638
 51
138.1124166065
  0
ARC
  5
25C
330
1F
100
AcDbEntity
  8
0
  6
SLD-Сплошная
 62
     7
370
    35
100
AcDbCircle
 10
1208.5327956423
 20
-458.128713582
 30
0.0
 40
1.806813700605007
100
AcDbArc
 50
35.5898405268
 51
71.4019897563
  0
LINE
  5
25D
330
1F
100
AcDbEntity
  8
0
  6
SLD-Сплошная
 62
     7
370
    35
100
AcDbLine
 10
1210.0021037133
 20
-457.0771863398
 30
0.0
 11
1210.8506318507
 21
-457.0771863398
 31
0.0
  0
LINE
  5
25E
330
1F
100
AcDbEntity
  8
0
  6
SLD-Сплошная
 62
     7
370
    35
100
AcDbLine
 10
1208.3878901509
 20
-479.1
 30
0.0
 11
1210.8506318507
 21
-479.1
 31
0.0
  0
LINE
  5
25F
330
1F
100
AcDbEntity
  8
0
  6
SLD-Сплошная
 62
     7
370
    35
100
AcDbLine
 10
1201.4577386319
 20
-296.6048861143
 30
0.0
 11
1200.2577386319
 21
-296.6048861143
 31
0.0
  0
LINE
  5
260
330
1F
100
AcDbEntity
  8
0
  6
SLD-Сплошная
 62
     7
370
    35
100
AcDbLine
 10
1201.4577386319
 20
-291.7956777624
 30
0.0
 11
1201.4577386319
 21
-296.6048861143
 31
0.0
  0
LINE
  5
261
330
1F
100
AcDbEntity
  8
0
  6
SLD-Сплошная
 62
     7
370
    35
100
AcDbLine
 10
1200.2577386319
 20
-296.6048861143
 30
0.0
 11
1200.2577386319
 21
-291.7956777624
 31
0.0
  0
LINE
  5
262
330
1F
100
AcDbEntity
  8
0
  6
SLD-Сплошная
 62
     7
370
    35
100
AcDbLine
 10
1201.4577386319
 20
-296.6048861143
 30
0.0
 11
1201.4577386319
 21
-297.1
 31
0.0
  0
LINE
  5
263
330
1F
100
AcDbEntity
  8
0
  6
SLD-Сплошная
 62
     7
370
    35
100
AcDbLine
 10
1200.2577386319
 20
-296.6048861143
 30
0.0
 11
1200.2577386319
 21
-297.1
 31
0.0
  0
LINE
  5
264
330
1F
100
AcDbEntity
  8
0
  6
SLD-Сплошная
 62
     7
370
    35
100
AcDbLine
 10
1201.4577386319
 20
-504.1
 30
0.0
 11
1201.4577386319
 21
-479.1
 31
0.0
  0
LINE
  5
265
330
1F
100
AcDbEntity
  8
0
  6
SLD-Сплошная
 62
     7
370
    35
100
AcDbLine
 10
1200.2577386319
 20
-504.1
 30
0.0
 11
1200.2577386319
 21
-479.1
 31
0.0
  0
LINE
  5
266
330
1F
100
AcDbEntity
  8
0
  6
SLD-Сплошная
 62
     7
370
    35
100
AcDbLine
 10
1200.2577386319
 20
-509.1
 30
0.0
 11
1201.4577386319
 21
-509.1
 31
0.0
  0
LINE
  5
267
330
1F
100
AcDbEntity
  8
0
  6
SLD-Сплошная
 62
     7
370
    35
100
AcDbLine
 10
1201.4577386319
 20
-509.1
 30
0.0
 11
1201.4577386319
 21
-504.1
 31
0.0
  0
LINE
  5
268
330
1F
100
AcDbEntity
  8
0
  6
SLD-Сплошная
 62
     7
370
    35
100
AcDbLine
 10
1200.2577386319
 20
-504.1
 30
0.0
 11
1200.2577386319
 21
-509.1
 31
0.0
  0
LINE
  5
269
330
1F
100
AcDbEntity
  8
0
  6
SLD-Сплошная
 62
     7
370
    35
100
AcDbLine
 10
1210.8506318507
 20
-479.1
 30
0.0
 11
1211.5696836885
 21
-479.1
 31
0.0
  0
SPLINE
  5
26A
330
1F
100
AcDbEntity
  8
0
  6
SLD-Сплошная
 62
     7
370
    35
100
AcDbSpline
210
0.0
220
0.0
230
1.0
 70
     8
 71
     3
 72
    11
 73
     7
 74
     0
 42
0.000000001
 43
0.00000001
 40
0.0
 40
0.0
 40
0.0
 40
0.0
 40
0.2499999999999979
 40
0.4999999999999946
 40
0.7500000000000068
 40
1.0
 40
1.0
 40
1.0
 40
1.0
 10
1211.569683688515
 20
-479.1000000000002
 30
0.0
 10
1211.634116187225
 20
-479.0897362117404
 30
0.0
 10
1211.762981184643
 20
-479.069208635221
 30
0.0
 10
1211.948038779836
 20
-479.0384172704416
 30
0.0
 10
1212.120463098012
 20
-479.0076259056622
 30
0.0
 10
1212.216717974719
 20
-478.9870983291428
 30
0.0
 10
1212.264845413072
 20
-478.976834540883
 30
0.0
  0
SPLINE
  5
26B
330
1F
100
AcDbEntity
  8
0
  6
SLD-Сплошная
 62
     7
370
    35
100
AcDbSpline
210
0.0
220
0.0
230
1.0
 70
     8
 71
     3
 72
    11
 73
     7
 74
     0
 42
0.000000001
 43
0.00000001
 40
0.0
 40
0.0
 40
0.0
 40
0.0
 40
0.2500000000000183
 40
0.5000000000000053
 40
0.7499999999999982
 40
0.9999999999999999
 40
0.9999999999999999
 40
0.9999999999999999
 40
0.9999999999999999
 10
1212.264845413072
 20
-297.2231654591174
 30
0.0
 10
1212.216717974719
 20
-297.2129016708576
 30
0.0
 10
1212.120463098012
 20
-297.1923740943381
 30
0.0
 10
1211.948038779836
 20
-297.1615827295587
 30
0.0
 10
1211.762981184643
 20
-297.1307913647796
 30
0.0
 10
1211.634116187224
 20
-297.1102637882599
 30
0.0
 10
1211.569683688515
 20
-297.1000000000001
 30
0.0
  0
LINE
  5
26C
330
1F
100
AcDbEntity
  8
0
  6
SLD-Сплошная
 62
     7
370
    35
100
AcDbLine
 10
1211.5696836885
 20
-297.1
 30
0.0
 11
1210.8506318507
 21
-297.1
 31
0.0
  0
SPLINE
  5
26D
330
1F
100
AcDbEntity
  8
0
  6
SLD-Сплошная
 62
     7
370
    35
100
AcDbSpline
210
0.0
220
0.0
230
1.0
 70
     8
 71
     3
 72
    11
 73
     7
 74
     0
 42
0.000000001
 43
0.00000001
 40
0.0
 40
0.0
 40
0.0
 40
0.0
 40
0.2452493600097517
 40
0.5001890705419788
 40
0.7413618287571857
 40
1.0
 40
1.0
 40
1.0
 40
1.0
 10
1210.850631850699
 20
-457.0771863397761
 30
0.0
 10
1210.997031252404
 20
-457.3833471634933
 30
0.0
 10
1211.295614623484
 20
-458.0077659095622
 30
0.0
 10
1211.447642203122
 20
-459.0800530211606
 30
0.0
 10
1211.282203262389
 20
-460.1632522980793
 30
0.0
 10
1210.997801701091
 20
-460.7955943442925
 30
0.0
 10
1210.850631850699
 20
-461.1228136602243
 30
0.0
  0
SPLINE
  5
26E
330
1F
100
AcDbEntity
  8
0
  6
SLD-Сплошная
 62
     7
370
    35
100
AcDbSpline
210
0.0
220
0.0
230
1.0
 70
     8
 71
     3
 72
    11
 73
     7
 74
     0
 42
0.000000001
 43
0.00000001
 40
0.0
 40
0.0
 40
0.0
 40
0.0
 40
0.2500000000000024
 40
0.4999999999999974
 40
0.7499999999999951
 40
0.9999999999999999
 40
0.9999999999999999
 40
0.9999999999999999
 40
0.9999999999999999
 10
1213.113373550496
 20
-297.2231654591174
 30
0.0
 10
1213.007493186119
 20
-297.2129016708576
 30
0.0
 10
1212.795732457364
 20
-297.1923740943379
 30
0.0
 10
1212.416398957376
 20
-297.1615827295589
 30
0.0
 10
1212.009272247951
 20
-297.1307913647794
 30
0.0
 10
1211.72576925363
 20
-297.1102637882599
 30
0.0
 10
1211.584017756471
 20
-297.1000000000001
 30
0.0
  0
SPLINE
  5
26F
330
1F
100
AcDbEntity
  8
0
  6
SLD-Сплошная
 62
     7
370
    35
100
AcDbSpline
210
0.0
220
0.0
230
1.0
 70
     8
 71
     3
 72
    11
 73
     7
 74
     0
 42
0.000000001
 43
0.00000001
 40
0.0
 40
0.0
 40
0.0
 40
0.0
 40
0.2499999999999992
 40
0.4999999999999953
 40
0.7499999999999964
 40
1.0
 40
1.0
 40
1.0
 40
1.0
 10
1211.584017756471
 20
-479.1000000000002
 30
0.0
 10
1211.725769253631
 20
-479.0897362117404
 30
0.0
 10
1212.009272247951
 20
-479.0692086352207
 30
0.0
 10
1212.416398957376
 20
-479.0384172704418
 30
0.0
 10
1212.795732457364
 20
-479.007625905662
 30
0.0
 10
1213.007493186119
 20
-478.9870983291428
 30
0.0
 10
1213.113373550496
 20
-478.976834540883
 30
0.0
  0
SPLINE
  5
270
330
1F
100
AcDbEntity
  8
0
  6
SLD-Сплошная
 62
     7
370
    35
100
AcDbSpline
210
0.0
220
0.0
230
1.0
 70
     8
 71
     3
 72
    15
 73
    11
 74
     0
 42
0.000000001
 43
0.00000001
 40
0.0
 40
0.0
 40
0.0
 40
0.0
 40
0.1475044205079802
 40
0.2753044498703754
 40
0.3901463070104025
 40
0.5012838998771499
 40
0.6035724100763924
 40
0.7157382211231962
 40
0.8461103176460282
 40
1.0
 40
1.0
 40
1.0
 40
1.0
 10
1210.002103713276
 20
-457.0771863397761
 30
0.0
 10
1210.159678173511
 20
-457.2205001350361
 30
0.0
 10
1210.453777495683
 20
-457.4879831394573
 30
0.0
 10
1210.872535304593
 20
-457.986088962285
 30
0.0
 10
1211.137820732321
 20
-458.5263054790188
 30
0.0
 10
1211.228994021132
 20
-459.0834531488712
 30
0.0
 10
1211.139429561225
 20
-459.6362042163059
 30
0.0
 10
1210.870342868518
 20
-460.1576495436399
 30
0.0
 10
1210.453017461442
 20
-460.6675853892327
 30
0.0
 10
1210.160475827976
 20
-460.9629261778805
 30
0.0
 10
1210.002103713276
 20
-461.1228136602243
 30
0.0
  0
LINE
  5
271
330
1F
100
AcDbEntity
  8
0
  6
SLD-Сплошная
 62
     7
370
    35
100
AcDbLine
 10
1199.2577386319
 20
-487.1000008432
 30
0.0
 11
1199.2577386319
 21
-501.1
 31
0.0
  0
LINE
  5
272
330
1F
100
AcDbEntity
  8
0
  6
SLD-Сплошная
 62
     7
370
    35
100
AcDbLine
 10
1202.057738632
 20
-497.35
 30
0.0
 11
1202.057738632
 21
-490.85
 31
0.0
  0
SPLINE
  5
273
330
1F
100
AcDbEntity
  8
0
  6
SLD-Сплошная
 62
     7
370
    35
100
AcDbSpline
210
0.0
220
0.0
230
1.0
 70
     8
 71
     3
 72
    12
 73
     8
 74
     0
 42
0.000000001
 43
0.00000001
 40
0.0
 40
0.0
 40
0.0
 40
0.0
 40
0.0086674047363283
 40
0.267632629882784
 40
0.5286616002507958
 40
0.7638461449005343
 40
0.9999999999999999
 40
0.9999999999999999
 40
0.9999999999999999
 40
0.9999999999999999
 10
1190.026435495869
 20
304.2458850428872
 30
0.0
 10
1190.027004952622
 20
304.2454667745475
 30
0.0
 10
1190.044588671513
 20
304.2325514603148
 30
0.0
 10
1190.077782051015
 20
304.1973309185183
 30
0.0
 10
1190.116224741407
 20
304.1233414225051
 30
0.0
 10
1190.142897393793
 20
304.0327416643879
 30
0.0
 10
1190.146521683557
 20
303.9664897181839
 30
0.0
 10
1190.148337555127
 20
303.9332956213051
 30
0.0
  0
SPLINE
  5
274
330
1F
100
AcDbEntity
  8
0
  6
SLD-Сплошная
 62
     7
370
    35
100
AcDbSpline
210
0.0
220
0.0
230
1.0
 70
     8
 71
     3
 72
    12
 73
     8
 74
     0
 42
0.000000001
 43
0.00000001
 40
0.0
 40
0.0
 40
0.0
 40
0.0
 40
0.0086674047363051
 40
0.267632629882791
 40
0.5286616002507979
 40
0.7638461449005334
 40
0.9999999999999999
 40
0.9999999999999999
 40
0.9999999999999999
 40
0.9999999999999999
 10
1194.889041767902
 20
304.2458850428872
 30
0.0
 10
1194.888472311149
 20
304.2454667745475
 30
0.0
 10
1194.870888592259
 20
304.2325514603152
 30
0.0
 10
1194.837695212756
 20
304.1973309185183
 30
0.0
 10
1194.799252522364
 20
304.123341422505
 30
0.0
 10
1194.772579869979
 20
304.0327416643881
 30
0.0
 10
1194.768955580214
 20
303.9664897181839
 30
0.0
 10
1194.767139708644
 20
303.9332956213051
 30
0.0
  0
SPLINE
  5
275
330
1F
100
AcDbEntity
  8
0
  6
SLD-Сплошная
 62
     7
370
    35
100
AcDbSpline
210
0.0
220
0.0
230
1.0
 70
     8
 71
     3
 72
    12
 73
     8
 74
     0
 42
0.000000001
 43
0.00000001
 40
0.0
 40
0.0
 40
0.0
 40
0.0
 40
0.2361538550994128
 40
0.471338399749127
 40
0.7323673701170687
 40
0.9913325952635405
 40
1.0
 40
1.0
 40
1.0
 40
1.0
 10
1197.076540785403
 20
303.9332956213052
 30
0.0
 10
1197.080172528543
 20
303.9664897181839
 30
0.0
 10
1197.087421108072
 20
304.0327416643879
 30
0.0
 10
1197.140766412844
 20
304.123341422505
 30
0.0
 10
1197.217651793626
 20
304.1973309185187
 30
0.0
 10
1197.284038552632
 20
304.2325514603142
 30
0.0
 10
1197.319205990413
 20
304.2454667745475
 30
0.0
 10
1197.320344903919
 20
304.2458850428872
 30
0.0
  0
SPLINE
  5
276
330
1F
100
AcDbEntity
  8
0
  6
SLD-Сплошная
 62
     7
370
    35
100
AcDbSpline
210
0.0
220
0.0
230
1.0
 70
     8
 71
     3
 72
    12
 73
     8
 74
     0
 42
0.000000001
 43
0.00000001
 40
0.0
 40
0.0
 40
0.0
 40
0.0
 40
0.0086674047364441
 40
0.2676326298829182
 40
0.528661600250874
 40
0.7638461449005823
 40
1.0
 40
1.0
 40
1.0
 40
1.0
 10
1187.595132359853
 20
304.2458850428872
 30
0.0
 10
1187.596271273359
 20
304.2454667745475
 30
0.0
 10
1187.631438711139
 20
304.2325514603152
 30
0.0
 10
1187.697825470145
 20
304.1973309185182
 30
0.0
 10
1187.774710850928
 20
304.1233414225051
 30
0.0
 10
1187.8280561557
 20
304.0327416643881
 30
0.0
 10
1187.835304735229
 20
303.9664897181839
 30
0.0
 10
1187.838936478369
 20
303.9332956213052
 30
0.0
  0
SPLINE
  5
277
330
1F
100
AcDbEntity
  8
0
  6
SLD-Сплошная
 62
     7
370
    35
100
AcDbSpline
210
0.0
220
0.0
230
1.0
 70
     8
 71
     3
 72
     9
 73
     5
 74
     0
 42
0.000000001
 43
0.00000001
 40
0.0
 40
0.0
 40
0.0
 40
0.0
 40
0.6837814517460596
 40
1.0
 40
1.0
 40
1.0
 40
1.0
 10
1195.921840247024
 20
300.4999999999998
 30
0.0
 10
1195.656518481633
 20
300.523226170757
 30
0.0
 10
1195.26849718519
 20
300.5571934137964
 30
0.0
 10
1194.887589715674
 20
300.7036786509626
 30
0.0
 10
1194.767139708644
 20
300.7499999999998
 30
0.0
  0
SPLINE
  5
278
330
1F
100
AcDbEntity
  8
0
  6
SLD-Сплошная
 62
     7
370
    35
100
AcDbSpline
210
0.0
220
0.0
230
1.0
 70
     8
 71
     3
 72
     9
 73
     5
 74
     0
 42
0.000000001
 43
0.00000001
 40
0.0
 40
0.0
 40
0.0
 40
0.0
 40
0.2537658352361424
 40
1.0
 40
1.0
 40
1.0
 40
1.0
 10
1194.767139708644
 20
300.7499999999998
 30
0.0
 10
1194.573961908951
 20
300.7124477893651
 30
0.0
 10
1193.812717592854
 20
300.5644680165965
 30
0.0
 10
1193.036774143625
 20
300.5275497052396
 30
0.0
 10
1192.457738631886
 20
300.4999999999998
 30
0.0
  0
LINE
  5
279
330
1F
100
AcDbEntity
  8
0
  6
SLD-Сплошная
 62
     7
370
    35
100
AcDbLine
 10
1195.921840247
 20
300.5
 30
0.0
 11
1192.4577386319
 21
300.5
 31
0.0
  0
LINE
  5
27A
330
1F
100
AcDbEntity
  8
0
  6
SLD-Сплошная
 62
     7
370
    35
100
AcDbLine
 10
1197.0765407854
 20
300.75
 30
0.0
 11
1195.921840247
 21
300.5
 31
0.0
  0
LINE
  5
27B
330
1F
100
AcDbEntity
  8
0
  6
SLD-Сплошная
 62
     7
370
    35
100
AcDbLine
 10
1197.0765407854
 20
303.9332956213
 30
0.0
 11
1197.0765407854
 21
300.75
 31
0.0
  0
LINE
  5
27C
330
1F
100
AcDbEntity
  8
0
  6
SLD-Сплошная
 62
     7
370
    35
100
AcDbLine
 10
1194.7671397086
 20
303.9332956213
 30
0.0
 11
1194.7671397086
 21
300.75
 31
0.0
  0
SPLINE
  5
27D
330
1F
100
AcDbEntity
  8
0
  6
SLD-Сплошная
 62
     7
370
    35
100
AcDbSpline
210
0.0
220
0.0
230
1.0
 70
     8
 71
     3
 72
     9
 73
     5
 74
     0
 42
0.000000001
 43
0.00000001
 40
0.0
 40
0.0
 40
0.0
 40
0.0
 40
0.8037424145840146
 40
1.0
 40
1.0
 40
1.0
 40
1.0
 10
1192.457738631886
 20
300.4999999999998
 30
0.0
 10
1191.83417767999
 20
300.5318203256768
 30
0.0
 10
1191.058355799024
 20
300.5714105290798
 30
0.0
 10
1190.297634818032
 20
300.7207006761996
 30
0.0
 10
1190.148337555127
 20
300.7499999999998
 30
0.0
  0
LINE
  5
27E
330
1F
100
AcDbEntity
  8
0
  6
SLD-Сплошная
 62
     7
370
    35
100
AcDbLine
 10
1190.1483375551
 20
303.9332956213
 30
0.0
 11
1190.1483375551
 21
300.75
 31
0.0
  0
LINE
  5
27F
330
1F
100
AcDbEntity
  8
0
  6
SLD-Сплошная
 62
     7
370
    35
100
AcDbLine
 10
1190.1483375551
 20
300.75
 30
0.0
 11
1188.9936370167
 21
300.5
 31
0.0
  0
LINE
  5
280
330
1F
100
AcDbEntity
  8
0
  6
SLD-Сплошная
 62
     7
370
    35
100
AcDbLine
 10
1192.4577386319
 20
300.5
 30
0.0
 11
1188.9936370167
 21
300.5
 31
0.0
  0
SPLINE
  5
281
330
1F
100
AcDbEntity
  8
0
  6
SLD-Сплошная
 62
     7
370
    35
100
AcDbSpline
210
0.0
220
0.0
230
1.0
 70
     8
 71
     3
 72
     9
 73
     5
 74
     0
 42
0.000000001
 43
0.00000001
 40
0.0
 40
0.0
 40
0.0
 40
0.0
 40
0.6837814517460596
 40
1.0
 40
1.0
 40
1.0
 40
1.0
 10
1188.993637016748
 20
300.4999999999998
 30
0.0
 10
1188.728315251358
 20
300.523226170757
 30
0.0
 10
1188.340293954915
 20
300.5571934137964
 30
0.0
 10
1187.959386485398
 20
300.7036786509626
 30
0.0
 10
1187.838936478369
 20
300.7499999999998
 30
0.0
  0
LINE
  5
282
330
1F
100
AcDbEntity
  8
0
  6
SLD-Сплошная
 62
     7
370
    35
100
AcDbLine
 10
1187.8389364784
 20
303.9332956213
 30
0.0
 11
1187.8389364784
 21
300.75
 31
0.0
  0
LINE
  5
283
330
1F
100
AcDbEntity
  8
0
  6
SLD-Сплошная
 62
     7
370
    35
100
AcDbLine
 10
1196.4577386319
 20
300.5
 30
0.0
 11
1195.921840247
 21
300.5
 31
0.0
  0
LINE
  5
284
330
1F
100
AcDbEntity
  8
0
  6
SLD-Сплошная
 62
     7
370
    35
100
AcDbLine
 10
1188.9936370167
 20
300.5
 30
0.0
 11
1188.4577386319
 21
300.5
 31
0.0
  0
SPLINE
  5
285
330
1F
100
AcDbEntity
  8
0
  6
SLD-Сплошная
 62
     7
370
    35
100
AcDbSpline
210
0.0
220
0.0
230
1.0
 70
     8
 71
     3
 72
    10
 73
     6
 74
     0
 42
0.000000001
 43
0.00000001
 40
0.0
 40
0.0
 40
0.0
 40
0.0
 40
0.1826148160851826
 40
0.916215032642635
 40
0.9999999999999999
 40
0.9999999999999999
 40
0.9999999999999999
 40
0.9999999999999999
 10
1196.109020581844
 20
309.127684207299
 30
0.0
 10
1196.146010679726
 20
309.1614828926285
 30
0.0
 10
1196.331597394235
 20
309.3310576524774
 30
0.0
 10
1196.54183205098
 20
309.4499747866178
 30
0.0
 10
1196.722767309407
 20
309.3340243839558
 30
0.0
 10
1196.741313834373
 20
309.3221390441021
 30
0.0
  0
SPLINE
  5
286
330
1F
100
AcDbEntity
  8
0
  6
SLD-Сплошная
 62
     7
370
    35
100
AcDbSpline
210
0.0
220
0.0
230
1.0
 70
     8
 71
     3
 72
    12
 73
     8
 74
     0
 42
0.000000001
 43
0.00000001
 40
0.0
 40
0.0
 40
0.0
 40
0.0
 40
0.0086674047368142
 40
0.2676326298829844
 40
0.5286616002510696
 40
0.7638461449007513
 40
1.0
 40
1.0
 40
1.0
 40
1.0
 10
1196.109020581844
 20
309.127684207299
 30
0.0
 10
1196.108165383193
 20
309.1281024756386
 30
0.0
 10
1196.081758509266
 20
309.1410177898704
 30
0.0
 10
1196.031909362258
 20
309.1762383316683
 30
0.0
 10
1195.974176906173
 20
309.2502278276811
 30
0.0
 10
1195.934120455469
 20
309.3408275857983
 30
0.0
 10
1195.928677570292
 20
309.4070795320024
 30
0.0
 10
1195.92595053104
 20
309.4402736288811
 30
0.0
  0
SPLINE
  5
287
330
1F
100
AcDbEntity
  8
0
  6
SLD-Сплошная
 62
     7
370
    35
100
AcDbSpline
210
0.0
220
0.0
230
1.0
 70
     8
 71
     3
 72
    12
 73
     8
 74
     0
 42
0.000000001
 43
0.00000001
 40
0.0
 40
0.0
 40
0.0
 40
0.0
 40
0.2361538550994863
 40
0.4713383997490423
 40
0.732367370117631
 40
0.9913325952635584
 40
1.0
 40
1.0
 40
1.0
 40
1.0
 10
1191.550134970827
 20
309.4402736288811
 30
0.0
 10
1191.549421326194
 20
309.4070795320023
 30
0.0
 10
1191.547996966133
 20
309.3408275857984
 30
0.0
 10
1191.537514509361
 20
309.2502278276809
 30
0.0
 10
1191.522406381591
 20
309.1762383316688
 30
0.0
 10
1191.509361253544
 20
309.1410177898697
 30
0.0
 10
1191.502450783205
 20
309.1281024756387
 30
0.0
 10
1191.502226984473
 20
309.127684207299
 30
0.0
  0
LINE
  5
288
330
1F
100
AcDbEntity
  8
0
  6
SLD-Сплошная
 62
     7
370
    35
100
AcDbLine
 10
1195.925950531
 20
312.9427344101
 30
0.0
 11
1193.7380427509
 21
313.3
 31
0.0
  0
SPLINE
  5
289
330
1F
100
AcDbEntity
  8
0
  6
SLD-Сплошная
 62
     7
370
    35
100
AcDbSpline
210
0.0
220
0.0
230
1.0
 70
     8
 71
     3
 72
     9
 73
     5
 74
     0
 42
0.000000001
 43
0.00000001
 40
0.0
 40
0.0
 40
0.0
 40
0.0
 40
0.070185204545439
 40
1.0
 40
1.0
 40
1.0
 40
1.0
 10
1193.738042750934
 20
313.2999999999997
 30
0.0
 10
1193.686187760428
 20
313.2996432638502
 30
0.0
 10
1192.947356964939
 20
313.2945604810632
 30
0.0
 10
1192.223338267703
 20
313.1122496853328
 30
0.0
 10
1191.550134970827
 20
312.9427344100916
 30
0.0
  0
LINE
  5
28A
330
1F
100
AcDbEntity
  8
0
  6
SLD-Сплошная
 62
     7
370
    35
100
AcDbLine
 10
1191.5501349708
 20
309.4402736289
 30
0.0
 11
1191.5501349708
 21
312.9427344101
 31
0.0
  0
LINE
  5
28B
330
1F
100
AcDbEntity
  8
0
  6
SLD-Сплошная
 62
     7
370
    35
100
AcDbLine
 10
1195.925950531
 20
309.4402736289
 30
0.0
 11
1195.925950531
 21
312.9427344101
 31
0.0
  0
SPLINE
  5
28C
330
1F
100
AcDbEntity
  8
0
  6
SLD-Сплошная
 62
     7
370
    35
100
AcDbSpline
210
0.0
220
0.0
230
1.0
 70
     8
 71
     3
 72
     9
 73
     5
 74
     0
 42
0.000000001
 43
0.00000001
 40
0.0
 40
0.0
 40
0.0
 40
0.0
 40
0.197224204313102
 40
1.0
 40
1.0
 40
1.0
 40
1.0
 10
1191.550134970827
 20
312.9427344100916
 30
0.0
 10
1191.438809337092
 20
312.9843725670051
 30
0.0
 10
1190.874347007921
 20
313.1954934943709
 30
0.0
 10
1190.287297864482
 20
313.2534632684709
 30
0.0
 10
1189.81602902125
 20
313.2999999999997
 30
0.0
  0
LINE
  5
28D
330
1F
100
AcDbEntity
  8
0
  6
SLD-Сплошная
 62
     7
370
    35
100
AcDbLine
 10
1189.8160290213
 20
313.3
 30
0.0
 11
1193.7380427509
 21
313.3
 31
0.0
  0
SPLINE
  5
28E
330
1F
100
AcDbEntity
  8
0
  6
SLD-Сплошная
 62
     7
370
    35
100
AcDbSpline
210
0.0
220
0.0
230
1.0
 70
     8
 71
     3
 72
    12
 73
     8
 74
     0
 42
0.000000001
 43
0.00000001
 40
0.0
 40
0.0
 40
0.0
 40
0.0
 40
0.236153855099549
 40
0.471338399749087
 40
0.7323673701169358
 40
0.9913325952638683
 40
1.0
 40
1.0
 40
1.0
 40
1.0
 10
1188.081923071673
 20
309.4402736288811
 30
0.0
 10
1188.078482387787
 20
309.4070795320023
 30
0.0
 10
1188.071615142549
 20
309.3408275857984
 30
0.0
 10
1188.021076235074
 20
309.250227827681
 30
0.0
 10
1187.948235651216
 20
309.1762383316682
 30
0.0
 10
1187.885341376166
 20
309.1410177898705
 30
0.0
 10
1187.852024031898
 20
309.1281024756387
 30
0.0
 10
1187.850945034514
 20
309.127684207299
 30
0.0
  0
SPLINE
  5
28F
330
1F
100
AcDbEntity
  8
0
  6
SLD-Сплошная
 62
     7
370
    35
100
AcDbSpline
210
0.0
220
0.0
230
1.0
 70
     8
 71
     3
 72
     9
 73
     5
 74
     0
 42
0.000000001
 43
0.00000001
 40
0.0
 40
0.0
 40
0.0
 40
0.0
 40
0.0701852045453588
 40
1.0
 40
1.0
 40
1.0
 40
1.0
 10
1196.379752361569
 20
313.2999999999997
 30
0.0
 10
1196.368996931277
 20
313.2996432638502
 30
0.0
 10
1196.215753375725
 20
313.2945604810638
 30
0.0
 10
1196.065582050804
 20
313.1122496853331
 30
0.0
 10
1195.92595053104
 20
312.9427344100916
 30
0.0
  0
LINE
  5
290
330
1F
100
AcDbEntity
  8
0
  6
SLD-Сплошная
 62
     7
370
    35
100
AcDbLine
 10
1193.7380427509
 20
313.3
 30
0.0
 11
1196.3797523616
 21
313.3
 31
0.0
  0
SPLINE
  5
291
330
1F
100
AcDbEntity
  8
0
  6
SLD-Сплошная
 62
     7
370
    35
100
AcDbSpline
210
0.0
220
0.0
230
1.0
 70
     8
 71
     3
 72
     9
 73
     5
 74
     0
 42
0.000000001
 43
0.00000001
 40
0.0
 40
0.0
 40
0.0
 40
0.0
 40
0.2210460768286603
 40
1.0
 40
1.0
 40
1.0
 40
1.0
 10
1189.81602902125
 20
313.2999999999997
 30
0.0
 10
1189.68633959698
 20
313.29641774969
 30
0.0
 10
1189.099631947015
 20
313.2802118510778
 30
0.0
 10
1188.52754918417
 20
313.0905062962624
 30
0.0
 10
1188.081923071673
 20
312.9427344100916
 30
0.0
  0
LINE
  5
292
330
1F
100
AcDbEntity
  8
0
  6
SLD-Сплошная
 62
     7
370
    35
100
AcDbLine
 10
1188.0819230717
 20
309.4402736289
 30
0.0
 11
1188.0819230717
 21
312.9427344101
 31
0.0
  0
LINE
  5
293
330
1F
100
AcDbEntity
  8
0
  6
SLD-Сплошная
 62
     7
370
    35
100
AcDbLine
 10
1190.8066701252
 20
296.345
 30
0.0
 11
1189.9577386319
 21
296.345
 31
0.0
  0
LINE
  5
294
330
1F
100
AcDbEntity
  8
0
  6
SLD-Сплошная
 62
     7
370
    35
100
AcDbLine
 10
1194.9577386319
 20
296.345
 30
0.0
 11
1190.8066701252
 21
296.345
 31
0.0
  0
LINE
  5
295
330
1F
100
AcDbEntity
  8
0
  6
SLD-Сплошная
 62
     7
370
    35
100
AcDbLine
 10
1191.1005603194
 20
295.9
 30
0.0
 11
1190.4027386319
 21
295.9
 31
0.0
  0
LINE
  5
296
330
1F
100
AcDbEntity
  8
0
  6
SLD-Сплошная
 62
     7
370
    35
100
AcDbLine
 10
1194.5127386319
 20
295.9
 30
0.0
 11
1191.1005603194
 21
295.9
 31
0.0
  0
SPLINE
  5
297
330
1F
100
AcDbEntity
  8
0
  6
SLD-Сплошная
 62
     7
370
    35
100
AcDbSpline
210
0.0
220
0.0
230
1.0
 70
     8
 71
     3
 72
     9
 73
     5
 74
     0
 42
0.000000001
 43
0.00000001
 40
0.0
 40
0.0
 40
0.0
 40
0.0
 40
0.3849850956773739
 40
1.0
 40
1.0
 40
1.0
 40
1.0
 10
1196.87882848251
 20
309.2883830426314
 30
0.0
 10
1196.868168664373
 20
309.3060484391615
 30
0.0
 10
1196.840479753146
 20
309.3519343623531
 30
0.0
 10
1196.836191519626
 20
309.406633093796
 30
0.0
 10
1196.833554192098
 20
309.4402736288811
 30
0.0
  0
LINE
  5
298
330
1F
100
AcDbEntity
  8
0
  6
SLD-Сплошная
 62
     7
370
    35
100
AcDbLine
 10
1196.8335541921
 20
312.9427344101
 30
0.0
 11
1196.3797523616
 21
313.3
 31
0.0
  0
LINE
  5
299
330
1F
100
AcDbEntity
  8
0
  6
SLD-Сплошная
 62
     7
370
    35
100
AcDbLine
 10
1196.8335541921
 20
309.4402736289
 30
0.0
 11
1196.8335541921
 21
312.9427344101
 31
0.0
  0
LINE
  5
29A
330
1F
100
AcDbEntity
  8
0
  6
SLD-Сплошная
 62
     7
370
    35
100
AcDbLine
 10
1188.0819230717
 20
312.9427344101
 30
0.0
 11
1188.5357249022
 21
313.3
 31
0.0
  0
LINE
  5
29B
330
1F
100
AcDbEntity
  8
0
  6
SLD-Сплошная
 62
     7
370
    35
100
AcDbLine
 10
1189.8160290213
 20
313.3
 30
0.0
 11
1188.4659304841
 21
313.3
 31
0.0
  0
LINE
  5
29C
330
1F
100
AcDbEntity
  8
0
  6
SLD-Сплошная
 62
     7
370
    35
100
AcDbLine
 10
1200.2577386319
 20
308.9
 30
0.0
 11
1201.4577386319
 21
308.9
 31
0.0
  0
LINE
  5
29D
330
1F
100
AcDbEntity
  8
0
  6
SLD-Сплошная
 62
     7
370
    35
100
AcDbLine
 10
1200.2577386319
 20
313.9
 30
0.0
 11
1200.2577386319
 21
308.9
 31
0.0
  0
LINE
  5
29E
330
1F
100
AcDbEntity
  8
0
  6
SLD-Сплошная
 62
     7
370
    35
100
AcDbLine
 10
1201.4577386319
 20
308.9
 30
0.0
 11
1201.4577386319
 21
313.9
 31
0.0
  0
LINE
  5
29F
330
1F
100
AcDbEntity
  8
0
  6
SLD-Сплошная
 62
     7
370
    35
100
AcDbLine
 10
1201.4577386319
 20
506.9
 30
0.0
 11
1200.2577386319
 21
506.9
 31
0.0
  0
LINE
  5
2A0
330
1F
100
AcDbEntity
  8
0
  6
SLD-Сплошная
 62
     7
370
    35
100
AcDbLine
 10
1200.2577386319
 20
506.9
 30
0.0
 11
1200.2577386319
 21
501.9
 31
0.0
  0
LINE
  5
2A1
330
1F
100
AcDbEntity
  8
0
  6
SLD-Сплошная
 62
     7
370
    35
100
AcDbLine
 10
1201.4577386319
 20
501.9
 30
0.0
 11
1201.4577386319
 21
506.9
 31
0.0
  0
LINE
  5
2A2
330
1F
100
AcDbEntity
  8
0
  6
SLD-Сплошная
 62
     7
370
    35
100
AcDbLine
 10
1200.2577386319
 20
501.9
 30
0.0
 11
1200.2577386319
 21
313.9
 31
0.0
  0
LINE
  5
2A3
330
1F
100
AcDbEntity
  8
0
  6
SLD-Сплошная
 62
     7
370
    35
100
AcDbLine
 10
1201.4577386319
 20
501.9
 30
0.0
 11
1201.4577386319
 21
313.9
 31
0.0
  0
LINE
  5
2A4
330
1F
100
AcDbEntity
  8
0
  6
SLD-Сплошная
 62
     7
370
    35
100
AcDbLine
 10
1199.2577386319
 20
414.8999991568
 30
0.0
 11
1199.2577386319
 21
400.9
 31
0.0
  0
LINE
  5
2A5
330
1F
100
AcDbEntity
  8
0
  6
SLD-Сплошная
 62
     7
370
    35
100
AcDbLine
 10
1202.057738632
 20
404.65
 30
0.0
 11
1202.057738632
 21
411.15
 31
0.0
  0
LINE
  5
2A6
330
1F
100
AcDbEntity
  8
0
  6
SLD-Сплошная
 62
     7
370
    35
100
AcDbLine
 10
1211.6097730426
 20
505.7013547076
 30
0.0
 11
1211.6722143355
 21
504.5029803566
 31
0.0
  0
LINE
  5
2A7
330
1F
100
AcDbEntity
  8
0
  6
SLD-Сплошная
 62
     7
370
    35
100
AcDbLine
 10
1212.2648454131
 20
505.9928932188
 30
0.0
 11
1213.1133735505
 21
505.1443650814
 31
0.0
  0
SPLINE
  5
2A8
330
1F
100
AcDbEntity
  8
0
  6
SLD-Сплошная
 62
     7
370
    35
100
AcDbSpline
210
0.0
220
0.0
230
1.0
 70
     8
 71
     3
 72
     9
 73
     5
 74
     0
 42
0.000000001
 43
0.00000001
 40
0.0
 40
0.0
 40
0.0
 40
0.0
 40
0.4999999999999836
 40
1.0
 40
1.0
 40
1.0
 40
1.0
 10
1211.60977304262
 20
505.7013547075662
 30
0.0
 10
1211.732465829419
 20
505.7195790499912
 30
0.0
 10
1211.977851403017
 20
505.7560277348417
 30
0.0
 10
1212.169180743054
 20
505.9139380574894
 30
0.0
 10
1212.264845413072
 20
505.9928932188132
 30
0.0
  0
SPLINE
  5
2A9
330
1F
100
AcDbEntity
  8
0
  6
SLD-Сплошная
 62
     7
370
    35
100
AcDbSpline
210
0.0
220
0.0
230
1.0
 70
     8
 71
     3
 72
     9
 73
     5
 74
     0
 42
0.000000001
 43
0.00000001
 40
0.0
 40
0.0
 40
0.0
 40
0.0
 40
0.4999999999999964
 40
1.0
 40
1.0
 40
1.0
 40
1.0
 10
1211.6722143355
 20
504.5029803566459
 30
0.0
 10
1211.942138466458
 20
504.5430739099816
 30
0.0
 10
1212.481986728375
 20
504.6232610166529
 30
0.0
 10
1212.902911276456
 20
504.9706637264771
 30
0.0
 10
1213.113373550496
 20
505.1443650813894
 30
0.0
  0
ARC
  5
2AA
330
1F
100
AcDbEntity
  8
0
  6
SLD-Сплошная
 62
     7
370
    35
100
AcDbCircle
 10
1211.5577386319
 20
506.7
 30
0.0
 40
0.9999999999999277
100
AcDbArc
 50
225.0
 51
272.9826991412
  0
ARC
  5
2AB
330
1F
100
AcDbEntity
  8
0
  6
SLD-Сплошная
 62
     7
370
    35
100
AcDbCircle
 10
1211.5577386319
 20
506.7
 30
0.0
 40
2.199999999999946
100
AcDbArc
 50
225.0
 51
272.9826991412
  0
SPLINE
  5
2AC
330
1F
100
AcDbEntity
  8
0
  6
SLD-Сплошная
 62
     7
370
    35
100
AcDbSpline
210
0.0
220
0.0
230
1.0
 70
     8
 71
     3
 72
     9
 73
     5
 74
     0
 42
0.000000001
 43
0.00000001
 40
0.0
 40
0.0
 40
0.0
 40
0.0
 40
0.5000000000000144
 40
1.0
 40
1.0
 40
1.0
 40
1.0
 10
1213.113373550496
 20
310.6556349186101
 30
0.0
 10
1212.902911276455
 20
310.8293362735224
 30
0.0
 10
1212.481986728374
 20
311.1767389833469
 30
0.0
 10
1211.942138466457
 20
311.2569260900178
 30
0.0
 10
1211.672214335498
 20
311.2970196433533
 30
0.0
  0
LINE
  5
2AD
330
1F
100
AcDbEntity
  8
0
  6
SLD-Сплошная
 62
     7
370
    35
100
AcDbLine
 10
1211.6097730426
 20
310.0986452924
 30
0.0
 11
1211.6722143355
 21
311.2970196434
 31
0.0
  0
LINE
  5
2AE
330
1F
100
AcDbEntity
  8
0
  6
SLD-Сплошная
 62
     7
370
    35
100
AcDbLine
 10
1213.1133735505
 20
310.6556349186
 30
0.0
 11
1212.2648454131
 21
309.8071067812
 31
0.0
  0
SPLINE
  5
2AF
330
1F
100
AcDbEntity
  8
0
  6
SLD-Сплошная
 62
     7
370
    35
100
AcDbSpline
210
0.0
220
0.0
230
1.0
 70
     8
 71
     3
 72
     9
 73
     5
 74
     0
 42
0.000000001
 43
0.00000001
 40
0.0
 40
0.0
 40
0.0
 40
0.0
 40
0.5000000000000012
 40
1.0
 40
1.0
 40
1.0
 40
1.0
 10
1212.264845413072
 20
309.8071067811862
 30
0.0
 10
1212.169180743053
 20
309.8860619425099
 30
0.0
 10
1211.977851403017
 20
310.0439722651573
 30
0.0
 10
1211.732465829418
 20
310.0804209500079
 30
0.0
 10
1211.609773042619
 20
310.0986452924332
 30
0.0
  0
ARC
  5
2B0
330
1F
100
AcDbEntity
  8
0
  6
SLD-Сплошная
 62
     7
370
    35
100
AcDbCircle
 10
1211.5577386319
 20
309.1
 30
0.0
 40
2.199999999999986
100
AcDbArc
 50
87.0173008588
 51
135.0
  0
ARC
  5
2B1
330
1F
100
AcDbEntity
  8
0
  6
SLD-Сплошная
 62
     7
370
    35
100
AcDbCircle
 10
1211.5577386319
 20
309.1
 30
0.0
 40
1.000000000000088
100
AcDbArc
 50
87.0173008588
 51
135.0
  0
ARC
  5
2B2
330
1F
100
AcDbEntity
  8
0
  6
SLD-Сплошная
 62
     7
370
    35
100
AcDbCircle
 10
1202.4577386319
 20
506.9
 30
0.0
 40
2.200000000000045
100
AcDbArc
 50
90.0
 51
180.0
  0
ARC
  5
2B3
330
1F
100
AcDbEntity
  8
0
  6
SLD-Сплошная
 62
     7
370
    35
100
AcDbCircle
 10
1202.4577386319
 20
506.9
 30
0.0
 40
1.0
100
AcDbArc
 50
90.0
 51
180.0
  0
ARC
  5
2B4
330
1F
100
AcDbEntity
  8
0
  6
SLD-Сплошная
 62
     7
370
    35
100
AcDbCircle
 10
1206.8322552323
 20
506.9
 30
0.0
 40
0.9999999999998863
100
AcDbArc
 50
45.0
 51
90.0
  0
ARC
  5
2B5
330
1F
100
AcDbEntity
  8
0
  6
SLD-Сплошная
 62
     7
370
    35
100
AcDbCircle
 10
1206.8322552323
 20
506.9
 30
0.0
 40
2.199999999999989
100
AcDbArc
 50
45.0
 51
90.0
  0
LINE
  5
2B6
330
1F
100
AcDbEntity
  8
0
  6
SLD-Сплошная
 62
     7
370
    35
100
AcDbLine
 10
1206.8322552323
 20
507.9
 30
0.0
 11
1202.4577386319
 21
507.9
 31
0.0
  0
LINE
  5
2B7
330
1F
100
AcDbEntity
  8
0
  6
SLD-Сплошная
 62
     7
370
    35
100
AcDbLine
 10
1202.4577386319
 20
509.1
 30
0.0
 11
1206.8322552323
 21
509.1
 31
0.0
  0
LINE
  5
2B8
330
1F
100
AcDbEntity
  8
0
  6
SLD-Сплошная
 62
     7
370
    35
100
AcDbLine
 10
1210.0021037133
 20
505.1443650814
 30
0.0
 11
1207.5393620135
 21
507.6071067812
 31
0.0
  0
LINE
  5
2B9
330
1F
100
AcDbEntity
  8
0
  6
SLD-Сплошная
 62
     7
370
    35
100
AcDbLine
 10
1208.3878901509
 20
508.4556349186
 30
0.0
 11
1210.8506318507
 21
505.9928932188
 31
0.0
  0
ARC
  5
2BA
330
1F
100
AcDbEntity
  8
0
  6
SLD-Сплошная
 62
     7
370
    35
100
AcDbCircle
 10
1206.8322552323
 20
308.9
 30
0.0
 40
1.0
100
AcDbArc
 50
270.0
 51
315.0
  0
ARC
  5
2BB
330
1F
100
AcDbEntity
  8
0
  6
SLD-Сплошная
 62
     7
370
    35
100
AcDbCircle
 10
1206.8322552323
 20
308.9
 30
0.0
 40
2.199999999999989
100
AcDbArc
 50
270.0
 51
315.0
  0
ARC
  5
2BC
330
1F
100
AcDbEntity
  8
0
  6
SLD-Сплошная
 62
     7
370
    35
100
AcDbCircle
 10
1202.4577386319
 20
308.9
 30
0.0
 40
1.0
100
AcDbArc
 50
180.0
 51
270.0
  0
ARC
  5
2BD
330
1F
100
AcDbEntity
  8
0
  6
SLD-Сплошная
 62
     7
370
    35
100
AcDbCircle
 10
1202.4577386319
 20
308.9
 30
0.0
 40
2.200000000000045
100
AcDbArc
 50
180.0
 51
270.0
  0
LINE
  5
2BE
330
1F
100
AcDbEntity
  8
0
  6
SLD-Сплошная
 62
     7
370
    35
100
AcDbLine
 10
1210.0021037133
 20
310.6556349186
 30
0.0
 11
1207.5393620135
 21
308.1928932188
 31
0.0
  0
LINE
  5
2BF
330
1F
100
AcDbEntity
  8
0
  6
SLD-Сплошная
 62
     7
370
    35
100
AcDbLine
 10
1210.8506318507
 20
309.8071067812
 30
0.0
 11
1208.3878901509
 21
307.3443650814
 31
0.0
  0
LINE
  5
2C0
330
1F
100
AcDbEntity
  8
0
  6
SLD-Сплошная
 62
     7
370
    35
100
AcDbLine
 10
1206.8322552323
 20
307.9
 30
0.0
 11
1202.4577386319
 21
307.9
 31
0.0
  0
LINE
  5
2C1
330
1F
100
AcDbEntity
  8
0
  6
SLD-Сплошная
 62
     7
370
    35
100
AcDbLine
 10
1206.8322552323
 20
306.7
 30
0.0
 11
1202.4577386319
 21
306.7
 31
0.0
  0
LINE
  5
2C2
330
1F
100
AcDbEntity
  8
0
  6
SLD-Сплошная
 62
     7
370
    35
100
AcDbLine
 10
1213.1133735505
 20
505.1443650814
 30
0.0
 11
1215.8690084691
 21
507.9
 31
0.0
  0
LINE
  5
2C3
330
1F
100
AcDbEntity
  8
0
  6
SLD-Сплошная
 62
     7
370
    35
100
AcDbLine
 10
1215.8690084691
 20
507.9
 30
0.0
 11
1215.0204803317
 21
508.7485281374
 31
0.0
  0
LINE
  5
2C4
330
1F
100
AcDbEntity
  8
0
  6
SLD-Сплошная
 62
     7
370
    35
100
AcDbLine
 10
1215.0204803317
 20
508.7485281374
 30
0.0
 11
1212.2648454131
 21
505.9928932188
 31
0.0
  0
LINE
  5
2C5
330
1F
100
AcDbEntity
  8
0
  6
SLD-Сплошная
 62
     7
370
    35
100
AcDbLine
 10
1212.2648454131
 20
309.8071067812
 30
0.0
 11
1215.0204803317
 21
307.0514718626
 31
0.0
  0
LINE
  5
2C6
330
1F
100
AcDbEntity
  8
0
  6
SLD-Сплошная
 62
     7
370
    35
100
AcDbLine
 10
1215.0204803317
 20
307.0514718626
 30
0.0
 11
1215.8690084691
 21
307.9
 31
0.0
  0
LINE
  5
2C7
330
1F
100
AcDbEntity
  8
0
  6
SLD-Сплошная
 62
     7
370
    35
100
AcDbLine
 10
1215.8690084691
 20
307.9
 30
0.0
 11
1213.1133735505
 21
310.6556349186
 31
0.0
  0
ARC
  5
2C8
330
1F
100
AcDbEntity
  8
0
  6
SLD-Сплошная
 62
     7
370
    35
100
AcDbCircle
 10
1199.2577386319
 20
308.9
 30
0.0
 40
2.199999999999989
100
AcDbArc
 50
270.0
 51
316.6582417728
  0
ARC
  5
2C9
330
1F
100
AcDbEntity
  8
0
  6
SLD-Сплошная
 62
     7
370
    35
100
AcDbCircle
 10
1199.2577386319
 20
308.9
 30
0.0
 40
1.0
100
AcDbArc
 50
270.0
 51
0.0
  0
ARC
  5
2CA
330
1F
100
AcDbEntity
  8
0
  6
SLD-Сплошная
 62
     7
370
    35
100
AcDbCircle
 10
1199.2577386319
 20
506.9
 30
0.0
 40
2.199999999999989
100
AcDbArc
 50
43.3417582752
 51
90.0
  0
ARC
  5
2CB
330
1F
100
AcDbEntity
  8
0
  6
SLD-Сплошная
 62
     7
370
    35
100
AcDbCircle
 10
1199.2577386319
 20
506.9
 30
0.0
 40
1.0
100
AcDbArc
 50
0.0
 51
90.0
  0
LINE
  5
2CC
330
1F
100
AcDbEntity
  8
0
  6
SLD-Сплошная
 62
     7
370
    35
100
AcDbLine
 10
1191.4577386319
 20
307.9
 30
0.0
 11
1199.2577386319
 21
307.9
 31
0.0
  0
LINE
  5
2CD
330
1F
100
AcDbEntity
  8
0
  6
SLD-Сплошная
 62
     7
370
    35
100
AcDbLine
 10
1191.4577386319
 20
306.7
 30
0.0
 11
1199.2577386319
 21
306.7
 31
0.0
  0
LINE
  5
2CE
330
1F
100
AcDbEntity
  8
0
  6
SLD-Сплошная
 62
     7
370
    35
100
AcDbLine
 10
1191.4577386319
 20
509.1
 30
0.0
 11
1199.2577386319
 21
509.1
 31
0.0
  0
LINE
  5
2CF
330
1F
100
AcDbEntity
  8
0
  6
SLD-Сплошная
 62
     7
370
    35
100
AcDbLine
 10
1191.4577386319
 20
507.9
 30
0.0
 11
1199.2577386319
 21
507.9
 31
0.0
  0
LINE
  5
2D0
330
1F
100
AcDbEntity
  8
0
  6
SLD-Сплошная
 62
     7
370
    35
100
AcDbLine
 10
1186.4577386319
 20
307.9
 30
0.0
 11
1186.4577386319
 21
306.7
 31
0.0
  0
LINE
  5
2D1
330
1F
100
AcDbEntity
  8
0
  6
SLD-Сплошная
 62
     7
370
    35
100
AcDbLine
 10
1191.4577386319
 20
307.9
 30
0.0
 11
1186.4577386319
 21
307.9
 31
0.0
  0
LINE
  5
2D2
330
1F
100
AcDbEntity
  8
0
  6
SLD-Сплошная
 62
     7
370
    35
100
AcDbLine
 10
1186.4577386319
 20
306.7
 30
0.0
 11
1191.4577386319
 21
306.7
 31
0.0
  0
LINE
  5
2D3
330
1F
100
AcDbEntity
  8
0
  6
SLD-Сплошная
 62
     7
370
    35
100
AcDbLine
 10
1186.4577386319
 20
509.1
 30
0.0
 11
1186.4577386319
 21
507.9
 31
0.0
  0
LINE
  5
2D4
330
1F
100
AcDbEntity
  8
0
  6
SLD-Сплошная
 62
     7
370
    35
100
AcDbLine
 10
1191.4577386319
 20
509.1
 30
0.0
 11
1186.4577386319
 21
509.1
 31
0.0
  0
LINE
  5
2D5
330
1F
100
AcDbEntity
  8
0
  6
SLD-Сплошная
 62
     7
370
    35
100
AcDbLine
 10
1186.4577386319
 20
507.9
 30
0.0
 11
1191.4577386319
 21
507.9
 31
0.0
  0
SPLINE
  5
2D6
330
1F
100
AcDbEntity
  8
0
  6
SLD-Сплошная
 62
     7
370
    35
100
AcDbSpline
210
0.0
220
0.0
230
1.0
 70
     8
 71
     3
 72
     9
 73
     5
 74
     0
 42
0.000000001
 43
0.00000001
 40
0.0
 40
0.0
 40
0.0
 40
0.0
 40
0.0926884091994924
 40
1.0
 40
1.0
 40
1.0
 40
1.0
 10
1207.13446632986
 20
307.9588624541264
 30
0.0
 10
1207.119931861333
 20
307.950353219364
 30
0.0
 10
1206.963121871261
 20
307.8585484852463
 30
0.0
 10
1206.940885542655
 20
307.8823365982197
 30
0.0
 10
1206.920710263974
 20
307.9039198288438
 30
0.0
  0
LINE
  5
2D7
330
1F
100
AcDbEntity
  8
0
  6
SLD-Сплошная
 62
     7
370
    35
100
AcDbLine
 10
3.25
 20
-1201.4577386319
 30
0.0
 11
3.25
 21
-1202.057738632
 31
0.0
  0
LINE
  5
2D8
330
1F
100
AcDbEntity
  8
0
  6
SLD-Сплошная
 62
     7
370
    35
100
AcDbLine
 10
-3.25
 20
-1202.057738632
 30
0.0
 11
-3.25
 21
-1201.4577386319
 31
0.0
  0
ARC
  5
2D9
330
1F
100
AcDbEntity
  8
0
  6
SLD-Сплошная
 62
     7
370
    35
100
AcDbCircle
 10
500.0
 20
-1192.4577386319
 30
0.0
 40
5.900000000000073
100
AcDbArc
 50
167.583438977
 51
192.416561023
  0
LWPOLYLINE
  5
2DA
330
1F
100
AcDbEntity
  8
0
  6
SLD-Сплошная
 62
     7
370
    35
100
AcDbPolyline
 90
        3
 70
   128
 43
0.0
 10
505.7619999999
 20
-1191.1891346745
 10
505.8973030142
 20
-1192.6361122821
 10
505.762
 20
-1193.7263425892
  0
ARC
  5
2DB
330
1F
100
AcDbEntity
  8
0
  6
SLD-Сплошная
 62
     7
370
    35
100
AcDbCircle
 10
-100.0
 20
-1192.4577386319
 30
0.0
 40
5.90000000000003
100
AcDbArc
 50
167.5834389737
 51
192.4165610261
  0
LWPOLYLINE
  5
2DC
330
1F
100
AcDbEntity
  8
0
  6
SLD-Сплошная
 62
     7
370
    35
100
AcDbPolyline
 90
        3
 70
   128
 43
0.0
 10
-94.238
 20
-1191.1891346748
 10
-94.1026969858
 20
-1192.6361122821
 10
-94.238
 20
-1193.7263425889
  0
ARC
  5
2DD
330
1F
100
AcDbEntity
  8
0
  6
SLD-Сплошная
 62
     7
370
    35
100
AcDbCircle
 10
-500.0
 20
-1192.4577386319
 30
0.0
 40
5.900000000000074
100
AcDbArc
 50
167.5834389762
 51
192.4165610239
  0
LWPOLYLINE
  5
2DE
330
1F
100
AcDbEntity
  8
0
  6
SLD-Сплошная
 62
     7
370
    35
100
AcDbPolyline
 90
        3
 70
   128
 43
0.0
 10
-494.238
 20
-1191.1891346748
 10
-494.1026969858
 20
-1192.6361122821
 10
-494.238
 20
-1193.726342589
  0
ARC
  5
2DF
330
1F
100
AcDbEntity
  8
0
  6
SLD-Сплошная
 62
     7
370
    35
100
AcDbCircle
 10
-300.0
 20
-1192.4577386319
 30
0.0
 40
5.899999999999989
100
AcDbArc
 50
167.5834389728
 51
192.4165610269
  0
LWPOLYLINE
  5
2E0
330
1F
100
AcDbEntity
  8
0
  6
SLD-Сплошная
 62
     7
370
    35
100
AcDbPolyline
 90
        3
 70
   128
 43
0.0
 10
-294.238
 20
-1191.1891346747
 10
-294.1026969858
 20
-1192.6361122821
 10
-294.238
 20
-1193.7263425891
  0
ARC
  5
2E1
330
1F
100
AcDbEntity
  8
0
  6
SLD-Сплошная
 62
     7
370
    35
100
AcDbCircle
 10
100.0
 20
-1192.4577386319
 30
0.0
 40
5.90000000000001
100
AcDbArc
 50
167.5834389748
 51
192.4165610251
  0
LWPOLYLINE
  5
2E2
330
1F
100
AcDbEntity
  8
0
  6
SLD-Сплошная
 62
     7
370
    35
100
AcDbPolyline
 90
        3
 70
   128
 43
0.0
 10
105.762
 20
-1191.1891346747
 10
105.8973030142
 20
-1192.6361122821
 10
105.762
 20
-1193.726342589
  0
ARC
  5
2E3
330
1F
100
AcDbEntity
  8
0
  6
SLD-Сплошная
 62
     7
370
    35
100
AcDbCircle
 10
300.0
 20
-1192.4577386319
 30
0.0
 40
5.899999999999988
100
AcDbArc
 50
167.5834389735
 51
192.4165610263
  0
LWPOLYLINE
  5
2E4
330
1F
100
AcDbEntity
  8
0
  6
SLD-Сплошная
 62
     7
370
    35
100
AcDbPolyline
 90
        3
 70
   128
 43
0.0
 10
305.762
 20
-1191.1891346746
 10
305.8973030142
 20
-1192.6361122821
 10
305.762
 20
-1193.7263425891
  0
ARC
  5
2E5
330
1F
100
AcDbEntity
  8
0
  6
SLD-Сплошная
 62
     7
370
    35
100
AcDbCircle
 10
893.2544155877
 20
-1199.9577386319
 30
0.0
 40
0.300000000000115
100
AcDbArc
 50
270.0
 51
315.0
  0
ARC
  5
2E6
330
1F
100
AcDbEntity
  8
0
  6
SLD-Сплошная
 62
     7
370
    35
100
AcDbCircle
 10
910.7455844123
 20
-1199.9577386319
 30
0.0
 40
0.3000000000000346
100
AcDbArc
 50
225.0
 51
270.0
  0
ARC
  5
2E7
330
1F
100
AcDbEntity
  8
0
  6
SLD-Сплошная
 62
     7
370
    35
100
AcDbCircle
 10
-910.7455844123
 20
-1199.9577386319
 30
0.0
 40
0.3000000000000346
100
AcDbArc
 50
270.0
 51
315.0
  0
ARC
  5
2E8
330
1F
100
AcDbEntity
  8
0
  6
SLD-Сплошная
 62
     7
370
    35
100
AcDbCircle
 10
-893.2544155877
 20
-1199.9577386319
 30
0.0
 40
0.300000000000115
100
AcDbArc
 50
225.0
 51
270.0
  0
LINE
  5
2E9
330
1F
100
AcDbEntity
  8
0
  6
SLD-Сплошная
 62
     7
370
    35
100
AcDbLine
 10
893.4665476221
 20
-1200.1698706662
 30
0.0
 11
893.9393398282
 21
-1199.6970784601
 31
0.0
  0
LINE
  5
2EA
330
1F
100
AcDbEntity
  8
0
  6
SLD-Сплошная
 62
     7
370
    35
100
AcDbLine
 10
910.0606601718
 20
-1199.6970784601
 30
0.0
 11
910.5334523779
 21
-1200.1698706662
 31
0.0
  0
LINE
  5
2EB
330
1F
100
AcDbEntity
  8
0
  6
SLD-Сплошная
 62
     7
370
    35
100
AcDbLine
 10
-910.5334523779
 20
-1200.1698706662
 30
0.0
 11
-910.0606601718
 21
-1199.6970784601
 31
0.0
  0
LINE
  5
2EC
330
1F
100
AcDbEntity
  8
0
  6
SLD-Сплошная
 62
     7
370
    35
100
AcDbLine
 10
-893.9393398282
 20
-1199.6970784601
 30
0.0
 11
-893.4665476221
 21
-1200.1698706662
 31
0.0
  0
ARC
  5
2ED
330
1F
100
AcDbEntity
  8
0
  6
SLD-Сплошная
 62
     7
370
    35
100
AcDbCircle
 10
909.0
 20
-1200.7577386319
 30
0.0
 40
1.5
100
AcDbArc
 50
45.0
 51
90.0
  0
ARC
  5
2EE
330
1F
100
AcDbEntity
  8
0
  6
SLD-Сплошная
 62
     7
370
    35
100
AcDbCircle
 10
895.0
 20
-1200.7577386319
 30
0.0
 40
1.500000000000093
100
AcDbArc
 50
90.0
 51
135.0
  0
ARC
  5
2EF
330
1F
100
AcDbEntity
  8
0
  6
SLD-Сплошная
 62
     7
370
    35
100
AcDbCircle
 10
-895.0
 20
-1200.7577386319
 30
0.0
 40
1.5
100
AcDbArc
 50
45.0
 51
90.0
  0
ARC
  5
2F0
330
1F
100
AcDbEntity
  8
0
  6
SLD-Сплошная
 62
     7
370
    35
100
AcDbCircle
 10
-909.0
 20
-1200.7577386319
 30
0.0
 40
1.500000000000093
100
AcDbArc
 50
90.0
 51
135.0
  0
LINE
  5
2F1
330
1F
100
AcDbEntity
  8
0
  6
SLD-Сплошная
 62
     7
370
    35
100
AcDbLine
 10
905.25
 20
-1201.4577386319
 30
0.0
 11
905.25
 21
-1202.057738632
 31
0.0
  0
LINE
  5
2F2
330
1F
100
AcDbEntity
  8
0
  6
SLD-Сплошная
 62
     7
370
    35
100
AcDbLine
 10
898.75
 20
-1202.057738632
 30
0.0
 11
898.75
 21
-1201.4577386319
 31
0.0
  0
LINE
  5
2F3
330
1F
100
AcDbEntity
  8
0
  6
SLD-Сплошная
 62
     7
370
    35
100
AcDbLine
 10
-898.75
 20
-1201.4577386319
 30
0.0
 11
-898.75
 21
-1202.057738632
 31
0.0
  0
LINE
  5
2F4
330
1F
100
AcDbEntity
  8
0
  6
SLD-Сплошная
 62
     7
370
    35
100
AcDbLine
 10
-905.25
 20
-1202.057738632
 30
0.0
 11
-905.25
 21
-1201.4577386319
 31
0.0
  0
LINE
  5
2F5
330
1F
100
AcDbEntity
  8
0
  6
SLD-Сплошная
 62
     7
370
    35
100
AcDbLine
 10
147.8000713447
 20
-1211.5696836885
 30
0.0
 11
146.6001569584
 21
-1211.5840177565
 31
0.0
  0
SPLINE
  5
2F6
330
1F
100
AcDbEntity
  8
0
  6
SLD-Сплошная
 62
     7
370
    35
100
AcDbSpline
210
0.0
220
0.0
230
1.0
 70
     8
 71
     3
 72
    11
 73
     7
 74
     0
 42
0.000000001
 43
0.00000001
 40
0.0
 40
0.0
 40
0.0
 40
0.0
 40
0.2500000000000102
 40
0.5000000000000115
 40
0.749999999999992
 40
1.0
 40
1.0
 40
1.0
 40
1.0
 10
146.6001569584149
 20
-1211.584017756469
 30
0.0
 10
146.6097325535721
 20
-1211.725769253629
 30
0.0
 10
146.6288837438866
 20
-1212.009272247949
 30
0.0
 10
146.7615327763588
 20
-1212.416398957374
 30
0.0
 10
146.9601631343851
 20
-1212.795732457362
 30
0.0
 10
147.1496310990549
 20
-1213.007493186117
 30
0.0
 10
147.2443650813897
 20
-1213.113373550495
 30
0.0
  0
LINE
  5
2F7
330
1F
100
AcDbEntity
  8
0
  6
SLD-Сплошная
 62
     7
370
    35
100
AcDbLine
 10
148.0928932188
 20
-1212.2648454131
 30
0.0
 11
147.2443650814
 21
-1213.1133735505
 31
0.0
  0
SPLINE
  5
2F8
330
1F
100
AcDbEntity
  8
0
  6
SLD-Сплошная
 62
     7
370
    35
100
AcDbSpline
210
0.0
220
0.0
230
1.0
 70
     8
 71
     3
 72
    11
 73
     7
 74
     0
 42
0.000000001
 43
0.00000001
 40
0.0
 40
0.0
 40
0.0
 40
0.0
 40
0.2500000000000293
 40
0.5000000000000084
 40
0.750000000000064
 40
1.0
 40
1.0
 40
1.0
 40
1.0
 10
147.8000713447342
 20
-1211.569683688514
 30
0.0
 10
147.8044238879874
 20
-1211.634116187223
 30
0.0
 10
147.8131289744942
 20
-1211.762981184641
 30
0.0
 10
147.873423989254
 20
-1211.948038779834
 30
0.0
 10
147.9637105156299
 20
-1212.120463098011
 30
0.0
 10
148.0498323177524
 20
-1212.216717974717
 30
0.0
 10
148.0928932188136
 20
-1212.264845413071
 30
0.0
  0
ARC
  5
2F9
330
1F
100
AcDbEntity
  8
0
  6
SLD-Сплошная
 62
     7
370
    35
100
AcDbCircle
 10
-148.8
 20
-1211.5577386319
 30
0.0
 40
2.200000000000086
100
AcDbArc
 50
359.3155823925
 51
45.0
  0
ARC
  5
2FA
330
1F
100
AcDbEntity
  8
0
  6
SLD-Сплошная
 62
     7
370
    35
100
AcDbCircle
 10
-148.8
 20
-1211.5577386319
 30
0.0
 40
1.000000000000109
100
AcDbArc
 50
359.3155823925
 51
45.0
  0
LINE
  5
2FB
330
1F
100
AcDbEntity
  8
0
  6
SLD-Сплошная
 62
     7
370
    35
100
AcDbLine
 10
-147.8000713447
 20
-1211.5696836885
 30
0.0
 11
-146.6001569584
 21
-1211.5840177565
 31
0.0
  0
SPLINE
  5
2FC
330
1F
100
AcDbEntity
  8
0
  6
SLD-Сплошная
 62
     7
370
    35
100
AcDbSpline
210
0.0
220
0.0
230
1.0
 70
     8
 71
     3
 72
    11
 73
     7
 74
     0
 42
0.000000001
 43
0.00000001
 40
0.0
 40
0.0
 40
0.0
 40
0.0
 40
0.2500000000000024
 40
0.4999999999999974
 40
0.7499999999999951
 40
0.9999999999999999
 40
0.9999999999999999
 40
0.9999999999999999
 40
0.9999999999999999
 10
-147.2443650813893
 20
-1213.113373550495
 30
0.0
 10
-147.1496310990545
 20
-1213.007493186117
 30
0.0
 10
-146.9601631343849
 20
-1212.795732457362
 30
0.0
 10
-146.7615327763582
 20
-1212.416398957374
 30
0.0
 10
-146.6288837438863
 20
-1212.009272247949
 30
0.0
 10
-146.6097325535717
 20
-1211.725769253629
 30
0.0
 10
-146.6001569584145
 20
-1211.584017756469
 30
0.0
  0
SPLINE
  5
2FD
330
1F
100
AcDbEntity
  8
0
  6
SLD-Сплошная
 62
     7
370
    35
100
AcDbSpline
210
0.0
220
0.0
230
1.0
 70
     8
 71
     3
 72
    11
 73
     7
 74
     0
 42
0.000000001
 43
0.00000001
 40
0.0
 40
0.0
 40
0.0
 40
0.0
 40
0.2500000000000183
 40
0.5000000000000053
 40
0.7499999999999982
 40
0.9999999999999999
 40
0.9999999999999999
 40
0.9999999999999999
 40
0.9999999999999999
 10
-148.0928932188132
 20
-1212.264845413071
 30
0.0
 10
-148.0498323177519
 20
-1212.216717974718
 30
0.0
 10
-147.9637105156292
 20
-1212.120463098011
 30
0.0
 10
-147.8734239892538
 20
-1211.948038779834
 30
0.0
 10
-147.8131289744935
 20
-1211.762981184641
 30
0.0
 10
-147.804423887987
 20
-1211.634116187223
 30
0.0
 10
-147.8000713447337
 20
-1211.569683688514
 30
0.0
  0
LINE
  5
2FE
330
1F
100
AcDbEntity
  8
0
  6
SLD-Сплошная
 62
     7
370
    35
100
AcDbLine
 10
-147.2443650814
 20
-1213.1133735505
 30
0.0
 11
-148.0928932188
 21
-1212.2648454131
 31
0.0
  0
ARC
  5
2FF
330
1F
100
AcDbEntity
  8
0
  6
SLD-Сплошная
 62
     7
370
    35
100
AcDbCircle
 10
148.8
 20
-1211.5577386319
 30
0.0
 40
2.200000000000015
100
AcDbArc
 50
135.0
 51
180.6844176075
  0
ARC
  5
300
330
1F
100
AcDbEntity
  8
0
  6
SLD-Сплошная
 62
     7
370
    35
100
AcDbCircle
 10
148.8
 20
-1211.5577386319
 30
0.0
 40
1.000000000000028
100
AcDbArc
 50
135.0
 51
180.6844176075
  0
LINE
  5
301
330
1F
100
AcDbEntity
  8
0
  6
SLD-Сплошная
 62
     7
370
    35
100
AcDbLine
 10
150.0
 20
-1206.8322552323
 30
0.0
 11
150.0
 21
-1202.4577386319
 31
0.0
  0
LINE
  5
302
330
1F
100
AcDbEntity
  8
0
  6
SLD-Сплошная
 62
     7
370
    35
100
AcDbLine
 10
151.2
 20
-1206.8322552323
 30
0.0
 11
151.2
 21
-1202.4577386319
 31
0.0
  0
ARC
  5
303
330
1F
100
AcDbEntity
  8
0
  6
SLD-Сплошная
 62
     7
370
    35
100
AcDbCircle
 10
-149.0
 20
-1206.8322552323
 30
0.0
 40
2.200000000000045
100
AcDbArc
 50
180.0
 51
225.0
  0
ARC
  5
304
330
1F
100
AcDbEntity
  8
0
  6
SLD-Сплошная
 62
     7
370
    35
100
AcDbCircle
 10
-149.0
 20
-1206.8322552323
 30
0.0
 40
1.000000000000028
100
AcDbArc
 50
180.0
 51
225.0
  0
LINE
  5
305
330
1F
100
AcDbEntity
  8
0
  6
SLD-Сплошная
 62
     7
370
    35
100
AcDbLine
 10
-150.0
 20
-1206.8322552323
 30
0.0
 11
-150.0
 21
-1202.4577386319
 31
0.0
  0
LINE
  5
306
330
1F
100
AcDbEntity
  8
0
  6
SLD-Сплошная
 62
     7
370
    35
100
AcDbLine
 10
-151.2
 20
-1206.8322552323
 30
0.0
 11
-151.2
 21
-1202.4577386319
 31
0.0
  0
ARC
  5
307
330
1F
100
AcDbEntity
  8
0
  6
SLD-Сплошная
 62
     7
370
    35
100
AcDbCircle
 10
149.0
 20
-1206.8322552323
 30
0.0
 40
1.000000000000008
100
AcDbArc
 50
315.0
 51
0.0
  0
ARC
  5
308
330
1F
100
AcDbEntity
  8
0
  6
SLD-Сплошная
 62
     7
370
    35
100
AcDbCircle
 10
149.0
 20
-1206.8322552323
 30
0.0
 40
2.200000000000074
100
AcDbArc
 50
315.0
 51
0.0
  0
ARC
  5
309
330
1F
100
AcDbEntity
  8
0
  6
SLD-Сплошная
 62
     7
370
    35
100
AcDbCircle
 10
149.0
 20
-1202.4577386319
 30
0.0
 40
1.000000000000227
100
AcDbArc
 50
0.0
 51
90.0
  0
ARC
  5
30A
330
1F
100
AcDbEntity
  8
0
  6
SLD-Сплошная
 62
     7
370
    35
100
AcDbCircle
 10
149.0
 20
-1202.4577386319
 30
0.0
 40
2.19999999999996
100
AcDbArc
 50
0.0
 51
27.0356917895
  0
LINE
  5
30B
330
1F
100
AcDbEntity
  8
0
  6
SLD-Сплошная
 62
     7
370
    35
100
AcDbLine
 10
148.0928932188
 20
-1210.8506318507
 30
0.0
 11
150.5556349186
 21
-1208.3878901509
 31
0.0
  0
LINE
  5
30C
330
1F
100
AcDbEntity
  8
0
  6
SLD-Сплошная
 62
     7
370
    35
100
AcDbLine
 10
147.2443650814
 20
-1210.0021037133
 30
0.0
 11
149.7071067812
 21
-1207.5393620135
 31
0.0
  0
LINE
  5
30D
330
1F
100
AcDbEntity
  8
0
  6
SLD-Сплошная
 62
     7
370
    35
100
AcDbLine
 10
-148.0928932188
 20
-1210.8506318507
 30
0.0
 11
-150.5556349186
 21
-1208.3878901509
 31
0.0
  0
LINE
  5
30E
330
1F
100
AcDbEntity
  8
0
  6
SLD-Сплошная
 62
     7
370
    35
100
AcDbLine
 10
-147.2443650814
 20
-1210.0021037133
 30
0.0
 11
-149.7071067812
 21
-1207.5393620135
 31
0.0
  0
ARC
  5
30F
330
1F
100
AcDbEntity
  8
0
  6
SLD-Сплошная
 62
     7
370
    35
100
AcDbCircle
 10
-149.0
 20
-1202.4577386319
 30
0.0
 40
1.000000000000227
100
AcDbArc
 50
90.0
 51
180.0
  0
ARC
  5
310
330
1F
100
AcDbEntity
  8
0
  6
SLD-Сплошная
 62
     7
370
    35
100
AcDbCircle
 10
-149.0
 20
-1202.4577386319
 30
0.0
 40
2.199999999999989
100
AcDbArc
 50
152.9643082105
 51
180.0
  0
LINE
  5
311
330
1F
100
AcDbEntity
  8
0
  6
SLD-Сплошная
 62
     7
370
    35
100
AcDbLine
 10
-148.0928932188
 20
-1212.2648454131
 30
0.0
 11
-150.8485281374
 21
-1215.0204803317
 31
0.0
  0
LINE
  5
312
330
1F
100
AcDbEntity
  8
0
  6
SLD-Сплошная
 62
     7
370
    35
100
AcDbLine
 10
-150.8485281374
 20
-1215.0204803317
 30
0.0
 11
-150.0
 21
-1215.8690084691
 31
0.0
  0
LINE
  5
313
330
1F
100
AcDbEntity
  8
0
  6
SLD-Сплошная
 62
     7
370
    35
100
AcDbLine
 10
-150.0
 20
-1215.8690084691
 30
0.0
 11
-147.2443650814
 21
-1213.1133735505
 31
0.0
  0
LINE
  5
314
330
1F
100
AcDbEntity
  8
0
  6
SLD-Сплошная
 62
     7
370
    35
100
AcDbLine
 10
147.2443650814
 20
-1213.1133735505
 30
0.0
 11
150.0
 21
-1215.8690084691
 31
0.0
  0
LINE
  5
315
330
1F
100
AcDbEntity
  8
0
  6
SLD-Сплошная
 62
     7
370
    35
100
AcDbLine
 10
150.0
 20
-1215.8690084691
 30
0.0
 11
150.8485281374
 21
-1215.0204803317
 31
0.0
  0
LINE
  5
316
330
1F
100
AcDbEntity
  8
0
  6
SLD-Сплошная
 62
     7
370
    35
100
AcDbLine
 10
150.8485281374
 20
-1215.0204803317
 30
0.0
 11
148.0928932188
 21
-1212.2648454131
 31
0.0
  0
LINE
  5
317
330
1F
100
AcDbEntity
  8
0
  6
SLD-Сплошная
 62
     7
370
    35
100
AcDbLine
 10
-3.25
 20
-1202.057738632
 30
0.0
 11
3.25
 21
-1202.057738632
 31
0.0
  0
ARC
  5
318
330
1F
100
AcDbEntity
  8
0
  6
SLD-Сплошная
 62
     7
370
    35
100
AcDbCircle
 10
500.0
 20
-1192.4577386319
 30
0.0
 40
4.00000000000025
100
AcDbArc
 50
318.6675229036
 51
18.6675229036
  0
SPLINE
  5
319
330
1F
100
AcDbEntity
  8
0
  6
SLD-Сплошная
 62
     7
370
    35
100
AcDbSpline
210
0.0
220
0.0
230
1.0
 70
    24
 71
     3
 72
     9
 73
     5
 74
     0
 42
0.000000001
 43
0.00000001
 40
0.0
 40
0.0
 40
0.0
 40
0.0
 40
0.070185204545533
 40
1.0
 40
1.0
 40
1.0
 40
1.0
 10
503.789567437419
 20
-1191.177434512836
 30
0.0
 10
503.8070866289979
 20
-1191.229289503342
 30
0.0
 10
504.0567003715585
 20
-1191.968120298832
 30
0.0
 10
504.3013098515712
 20
-1192.692138996067
 30
0.0
 10
504.5287513651957
 20
-1193.365342292942
 30
0.0
  0
SPLINE
  5
31A
330
1F
100
AcDbEntity
  8
0
  6
SLD-Сплошная
 62
     7
370
    35
100
AcDbSpline
210
0.0
220
0.0
230
1.0
 70
    24
 71
     3
 72
     9
 73
     5
 74
     0
 42
0.000000001
 43
0.00000001
 40
0.0
 40
0.0
 40
0.0
 40
0.0
 40
0.7789539221069302
 40
1.0
 40
1.0
 40
1.0
 40
1.0
 10
504.5287513651957
 20
-1193.365342292942
 30
0.0
 10
504.13681148878
 20
-1193.81096840482
 30
0.0
 10
503.633649664579
 20
-1194.383051167653
 30
0.0
 10
503.1176248677983
 20
-1194.969758817624
 30
0.0
 10
503.0035596103746
 20
-1195.09944824252
 30
0.0
  0
ARC
  5
31B
330
1F
100
AcDbEntity
  8
0
  6
SLD-Сплошная
 62
     7
370
    35
100
AcDbCircle
 10
500.0
 20
-1192.4577386319
 30
0.0
 40
3.999999999999869
100
AcDbArc
 50
298.9550243719
 51
318.6675229036
  0
LINE
  5
31C
330
1F
100
AcDbEntity
  8
0
  6
SLD-Сплошная
 62
     7
370
    35
100
AcDbLine
 10
503.0035596104
 20
-1195.0994482425
 30
0.0
 11
502.2486706571
 21
-1195.9577386319
 31
0.0
  0
ARC
  5
31D
330
1F
100
AcDbEntity
  8
0
  6
SLD-Сплошная
 62
     7
370
    35
100
AcDbCircle
 10
500.0
 20
-1192.4577386319
 30
0.0
 40
4.00000000000025
100
AcDbArc
 50
18.6675229036
 51
61.0449756282
  0
LINE
  5
31E
330
1F
100
AcDbEntity
  8
0
  6
SLD-Сплошная
 62
     7
370
    35
100
AcDbLine
 10
503.0503835096
 20
-1188.9895267327
 30
0.0
 11
503.7895674374
 21
-1191.1774345128
 31
0.0
  0
ARC
  5
31F
330
1F
100
AcDbEntity
  8
0
  6
SLD-Сплошная
 62
     7
370
    35
100
AcDbCircle
 10
500.0
 20
-1192.4577386319
 30
0.0
 40
4.000000000000215
100
AcDbArc
 50
118.9550243718
 51
138.6675229036
  0
SPLINE
  5
320
330
1F
100
AcDbEntity
  8
0
  6
SLD-Сплошная
 62
     7
370
    35
100
AcDbSpline
210
0.0
220
0.0
230
1.0
 70
    24
 71
     3
 72
     9
 73
     5
 74
     0
 42
0.000000001
 43
0.00000001
 40
0.0
 40
0.0
 40
0.0
 40
0.0
 40
0.3989708934729235
 40
1.0
 40
1.0
 40
1.0
 40
1.0
 10
496.9964403896243
 20
-1189.816029021249
 30
0.0
 10
497.1106742782787
 20
-1189.686147866743
 30
0.0
 10
497.3969956378646
 20
-1189.360607441036
 30
0.0
 10
497.6761903882976
 20
-1189.043169796697
 30
0.0
 10
497.8439945596973
 20
-1188.852380532941
 30
0.0
  0
ARC
  5
321
330
1F
100
AcDbEntity
  8
0
  6
SLD-Сплошная
 62
     7
370
    35
100
AcDbCircle
 10
500.0
 20
-1192.4577386319
 30
0.0
 40
4.000000000000121
100
AcDbArc
 50
198.6675229036
 51
241.0449756281
  0
LINE
  5
322
330
1F
100
AcDbEntity
  8
0
  6
SLD-Сплошная
 62
     7
370
    35
100
AcDbLine
 10
496.9496164904
 20
-1195.925950531
 30
0.0
 11
496.2104325626
 21
-1193.7380427509
 31
0.0
  0
SPLINE
  5
323
330
1F
100
AcDbEntity
  8
0
  6
SLD-Сплошная
 62
     7
370
    35
100
AcDbSpline
210
0.0
220
0.0
230
1.0
 70
    24
 71
     3
 72
     9
 73
     5
 74
     0
 42
0.000000001
 43
0.00000001
 40
0.0
 40
0.0
 40
0.0
 40
0.0
 40
0.0701852045454309
 40
1.0
 40
1.0
 40
1.0
 40
1.0
 10
496.2104325625801
 20
-1193.738042750932
 30
0.0
 10
496.1929133710012
 20
-1193.686187760426
 30
0.0
 10
495.9432996284402
 20
-1192.947356964937
 30
0.0
 10
495.6986901484273
 20
-1192.223338267701
 30
0.0
 10
495.4712486348032
 20
-1191.550134970826
 30
0.0
  0
ARC
  5
324
330
1F
100
AcDbEntity
  8
0
  6
SLD-Сплошная
 62
     7
370
    35
100
AcDbCircle
 10
500.0
 20
-1192.4577386319
 30
0.0
 40
4.000000000000215
100
AcDbArc
 50
138.6675229036
 51
198.6675229036
  0
SPLINE
  5
325
330
1F
100
AcDbEntity
  8
0
  6
SLD-Сплошная
 62
     7
370
    35
100
AcDbSpline
210
0.0
220
0.0
230
1.0
 70
    24
 71
     3
 72
     9
 73
     5
 74
     0
 42
0.000000001
 43
0.00000001
 40
0.0
 40
0.0
 40
0.0
 40
0.0
 40
0.1972242043131079
 40
1.0
 40
1.0
 40
1.0
 40
1.0
 10
495.4712486348032
 20
-1191.550134970826
 30
0.0
 10
495.5691624553025
 20
-1191.438809337091
 30
0.0
 10
496.0656219078343
 20
-1190.87434700792
 30
0.0
 10
496.5819470570942
 20
-1190.28729786448
 30
0.0
 10
496.9964403896243
 20
-1189.816029021249
 30
0.0
  0
SPLINE
  5
326
330
1F
100
AcDbEntity
  8
0
  6
SLD-Сплошная
 62
     7
370
    35
100
AcDbSpline
210
0.0
220
0.0
230
1.0
 70
     8
 71
     3
 72
    11
 73
     7
 74
     0
 42
0.000000001
 43
0.00000001
 40
0.0
 40
0.0
 40
0.0
 40
0.0
 40
0.1265852332079769
 40
0.4692135075534909
 40
0.7339691201190727
 40
0.9999999999999999
 40
0.9999999999999999
 40
0.9999999999999999
 40
0.9999999999999999
 10
502.4346082142217
 20
-1196.051204788604
 30
0.0
 10
502.5318397451917
 20
-1195.939106599699
 30
0.0
 10
502.8922478791821
 20
-1195.523592221966
 30
0.0
 10
503.4666914293743
 20
-1194.871396357668
 30
0.0
 10
504.1493519690007
 20
-1194.103897672569
 30
0.0
 10
504.5613221500547
 20
-1193.643834526203
 30
0.0
 10
504.7678021402391
 20
-1193.413250279297
 30
0.0
  0
SPLINE
  5
327
330
1F
100
AcDbEntity
  8
0
  6
SLD-Сплошная
 62
     7
370
    35
100
AcDbSpline
210
0.0
220
0.0
230
1.0
 70
    24
 71
     3
 72
    12
 73
     8
 74
     0
 42
0.000000001
 43
0.00000001
 40
0.0
 40
0.0
 40
0.0
 40
0.0
 40
0.0086674047360016
 40
0.267632629882524
 40
0.5286616002506926
 40
0.7638461449004033
 40
1.0
 40
1.0
 40
1.0
 40
1.0
 10
504.7678021402391
 20
-1193.413250279297
 30
0.0
 10
504.7666854316375
 20
-1193.413026480565
 30
0.0
 10
504.7322036381831
 20
-1193.406116010229
 30
0.0
 10
504.6671111931119
 20
-1193.393070882178
 30
0.0
 10
504.5917248133507
 20
-1193.37796275441
 30
0.0
 10
504.539419558919
 20
-1193.367480297637
 30
0.0
 10
504.5323123018102
 20
-1193.366055937576
 30
0.0
 10
504.5287513651957
 20
-1193.365342292942
 30
0.0
  0
SPLINE
  5
328
330
1F
100
AcDbEntity
  8
0
  6
SLD-Сплошная
 62
     7
370
    35
100
AcDbSpline
210
0.0
220
0.0
230
1.0
 70
     8
 71
     3
 72
    10
 73
     6
 74
     0
 42
0.000000001
 43
0.00000001
 40
0.0
 40
0.0
 40
0.0
 40
0.0
 40
0.1318317034404784
 40
0.6614260061726865
 40
1.0
 40
1.0
 40
1.0
 40
1.0
 10
504.7678021402391
 20
-1193.413250279297
 30
0.0
 10
504.7030831585366
 20
-1193.227217715077
 30
0.0
 10
504.3783750915561
 20
-1192.293855156914
 30
0.0
 10
503.8814920978508
 20
-1190.846078816018
 30
0.0
 10
503.4747096199333
 20
-1189.606764614345
 30
0.0
 10
503.3160699083553
 20
-1189.123448694459
 30
0.0
  0
SPLINE
  5
329
330
1F
100
AcDbEntity
  8
0
  6
SLD-Сплошная
 62
     7
370
    35
100
AcDbSpline
210
0.0
220
0.0
230
1.0
 70
     8
 71
     3
 72
    10
 73
     6
 74
     0
 42
0.000000001
 43
0.00000001
 40
0.0
 40
0.0
 40
0.0
 40
0.0
 40
0.131831703440571
 40
0.6614260061727446
 40
1.0
 40
1.0
 40
1.0
 40
1.0
 10
495.2321978597599
 20
-1191.502226984471
 30
0.0
 10
495.2969168414623
 20
-1191.688259548692
 30
0.0
 10
495.6216249084433
 20
-1192.621622106854
 30
0.0
 10
496.1185079021478
 20
-1194.06939844775
 30
0.0
 10
496.5252903800653
 20
-1195.308712649424
 30
0.0
 10
496.6839300916433
 20
-1195.79202856931
 30
0.0
  0
SPLINE
  5
32A
330
1F
100
AcDbEntity
  8
0
  6
SLD-Сплошная
 62
     7
370
    35
100
AcDbSpline
210
0.0
220
0.0
230
1.0
 70
    24
 71
     3
 72
    12
 73
     8
 74
     0
 42
0.000000001
 43
0.00000001
 40
0.0
 40
0.0
 40
0.0
 40
0.0
 40
0.236153855099438
 40
0.4713383997489554
 40
0.7323673701175634
 40
0.9913325952633494
 40
0.9999999999999999
 40
0.9999999999999999
 40
0.9999999999999999
 40
0.9999999999999999
 10
495.4712486348032
 20
-1191.550134970826
 30
0.0
 10
495.467687698189
 20
-1191.549421326192
 30
0.0
 10
495.4605804410801
 20
-1191.547996966131
 30
0.0
 10
495.4082751866482
 20
-1191.537514509359
 30
0.0
 10
495.3328888068874
 20
-1191.522406381589
 30
0.0
 10
495.267796361815
 20
-1191.509361253543
 30
0.0
 10
495.2333145683617
 20
-1191.502450783204
 30
0.0
 10
495.2321978597599
 20
-1191.502226984471
 30
0.0
  0
SPLINE
  5
32B
330
1F
100
AcDbEntity
  8
0
  6
SLD-Сплошная
 62
     7
370
    35
100
AcDbSpline
210
0.0
220
0.0
230
1.0
 70
     8
 71
     3
 72
     9
 73
     5
 74
     0
 42
0.000000001
 43
0.00000001
 40
0.0
 40
0.0
 40
0.0
 40
0.0
 40
0.4488738627708584
 40
1.0
 40
1.0
 40
1.0
 40
1.0
 10
497.4773476599198
 20
-1188.961590981119
 30
0.0
 10
497.1428282014904
 20
-1189.346121792212
 30
0.0
 10
496.3975866399424
 20
-1190.202778512476
 30
0.0
 10
495.6462687733865
 20
-1191.040523709856
 30
0.0
 10
495.2321978597599
 20
-1191.502226984471
 30
0.0
  0
LINE
  5
32C
330
1F
100
AcDbEntity
  8
0
  6
SLD-Сплошная
 62
     7
370
    35
100
AcDbLine
 10
-96.9964403896
 20
-1195.0994482425
 30
0.0
 11
-97.8439945597
 21
-1196.0630967308
 31
0.0
  0
ARC
  5
32D
330
1F
100
AcDbEntity
  8
0
  6
SLD-Сплошная
 62
     7
370
    35
100
AcDbCircle
 10
-100.0
 20
-1192.4577386319
 30
0.0
 40
3.999999999999834
100
AcDbArc
 50
298.9550243719
 51
318.6675229036
  0
ARC
  5
32E
330
1F
100
AcDbEntity
  8
0
  6
SLD-Сплошная
 62
     7
370
    35
100
AcDbCircle
 10
-100.0
 20
-1192.4577386319
 30
0.0
 40
4.000000000000277
100
AcDbArc
 50
318.6675229036
 51
18.6675229036
  0
SPLINE
  5
32F
330
1F
100
AcDbEntity
  8
0
  6
SLD-Сплошная
 62
     7
370
    35
100
AcDbSpline
210
0.0
220
0.0
230
1.0
 70
    24
 71
     3
 72
     9
 73
     5
 74
     0
 42
0.000000001
 43
0.00000001
 40
0.0
 40
0.0
 40
0.0
 40
0.0
 40
0.0701852045455265
 40
1.0
 40
1.0
 40
1.0
 40
1.0
 10
-96.21043256258099
 20
-1191.177434512836
 30
0.0
 10
-96.19291337100205
 20
-1191.229289503342
 30
0.0
 10
-95.94329962844245
 20
-1191.968120298832
 30
0.0
 10
-95.69869014842925
 20
-1192.692138996067
 30
0.0
 10
-95.47124863480444
 20
-1193.365342292942
 30
0.0
  0
SPLINE
  5
330
330
1F
100
AcDbEntity
  8
0
  6
SLD-Сплошная
 62
     7
370
    35
100
AcDbSpline
210
0.0
220
0.0
230
1.0
 70
    24
 71
     3
 72
     9
 73
     5
 74
     0
 42
0.000000001
 43
0.00000001
 40
0.0
 40
0.0
 40
0.0
 40
0.0
 40
0.7789539221068991
 40
0.9999999999999999
 40
0.9999999999999999
 40
0.9999999999999999
 40
0.9999999999999999
 10
-95.47124863480444
 20
-1193.365342292942
 30
0.0
 10
-95.86318851122039
 20
-1193.81096840482
 30
0.0
 10
-96.36635033542152
 20
-1194.383051167653
 30
0.0
 10
-96.88237513220166
 20
-1194.969758817624
 30
0.0
 10
-96.99644038962558
 20
-1195.09944824252
 30
0.0
  0
ARC
  5
331
330
1F
100
AcDbEntity
  8
0
  6
SLD-Сплошная
 62
     7
370
    35
100
AcDbCircle
 10
-100.0
 20
-1192.4577386319
 30
0.0
 40
4.000000000000277
100
AcDbArc
 50
18.6675229036
 51
61.0449756282
  0
LINE
  5
332
330
1F
100
AcDbEntity
  8
0
  6
SLD-Сплошная
 62
     7
370
    35
100
AcDbLine
 10
-96.9496164904
 20
-1188.9895267327
 30
0.0
 11
-96.2104325626
 21
-1191.1774345128
 31
0.0
  0
ARC
  5
333
330
1F
100
AcDbEntity
  8
0
  6
SLD-Сплошная
 62
     7
370
    35
100
AcDbCircle
 10
-100.0
 20
-1192.4577386319
 30
0.0
 40
4.000000000000162
100
AcDbArc
 50
118.9550243718
 51
138.6675229036
  0
ARC
  5
334
330
1F
100
AcDbEntity
  8
0
  6
SLD-Сплошная
 62
     7
370
    35
100
AcDbCircle
 10
-100.0
 20
-1192.4577386319
 30
0.0
 40
4.000000000000162
100
AcDbArc
 50
138.6675229036
 51
198.6675229036
  0
ARC
  5
335
330
1F
100
AcDbEntity
  8
0
  6
SLD-Сплошная
 62
     7
370
    35
100
AcDbCircle
 10
-100.0
 20
-1192.4577386319
 30
0.0
 40
4.000000000000134
100
AcDbArc
 50
198.6675229036
 51
241.0449756281
  0
SPLINE
  5
336
330
1F
100
AcDbEntity
  8
0
  6
SLD-Сплошная
 62
     7
370
    35
100
AcDbSpline
210
0.0
220
0.0
230
1.0
 70
    24
 71
     3
 72
     9
 73
     5
 74
     0
 42
0.000000001
 43
0.00000001
 40
0.0
 40
0.0
 40
0.0
 40
0.0
 40
0.070185204545439
 40
1.0
 40
1.0
 40
1.0
 40
1.0
 10
-103.78956743742
 20
-1193.738042750932
 30
0.0
 10
-103.8070866289989
 20
-1193.686187760426
 30
0.0
 10
-104.0567003715602
 20
-1192.947356964937
 30
0.0
 10
-104.3013098515728
 20
-1192.223338267701
 30
0.0
 10
-104.5287513651969
 20
-1191.550134970826
 30
0.0
  0
SPLINE
  5
337
330
1F
100
AcDbEntity
  8
0
  6
SLD-Сплошная
 62
     7
370
    35
100
AcDbSpline
210
0.0
220
0.0
230
1.0
 70
    24
 71
     3
 72
     9
 73
     5
 74
     0
 42
0.000000001
 43
0.00000001
 40
0.0
 40
0.0
 40
0.0
 40
0.0
 40
0.1972242043130927
 40
1.0
 40
1.0
 40
1.0
 40
1.0
 10
-104.5287513651969
 20
-1191.550134970826
 30
0.0
 10
-104.4308375446976
 20
-1191.438809337091
 30
0.0
 10
-103.9343780921659
 20
-1190.87434700792
 30
0.0
 10
-103.418052942906
 20
-1190.28729786448
 30
0.0
 10
-103.0035596103757
 20
-1189.816029021249
 30
0.0
  0
LINE
  5
338
330
1F
100
AcDbEntity
  8
0
  6
SLD-Сплошная
 62
     7
370
    35
100
AcDbLine
 10
-103.0503835096
 20
-1195.925950531
 30
0.0
 11
-103.7895674374
 21
-1193.7380427509
 31
0.0
  0
SPLINE
  5
339
330
1F
100
AcDbEntity
  8
0
  6
SLD-Сплошная
 62
     7
370
    35
100
AcDbSpline
210
0.0
220
0.0
230
1.0
 70
    24
 71
     3
 72
     9
 73
     5
 74
     0
 42
0.000000001
 43
0.00000001
 40
0.0
 40
0.0
 40
0.0
 40
0.0
 40
0.3989708934729002
 40
1.0
 40
1.0
 40
1.0
 40
1.0
 10
-103.0035596103757
 20
-1189.816029021249
 30
0.0
 10
-102.8893257217213
 20
-1189.686147866743
 30
0.0
 10
-102.6030043621355
 20
-1189.360607441036
 30
0.0
 10
-102.3238096117026
 20
-1189.043169796697
 30
0.0
 10
-102.1560054403028
 20
-1188.852380532941
 30
0.0
  0
SPLINE
  5
33A
330
1F
100
AcDbEntity
  8
0
  6
SLD-Сплошная
 62
     7
370
    35
100
AcDbSpline
210
0.0
220
0.0
230
1.0
 70
     8
 71
     3
 72
    11
 73
     7
 74
     0
 42
0.000000001
 43
0.00000001
 40
0.0
 40
0.0
 40
0.0
 40
0.0
 40
0.1265852332079949
 40
0.4692135075534956
 40
0.733969120119075
 40
1.0
 40
1.0
 40
1.0
 40
1.0
 10
-97.56539178577839
 20
-1196.051204788604
 30
0.0
 10
-97.46816025480831
 20
-1195.939106599699
 30
0.0
 10
-97.1077521208179
 20
-1195.523592221966
 30
0.0
 10
-96.53330857062636
 20
-1194.871396357668
 30
0.0
 10
-95.85064803099903
 20
-1194.103897672569
 30
0.0
 10
-95.43867784994548
 20
-1193.643834526203
 30
0.0
 10
-95.232197859761
 20
-1193.413250279297
 30
0.0
  0
SPLINE
  5
33B
330
1F
100
AcDbEntity
  8
0
  6
SLD-Сплошная
 62
     7
370
    35
100
AcDbSpline
210
0.0
220
0.0
230
1.0
 70
    24
 71
     3
 72
    12
 73
     8
 74
     0
 42
0.000000001
 43
0.00000001
 40
0.0
 40
0.0
 40
0.0
 40
0.0
 40
0.0086674047360006
 40
0.2676326298826077
 40
0.5286616002507466
 40
0.7638461449004302
 40
1.0
 40
1.0
 40
1.0
 40
1.0
 10
-95.232197859761
 20
-1193.413250279297
 30
0.0
 10
-95.2333145683627
 20
-1193.413026480565
 30
0.0
 10
-95.26779636181637
 20
-1193.406116010229
 30
0.0
 10
-95.33288880688839
 20
-1193.393070882178
 30
0.0
 10
-95.40827518664946
 20
-1193.37796275441
 30
0.0
 10
-95.46058044108108
 20
-1193.367480297637
 30
0.0
 10
-95.46768769819003
 20
-1193.366055937576
 30
0.0
 10
-95.47124863480444
 20
-1193.365342292942
 30
0.0
  0
SPLINE
  5
33C
330
1F
100
AcDbEntity
  8
0
  6
SLD-Сплошная
 62
     7
370
    35
100
AcDbSpline
210
0.0
220
0.0
230
1.0
 70
     8
 71
     3
 72
    10
 73
     6
 74
     0
 42
0.000000001
 43
0.00000001
 40
0.0
 40
0.0
 40
0.0
 40
0.0
 40
0.1309609171392203
 40
0.6570570972498556
 40
1.0
 40
1.0
 40
1.0
 40
1.0
 10
-95.232197859761
 20
-1193.413250279297
 30
0.0
 10
-95.29691749602704
 20
-1193.227217246705
 30
0.0
 10
-95.62162884708452
 20
-1192.293852338628
 30
0.0
 10
-96.12174548672986
 20
-1190.836499687014
 30
0.0
 10
-96.53160860696758
 20
-1189.587718656037
 30
0.0
 10
-96.69335006481067
 20
-1189.094920805965
 30
0.0
  0
SPLINE
  5
33D
330
1F
100
AcDbEntity
  8
0
  6
SLD-Сплошная
 62
     7
370
    35
100
AcDbSpline
210
0.0
220
0.0
230
1.0
 70
     8
 71
     3
 72
    10
 73
     6
 74
     0
 42
0.000000001
 43
0.00000001
 40
0.0
 40
0.0
 40
0.0
 40
0.0
 40
0.1309609171393026
 40
0.6570570972498996
 40
1.0
 40
1.0
 40
1.0
 40
1.0
 10
-104.7678021402401
 20
-1191.502226984471
 30
0.0
 10
-104.703082503974
 20
-1191.688260017063
 30
0.0
 10
-104.3783711529163
 20
-1192.62162492514
 30
0.0
 10
-103.8782545132715
 20
-1194.078977576754
 30
0.0
 10
-103.4683913930339
 20
-1195.327758607731
 30
0.0
 10
-103.3066499351908
 20
-1195.820556457804
 30
0.0
  0
SPLINE
  5
33E
330
1F
100
AcDbEntity
  8
0
  6
SLD-Сплошная
 62
     7
370
    35
100
AcDbSpline
210
0.0
220
0.0
230
1.0
 70
    24
 71
     3
 72
    12
 73
     8
 74
     0
 42
0.000000001
 43
0.00000001
 40
0.0
 40
0.0
 40
0.0
 40
0.0
 40
0.2361538550994861
 40
0.4713383997490284
 40
0.732367370117664
 40
0.9913325952635917
 40
1.0
 40
1.0
 40
1.0
 40
1.0
 10
-104.5287513651969
 20
-1191.550134970826
 30
0.0
 10
-104.5323123018113
 20
-1191.549421326192
 30
0.0
 10
-104.53941955892
 20
-1191.547996966131
 30
0.0
 10
-104.5917248133515
 20
-1191.537514509359
 30
0.0
 10
-104.6671111931132
 20
-1191.522406381589
 30
0.0
 10
-104.7322036381841
 20
-1191.509361253543
 30
0.0
 10
-104.7666854316384
 20
-1191.502450783204
 30
0.0
 10
-104.7678021402401
 20
-1191.502226984471
 30
0.0
  0
SPLINE
  5
33F
330
1F
100
AcDbEntity
  8
0
  6
SLD-Сплошная
 62
     7
370
    35
100
AcDbSpline
210
0.0
220
0.0
230
1.0
 70
     8
 71
     3
 72
     9
 73
     5
 74
     0
 42
0.000000001
 43
0.00000001
 40
0.0
 40
0.0
 40
0.0
 40
0.0
 40
0.4486782902497584
 40
1.0
 40
1.0
 40
1.0
 40
1.0
 10
-102.5234463950365
 20
-1188.962499625457
 30
0.0
 10
-102.8577016686593
 20
-1189.346725998378
 30
0.0
 10
-103.6026792637124
 20
-1190.20307760101
 30
0.0
 10
-104.353731008302
 20
-1191.040524389317
 30
0.0
 10
-104.7678021402401
 20
-1191.502226984471
 30
0.0
  0
ARC
  5
340
330
1F
100
AcDbEntity
  8
0
  6
SLD-Сплошная
 62
     7
370
    35
100
AcDbCircle
 10
-500.0
 20
-1192.4577386319
 30
0.0
 40
4.000000000000305
100
AcDbArc
 50
318.6675229036
 51
18.6675229036
  0
SPLINE
  5
341
330
1F
100
AcDbEntity
  8
0
  6
SLD-Сплошная
 62
     7
370
    35
100
AcDbSpline
210
0.0
220
0.0
230
1.0
 70
    24
 71
     3
 72
     9
 73
     5
 74
     0
 42
0.000000001
 43
0.00000001
 40
0.0
 40
0.0
 40
0.0
 40
0.0
 40
0.7789539221069108
 40
1.0
 40
1.0
 40
1.0
 40
1.0
 10
-495.4712486348043
 20
-1193.365342292942
 30
0.0
 10
-495.8631885112202
 20
-1193.81096840482
 30
0.0
 10
-496.3663503354213
 20
-1194.383051167653
 30
0.0
 10
-496.8823751322016
 20
-1194.969758817624
 30
0.0
 10
-496.9964403896254
 20
-1195.09944824252
 30
0.0
  0
SPLINE
  5
342
330
1F
100
AcDbEntity
  8
0
  6
SLD-Сплошная
 62
     7
370
    35
100
AcDbSpline
210
0.0
220
0.0
230
1.0
 70
    24
 71
     3
 72
     9
 73
     5
 74
     0
 42
0.000000001
 43
0.00000001
 40
0.0
 40
0.0
 40
0.0
 40
0.0
 40
0.0701852045455318
 40
1.0
 40
1.0
 40
1.0
 40
1.0
 10
-496.2104325625809
 20
-1191.177434512836
 30
0.0
 10
-496.192913371002
 20
-1191.229289503342
 30
0.0
 10
-495.943299628442
 20
-1191.968120298832
 30
0.0
 10
-495.6986901484289
 20
-1192.692138996067
 30
0.0
 10
-495.4712486348043
 20
-1193.365342292942
 30
0.0
  0
ARC
  5
343
330
1F
100
AcDbEntity
  8
0
  6
SLD-Сплошная
 62
     7
370
    35
100
AcDbCircle
 10
-500.0
 20
-1192.4577386319
 30
0.0
 40
3.999999999999841
100
AcDbArc
 50
298.9550243719
 51
318.6675229036
  0
LINE
  5
344
330
1F
100
AcDbEntity
  8
0
  6
SLD-Сплошная
 62
     7
370
    35
100
AcDbLine
 10
-496.9964403896
 20
-1195.0994482425
 30
0.0
 11
-497.6499334348
 21
-1195.8424539492
 31
0.0
  0
ARC
  5
345
330
1F
100
AcDbEntity
  8
0
  6
SLD-Сплошная
 62
     7
370
    35
100
AcDbCircle
 10
-500.0
 20
-1192.4577386319
 30
0.0
 40
4.000000000000305
100
AcDbArc
 50
18.6675229036
 51
61.0449756282
  0
LINE
  5
346
330
1F
100
AcDbEntity
  8
0
  6
SLD-Сплошная
 62
     7
370
    35
100
AcDbLine
 10
-496.9496164904
 20
-1188.9895267327
 30
0.0
 11
-496.2104325626
 21
-1191.1774345128
 31
0.0
  0
SPLINE
  5
347
330
1F
100
AcDbEntity
  8
0
  6
SLD-Сплошная
 62
     7
370
    35
100
AcDbSpline
210
0.0
220
0.0
230
1.0
 70
    24
 71
     3
 72
     9
 73
     5
 74
     0
 42
0.000000001
 43
0.00000001
 40
0.0
 40
0.0
 40
0.0
 40
0.0
 40
0.070185204545439
 40
1.0
 40
1.0
 40
1.0
 40
1.0
 10
-503.7895674374199
 20
-1193.738042750932
 30
0.0
 10
-503.8070866289989
 20
-1193.686187760426
 30
0.0
 10
-504.0567003715595
 20
-1192.947356964937
 30
0.0
 10
-504.3013098515723
 20
-1192.223338267701
 30
0.0
 10
-504.5287513651968
 20
-1191.550134970826
 30
0.0
  0
ARC
  5
348
330
1F
100
AcDbEntity
  8
0
  6
SLD-Сплошная
 62
     7
370
    35
100
AcDbCircle
 10
-500.0
 20
-1192.4577386319
 30
0.0
 40
4.000000000000215
100
AcDbArc
 50
138.6675229036
 51
198.6675229036
  0
SPLINE
  5
349
330
1F
100
AcDbEntity
  8
0
  6
SLD-Сплошная
 62
     7
370
    35
100
AcDbSpline
210
0.0
220
0.0
230
1.0
 70
    24
 71
     3
 72
     9
 73
     5
 74
     0
 42
0.000000001
 43
0.00000001
 40
0.0
 40
0.0
 40
0.0
 40
0.0
 40
0.1972242043131003
 40
1.0
 40
1.0
 40
1.0
 40
1.0
 10
-504.5287513651968
 20
-1191.550134970826
 30
0.0
 10
-504.4308375446975
 20
-1191.438809337091
 30
0.0
 10
-503.9343780921659
 20
-1190.87434700792
 30
0.0
 10
-503.418052942906
 20
-1190.28729786448
 30
0.0
 10
-503.0035596103757
 20
-1189.816029021249
 30
0.0
  0
ARC
  5
34A
330
1F
100
AcDbEntity
  8
0
  6
SLD-Сплошная
 62
     7
370
    35
100
AcDbCircle
 10
-500.0
 20
-1192.4577386319
 30
0.0
 40
4.000000000000121
100
AcDbArc
 50
198.6675229036
 51
241.0449756281
  0
LINE
  5
34B
330
1F
100
AcDbEntity
  8
0
  6
SLD-Сплошная
 62
     7
370
    35
100
AcDbLine
 10
-503.0503835096
 20
-1195.925950531
 30
0.0
 11
-503.7895674374
 21
-1193.7380427509
 31
0.0
  0
ARC
  5
34C
330
1F
100
AcDbEntity
  8
0
  6
SLD-Сплошная
 62
     7
370
    35
100
AcDbCircle
 10
-500.0
 20
-1192.4577386319
 30
0.0
 40
4.000000000000215
100
AcDbArc
 50
118.9550243718
 51
138.6675229036
  0
SPLINE
  5
34D
330
1F
100
AcDbEntity
  8
0
  6
SLD-Сплошная
 62
     7
370
    35
100
AcDbSpline
210
0.0
220
0.0
230
1.0
 70
    24
 71
     3
 72
     9
 73
     5
 74
     0
 42
0.000000001
 43
0.00000001
 40
0.0
 40
0.0
 40
0.0
 40
0.0
 40
0.3989708934729062
 40
1.0
 40
1.0
 40
1.0
 40
1.0
 10
-503.0035596103757
 20
-1189.816029021249
 30
0.0
 10
-502.8893257217213
 20
-1189.686147866743
 30
0.0
 10
-502.6030043621354
 20
-1189.360607441036
 30
0.0
 10
-502.3238096117024
 20
-1189.043169796697
 30
0.0
 10
-502.1560054403027
 20
-1188.852380532941
 30
0.0
  0
SPLINE
  5
34E
330
1F
100
AcDbEntity
  8
0
  6
SLD-Сплошная
 62
     7
370
    35
100
AcDbSpline
210
0.0
220
0.0
230
1.0
 70
     8
 71
     3
 72
    11
 73
     7
 74
     0
 42
0.000000001
 43
0.00000001
 40
0.0
 40
0.0
 40
0.0
 40
0.0
 40
0.1265852332080128
 40
0.4692135075535039
 40
0.7339691201190806
 40
1.0
 40
1.0
 40
1.0
 40
1.0
 10
-497.5653917857783
 20
-1196.051204788604
 30
0.0
 10
-497.4681602548083
 20
-1195.939106599699
 30
0.0
 10
-497.1077521208178
 20
-1195.523592221966
 30
0.0
 10
-496.5333085706262
 20
-1194.871396357668
 30
0.0
 10
-495.850648030999
 20
-1194.103897672569
 30
0.0
 10
-495.4386778499454
 20
-1193.643834526203
 30
0.0
 10
-495.2321978597609
 20
-1193.413250279297
 30
0.0
  0
SPLINE
  5
34F
330
1F
100
AcDbEntity
  8
0
  6
SLD-Сплошная
 62
     7
370
    35
100
AcDbSpline
210
0.0
220
0.0
230
1.0
 70
    24
 71
     3
 72
    12
 73
     8
 74
     0
 42
0.000000001
 43
0.00000001
 40
0.0
 40
0.0
 40
0.0
 40
0.0
 40
0.0086674047360312
 40
0.2676326298826148
 40
0.5286616002507587
 40
0.7638461449004313
 40
1.0
 40
1.0
 40
1.0
 40
1.0
 10
-495.2321978597609
 20
-1193.413250279297
 30
0.0
 10
-495.2333145683626
 20
-1193.413026480565
 30
0.0
 10
-495.2677963618163
 20
-1193.406116010229
 30
0.0
 10
-495.3328888068884
 20
-1193.393070882178
 30
0.0
 10
-495.4082751866493
 20
-1193.37796275441
 30
0.0
 10
-495.4605804410809
 20
-1193.367480297637
 30
0.0
 10
-495.4676876981899
 20
-1193.366055937576
 30
0.0
 10
-495.4712486348043
 20
-1193.365342292942
 30
0.0
  0
SPLINE
  5
350
330
1F
100
AcDbEntity
  8
0
  6
SLD-Сплошная
 62
     7
370
    35
100
AcDbSpline
210
0.0
220
0.0
230
1.0
 70
     8
 71
     3
 72
    10
 73
     6
 74
     0
 42
0.000000001
 43
0.00000001
 40
0.0
 40
0.0
 40
0.0
 40
0.0
 40
0.1309609171391972
 40
0.6570570972497424
 40
1.0
 40
1.0
 40
1.0
 40
1.0
 10
-495.2321978597609
 20
-1193.413250279297
 30
0.0
 10
-495.2969174960269
 20
-1193.227217246705
 30
0.0
 10
-495.6216288470844
 20
-1192.293852338628
 30
0.0
 10
-496.1217454867298
 20
-1190.836499687014
 30
0.0
 10
-496.5316086069676
 20
-1189.587718656037
 30
0.0
 10
-496.6933500648108
 20
-1189.094920805964
 30
0.0
  0
SPLINE
  5
351
330
1F
100
AcDbEntity
  8
0
  6
SLD-Сплошная
 62
     7
370
    35
100
AcDbSpline
210
0.0
220
0.0
230
1.0
 70
     8
 71
     3
 72
    10
 73
     6
 74
     0
 42
0.000000001
 43
0.00000001
 40
0.0
 40
0.0
 40
0.0
 40
0.0
 40
0.1309609171393008
 40
0.6570570972498949
 40
1.0
 40
1.0
 40
1.0
 40
1.0
 10
-504.76780214024
 20
-1191.502226984471
 30
0.0
 10
-504.703082503974
 20
-1191.688260017063
 30
0.0
 10
-504.3783711529164
 20
-1192.62162492514
 30
0.0
 10
-503.8782545132714
 20
-1194.078977576754
 30
0.0
 10
-503.4683913930338
 20
-1195.327758607731
 30
0.0
 10
-503.3066499351908
 20
-1195.820556457804
 30
0.0
  0
SPLINE
  5
352
330
1F
100
AcDbEntity
  8
0
  6
SLD-Сплошная
 62
     7
370
    35
100
AcDbSpline
210
0.0
220
0.0
230
1.0
 70
    24
 71
     3
 72
    12
 73
     8
 74
     0
 42
0.000000001
 43
0.00000001
 40
0.0
 40
0.0
 40
0.0
 40
0.0
 40
0.236153855099488
 40
0.4713383997490636
 40
0.7323673701176314
 40
0.9913325952635613
 40
1.0
 40
1.0
 40
1.0
 40
1.0
 10
-504.5287513651968
 20
-1191.550134970826
 30
0.0
 10
-504.5323123018111
 20
-1191.549421326192
 30
0.0
 10
-504.5394195589199
 20
-1191.547996966131
 30
0.0
 10
-504.5917248133516
 20
-1191.537514509359
 30
0.0
 10
-504.6671111931126
 20
-1191.522406381589
 30
0.0
 10
-504.7322036381851
 20
-1191.509361253543
 30
0.0
 10
-504.7666854316383
 20
-1191.502450783204
 30
0.0
 10
-504.76780214024
 20
-1191.502226984471
 30
0.0
  0
SPLINE
  5
353
330
1F
100
AcDbEntity
  8
0
  6
SLD-Сплошная
 62
     7
370
    35
100
AcDbSpline
210
0.0
220
0.0
230
1.0
 70
     8
 71
     3
 72
     9
 73
     5
 74
     0
 42
0.000000001
 43
0.00000001
 40
0.0
 40
0.0
 40
0.0
 40
0.0
 40
0.4486782902497637
 40
1.0
 40
1.0
 40
1.0
 40
1.0
 10
-502.5234463950364
 20
-1188.962499625457
 30
0.0
 10
-502.8577016686592
 20
-1189.346725998378
 30
0.0
 10
-503.6026792637124
 20
-1190.20307760101
 30
0.0
 10
-504.353731008302
 20
-1191.040524389317
 30
0.0
 10
-504.76780214024
 20
-1191.502226984471
 30
0.0
  0
ARC
  5
354
330
1F
100
AcDbEntity
  8
0
  6
SLD-Сплошная
 62
     7
370
    35
100
AcDbCircle
 10
-300.0
 20
-1192.4577386319
 30
0.0
 40
4.000000000000305
100
AcDbArc
 50
318.6675229036
 51
18.6675229036
  0
SPLINE
  5
355
330
1F
100
AcDbEntity
  8
0
  6
SLD-Сплошная
 62
     7
370
    35
100
AcDbSpline
210
0.0
220
0.0
230
1.0
 70
    24
 71
     3
 72
     9
 73
     5
 74
     0
 42
0.000000001
 43
0.00000001
 40
0.0
 40
0.0
 40
0.0
 40
0.0
 40
0.7789539221069108
 40
1.0
 40
1.0
 40
1.0
 40
1.0
 10
-295.4712486348043
 20
-1193.365342292942
 30
0.0
 10
-295.8631885112202
 20
-1193.81096840482
 30
0.0
 10
-296.3663503354212
 20
-1194.383051167653
 30
0.0
 10
-296.8823751322016
 20
-1194.969758817624
 30
0.0
 10
-296.9964403896255
 20
-1195.09944824252
 30
0.0
  0
SPLINE
  5
356
330
1F
100
AcDbEntity
  8
0
  6
SLD-Сплошная
 62
     7
370
    35
100
AcDbSpline
210
0.0
220
0.0
230
1.0
 70
    24
 71
     3
 72
     9
 73
     5
 74
     0
 42
0.000000001
 43
0.00000001
 40
0.0
 40
0.0
 40
0.0
 40
0.0
 40
0.0701852045455318
 40
1.0
 40
1.0
 40
1.0
 40
1.0
 10
-296.210432562581
 20
-1191.177434512836
 30
0.0
 10
-296.1929133710021
 20
-1191.229289503342
 30
0.0
 10
-295.943299628442
 20
-1191.968120298832
 30
0.0
 10
-295.6986901484289
 20
-1192.692138996067
 30
0.0
 10
-295.4712486348043
 20
-1193.365342292942
 30
0.0
  0
LINE
  5
357
330
1F
100
AcDbEntity
  8
0
  6
SLD-Сплошная
 62
     7
370
    35
100
AcDbLine
 10
-296.9964403896
 20
-1195.0994482425
 30
0.0
 11
-297.7513293429
 21
-1195.9577386319
 31
0.0
  0
ARC
  5
358
330
1F
100
AcDbEntity
  8
0
  6
SLD-Сплошная
 62
     7
370
    35
100
AcDbCircle
 10
-300.0
 20
-1192.4577386319
 30
0.0
 40
3.999999999999841
100
AcDbArc
 50
298.9550243719
 51
318.6675229036
  0
ARC
  5
359
330
1F
100
AcDbEntity
  8
0
  6
SLD-Сплошная
 62
     7
370
    35
100
AcDbCircle
 10
-300.0
 20
-1192.4577386319
 30
0.0
 40
4.000000000000305
100
AcDbArc
 50
18.6675229036
 51
61.0449756282
  0
LINE
  5
35A
330
1F
100
AcDbEntity
  8
0
  6
SLD-Сплошная
 62
     7
370
    35
100
AcDbLine
 10
-296.9496164904
 20
-1188.9895267327
 30
0.0
 11
-296.2104325626
 21
-1191.1774345128
 31
0.0
  0
SPLINE
  5
35B
330
1F
100
AcDbEntity
  8
0
  6
SLD-Сплошная
 62
     7
370
    35
100
AcDbSpline
210
0.0
220
0.0
230
1.0
 70
    24
 71
     3
 72
     9
 73
     5
 74
     0
 42
0.000000001
 43
0.00000001
 40
0.0
 40
0.0
 40
0.0
 40
0.0
 40
0.070185204545439
 40
1.0
 40
1.0
 40
1.0
 40
1.0
 10
-303.7895674374199
 20
-1193.738042750932
 30
0.0
 10
-303.8070866289989
 20
-1193.686187760426
 30
0.0
 10
-304.0567003715597
 20
-1192.947356964937
 30
0.0
 10
-304.3013098515726
 20
-1192.223338267701
 30
0.0
 10
-304.5287513651968
 20
-1191.550134970826
 30
0.0
  0
ARC
  5
35C
330
1F
100
AcDbEntity
  8
0
  6
SLD-Сплошная
 62
     7
370
    35
100
AcDbCircle
 10
-300.0
 20
-1192.4577386319
 30
0.0
 40
4.00000000000013
100
AcDbArc
 50
138.6675229036
 51
198.6675229036
  0
SPLINE
  5
35D
330
1F
100
AcDbEntity
  8
0
  6
SLD-Сплошная
 62
     7
370
    35
100
AcDbSpline
210
0.0
220
0.0
230
1.0
 70
    24
 71
     3
 72
     9
 73
     5
 74
     0
 42
0.000000001
 43
0.00000001
 40
0.0
 40
0.0
 40
0.0
 40
0.0
 40
0.1972242043131003
 40
1.0
 40
1.0
 40
1.0
 40
1.0
 10
-304.5287513651968
 20
-1191.550134970826
 30
0.0
 10
-304.4308375446976
 20
-1191.438809337091
 30
0.0
 10
-303.9343780921658
 20
-1190.87434700792
 30
0.0
 10
-303.4180529429059
 20
-1190.28729786448
 30
0.0
 10
-303.0035596103756
 20
-1189.816029021249
 30
0.0
  0
ARC
  5
35E
330
1F
100
AcDbEntity
  8
0
  6
SLD-Сплошная
 62
     7
370
    35
100
AcDbCircle
 10
-300.0
 20
-1192.4577386319
 30
0.0
 40
4.00000000000013
100
AcDbArc
 50
118.9550243718
 51
138.6675229036
  0
SPLINE
  5
35F
330
1F
100
AcDbEntity
  8
0
  6
SLD-Сплошная
 62
     7
370
    35
100
AcDbSpline
210
0.0
220
0.0
230
1.0
 70
    24
 71
     3
 72
     9
 73
     5
 74
     0
 42
0.000000001
 43
0.00000001
 40
0.0
 40
0.0
 40
0.0
 40
0.0
 40
0.3989708934729062
 40
1.0
 40
1.0
 40
1.0
 40
1.0
 10
-303.0035596103756
 20
-1189.816029021249
 30
0.0
 10
-302.8893257217213
 20
-1189.686147866743
 30
0.0
 10
-302.6030043621354
 20
-1189.360607441036
 30
0.0
 10
-302.3238096117025
 20
-1189.043169796697
 30
0.0
 10
-302.1560054403027
 20
-1188.852380532941
 30
0.0
  0
ARC
  5
360
330
1F
100
AcDbEntity
  8
0
  6
SLD-Сплошная
 62
     7
370
    35
100
AcDbCircle
 10
-300.0
 20
-1192.4577386319
 30
0.0
 40
4.000000000000121
100
AcDbArc
 50
198.6675229036
 51
241.0449756281
  0
LINE
  5
361
330
1F
100
AcDbEntity
  8
0
  6
SLD-Сплошная
 62
     7
370
    35
100
AcDbLine
 10
-303.0503835096
 20
-1195.925950531
 30
0.0
 11
-303.7895674374
 21
-1193.7380427509
 31
0.0
  0
SPLINE
  5
362
330
1F
100
AcDbEntity
  8
0
  6
SLD-Сплошная
 62
     7
370
    35
100
AcDbSpline
210
0.0
220
0.0
230
1.0
 70
     8
 71
     3
 72
    11
 73
     7
 74
     0
 42
0.000000001
 43
0.00000001
 40
0.0
 40
0.0
 40
0.0
 40
0.0
 40
0.1265852332080045
 40
0.4692135075534988
 40
0.7339691201190779
 40
1.0
 40
1.0
 40
1.0
 40
1.0
 10
-297.5653917857783
 20
-1196.051204788604
 30
0.0
 10
-297.4681602548084
 20
-1195.939106599699
 30
0.0
 10
-297.1077521208179
 20
-1195.523592221966
 30
0.0
 10
-296.5333085706262
 20
-1194.871396357668
 30
0.0
 10
-295.850648030999
 20
-1194.103897672569
 30
0.0
 10
-295.4386778499454
 20
-1193.643834526203
 30
0.0
 10
-295.232197859761
 20
-1193.413250279297
 30
0.0
  0
SPLINE
  5
363
330
1F
100
AcDbEntity
  8
0
  6
SLD-Сплошная
 62
     7
370
    35
100
AcDbSpline
210
0.0
220
0.0
230
1.0
 70
    24
 71
     3
 72
    12
 73
     8
 74
     0
 42
0.000000001
 43
0.00000001
 40
0.0
 40
0.0
 40
0.0
 40
0.0
 40
0.0086674047360312
 40
0.2676326298826148
 40
0.5286616002507587
 40
0.7638461449004313
 40
1.0
 40
1.0
 40
1.0
 40
1.0
 10
-295.232197859761
 20
-1193.413250279297
 30
0.0
 10
-295.2333145683627
 20
-1193.413026480565
 30
0.0
 10
-295.2677963618162
 20
-1193.406116010229
 30
0.0
 10
-295.3328888068884
 20
-1193.393070882178
 30
0.0
 10
-295.4082751866493
 20
-1193.37796275441
 30
0.0
 10
-295.4605804410811
 20
-1193.367480297637
 30
0.0
 10
-295.4676876981899
 20
-1193.366055937576
 30
0.0
 10
-295.4712486348043
 20
-1193.365342292942
 30
0.0
  0
SPLINE
  5
364
330
1F
100
AcDbEntity
  8
0
  6
SLD-Сплошная
 62
     7
370
    35
100
AcDbSpline
210
0.0
220
0.0
230
1.0
 70
     8
 71
     3
 72
    10
 73
     6
 74
     0
 42
0.000000001
 43
0.00000001
 40
0.0
 40
0.0
 40
0.0
 40
0.0
 40
0.13096091713922
 40
0.6570570972498568
 40
1.0
 40
1.0
 40
1.0
 40
1.0
 10
-295.232197859761
 20
-1193.413250279297
 30
0.0
 10
-295.296917496027
 20
-1193.227217246705
 30
0.0
 10
-295.6216288470845
 20
-1192.293852338628
 30
0.0
 10
-296.1217454867298
 20
-1190.836499687014
 30
0.0
 10
-296.5316086069675
 20
-1189.587718656037
 30
0.0
 10
-296.6933500648105
 20
-1189.094920805965
 30
0.0
  0
SPLINE
  5
365
330
1F
100
AcDbEntity
  8
0
  6
SLD-Сплошная
 62
     7
370
    35
100
AcDbSpline
210
0.0
220
0.0
230
1.0
 70
     8
 71
     3
 72
    10
 73
     6
 74
     0
 42
0.000000001
 43
0.00000001
 40
0.0
 40
0.0
 40
0.0
 40
0.0
 40
0.1309609171393012
 40
0.6570570972498968
 40
1.0
 40
1.0
 40
1.0
 40
1.0
 10
-304.7678021402401
 20
-1191.502226984471
 30
0.0
 10
-304.703082503974
 20
-1191.688260017063
 30
0.0
 10
-304.3783711529164
 20
-1192.62162492514
 30
0.0
 10
-303.8782545132714
 20
-1194.078977576754
 30
0.0
 10
-303.4683913930338
 20
-1195.327758607731
 30
0.0
 10
-303.3066499351908
 20
-1195.820556457804
 30
0.0
  0
SPLINE
  5
366
330
1F
100
AcDbEntity
  8
0
  6
SLD-Сплошная
 62
     7
370
    35
100
AcDbSpline
210
0.0
220
0.0
230
1.0
 70
    24
 71
     3
 72
    12
 73
     8
 74
     0
 42
0.000000001
 43
0.00000001
 40
0.0
 40
0.0
 40
0.0
 40
0.0
 40
0.236153855099488
 40
0.4713383997490636
 40
0.7323673701176314
 40
0.9913325952635613
 40
1.0
 40
1.0
 40
1.0
 40
1.0
 10
-304.5287513651968
 20
-1191.550134970826
 30
0.0
 10
-304.5323123018111
 20
-1191.549421326192
 30
0.0
 10
-304.5394195589199
 20
-1191.547996966131
 30
0.0
 10
-304.5917248133516
 20
-1191.537514509359
 30
0.0
 10
-304.6671111931128
 20
-1191.522406381589
 30
0.0
 10
-304.732203638185
 20
-1191.509361253543
 30
0.0
 10
-304.7666854316383
 20
-1191.502450783204
 30
0.0
 10
-304.7678021402401
 20
-1191.502226984471
 30
0.0
  0
SPLINE
  5
367
330
1F
100
AcDbEntity
  8
0
  6
SLD-Сплошная
 62
     7
370
    35
100
AcDbSpline
210
0.0
220
0.0
230
1.0
 70
     8
 71
     3
 72
     9
 73
     5
 74
     0
 42
0.000000001
 43
0.00000001
 40
0.0
 40
0.0
 40
0.0
 40
0.0
 40
0.4486782902497574
 40
1.0
 40
1.0
 40
1.0
 40
1.0
 10
-302.5234463950365
 20
-1188.962499625457
 30
0.0
 10
-302.8577016686593
 20
-1189.346725998378
 30
0.0
 10
-303.6026792637124
 20
-1190.20307760101
 30
0.0
 10
-304.353731008302
 20
-1191.040524389317
 30
0.0
 10
-304.7678021402401
 20
-1191.502226984471
 30
0.0
  0
LINE
  5
368
330
1F
100
AcDbEntity
  8
0
  6
SLD-Сплошная
 62
     7
370
    35
100
AcDbLine
 10
103.0035596104
 20
-1195.0994482425
 30
0.0
 11
102.2486706571
 21
-1195.9577386319
 31
0.0
  0
ARC
  5
369
330
1F
100
AcDbEntity
  8
0
  6
SLD-Сплошная
 62
     7
370
    35
100
AcDbCircle
 10
100.0
 20
-1192.4577386319
 30
0.0
 40
3.999999999999827
100
AcDbArc
 50
298.9550243719
 51
318.6675229036
  0
ARC
  5
36A
330
1F
100
AcDbEntity
  8
0
  6
SLD-Сплошная
 62
     7
370
    35
100
AcDbCircle
 10
100.0
 20
-1192.4577386319
 30
0.0
 40
4.000000000000224
100
AcDbArc
 50
318.6675229036
 51
18.6675229036
  0
SPLINE
  5
36B
330
1F
100
AcDbEntity
  8
0
  6
SLD-Сплошная
 62
     7
370
    35
100
AcDbSpline
210
0.0
220
0.0
230
1.0
 70
    24
 71
     3
 72
     9
 73
     5
 74
     0
 42
0.000000001
 43
0.00000001
 40
0.0
 40
0.0
 40
0.0
 40
0.0
 40
0.7789539221069025
 40
1.0
 40
1.0
 40
1.0
 40
1.0
 10
104.5287513651957
 20
-1193.365342292942
 30
0.0
 10
104.13681148878
 20
-1193.81096840482
 30
0.0
 10
103.6336496645789
 20
-1194.383051167653
 30
0.0
 10
103.1176248677983
 20
-1194.969758817624
 30
0.0
 10
103.0035596103745
 20
-1195.09944824252
 30
0.0
  0
SPLINE
  5
36C
330
1F
100
AcDbEntity
  8
0
  6
SLD-Сплошная
 62
     7
370
    35
100
AcDbSpline
210
0.0
220
0.0
230
1.0
 70
    24
 71
     3
 72
     9
 73
     5
 74
     0
 42
0.000000001
 43
0.00000001
 40
0.0
 40
0.0
 40
0.0
 40
0.0
 40
0.070185204545533
 40
1.0
 40
1.0
 40
1.0
 40
1.0
 10
103.789567437419
 20
-1191.177434512836
 30
0.0
 10
103.807086628998
 20
-1191.229289503342
 30
0.0
 10
104.0567003715576
 20
-1191.968120298832
 30
0.0
 10
104.3013098515708
 20
-1192.692138996067
 30
0.0
 10
104.5287513651957
 20
-1193.365342292942
 30
0.0
  0
ARC
  5
36D
330
1F
100
AcDbEntity
  8
0
  6
SLD-Сплошная
 62
     7
370
    35
100
AcDbCircle
 10
100.0
 20
-1192.4577386319
 30
0.0
 40
4.000000000000224
100
AcDbArc
 50
18.6675229036
 51
61.0449756282
  0
LINE
  5
36E
330
1F
100
AcDbEntity
  8
0
  6
SLD-Сплошная
 62
     7
370
    35
100
AcDbLine
 10
103.0503835096
 20
-1188.9895267327
 30
0.0
 11
103.7895674374
 21
-1191.1774345128
 31
0.0
  0
ARC
  5
36F
330
1F
100
AcDbEntity
  8
0
  6
SLD-Сплошная
 62
     7
370
    35
100
AcDbCircle
 10
100.0
 20
-1192.4577386319
 30
0.0
 40
4.000000000000162
100
AcDbArc
 50
118.9550243718
 51
138.6675229036
  0
ARC
  5
370
330
1F
100
AcDbEntity
  8
0
  6
SLD-Сплошная
 62
     7
370
    35
100
AcDbCircle
 10
100.0
 20
-1192.4577386319
 30
0.0
 40
4.000000000000162
100
AcDbArc
 50
138.6675229036
 51
198.6675229036
  0
ARC
  5
371
330
1F
100
AcDbEntity
  8
0
  6
SLD-Сплошная
 62
     7
370
    35
100
AcDbCircle
 10
100.0
 20
-1192.4577386319
 30
0.0
 40
4.000000000000134
100
AcDbArc
 50
198.6675229036
 51
241.0449756281
  0
LINE
  5
372
330
1F
100
AcDbEntity
  8
0
  6
SLD-Сплошная
 62
     7
370
    35
100
AcDbLine
 10
96.9496164904
 20
-1195.925950531
 30
0.0
 11
96.2104325626
 21
-1193.7380427509
 31
0.0
  0
SPLINE
  5
373
330
1F
100
AcDbEntity
  8
0
  6
SLD-Сплошная
 62
     7
370
    35
100
AcDbSpline
210
0.0
220
0.0
230
1.0
 70
    24
 71
     3
 72
     9
 73
     5
 74
     0
 42
0.000000001
 43
0.00000001
 40
0.0
 40
0.0
 40
0.0
 40
0.0
 40
0.070185204545439
 40
1.0
 40
1.0
 40
1.0
 40
1.0
 10
96.21043256258011
 20
-1193.738042750932
 30
0.0
 10
96.19291337100111
 20
-1193.686187760426
 30
0.0
 10
95.94329962843968
 20
-1192.947356964937
 30
0.0
 10
95.69869014842719
 20
-1192.223338267701
 30
0.0
 10
95.47124863480322
 20
-1191.550134970826
 30
0.0
  0
SPLINE
  5
374
330
1F
100
AcDbEntity
  8
0
  6
SLD-Сплошная
 62
     7
370
    35
100
AcDbSpline
210
0.0
220
0.0
230
1.0
 70
    24
 71
     3
 72
     9
 73
     5
 74
     0
 42
0.000000001
 43
0.00000001
 40
0.0
 40
0.0
 40
0.0
 40
0.0
 40
0.1972242043130927
 40
1.0
 40
1.0
 40
1.0
 40
1.0
 10
95.47124863480322
 20
-1191.550134970826
 30
0.0
 10
95.5691624553025
 20
-1191.438809337091
 30
0.0
 10
96.06562190783396
 20
-1190.87434700792
 30
0.0
 10
96.58194705709417
 20
-1190.28729786448
 30
0.0
 10
96.99644038962441
 20
-1189.816029021249
 30
0.0
  0
SPLINE
  5
375
330
1F
100
AcDbEntity
  8
0
  6
SLD-Сплошная
 62
     7
370
    35
100
AcDbSpline
210
0.0
220
0.0
230
1.0
 70
    24
 71
     3
 72
     9
 73
     5
 74
     0
 42
0.000000001
 43
0.00000001
 40
0.0
 40
0.0
 40
0.0
 40
0.0
 40
0.3989708934729002
 40
1.0
 40
1.0
 40
1.0
 40
1.0
 10
96.99644038962435
 20
-1189.816029021249
 30
0.0
 10
97.1106742782788
 20
-1189.686147866743
 30
0.0
 10
97.39699563786452
 20
-1189.360607441036
 30
0.0
 10
97.67619038829744
 20
-1189.043169796697
 30
0.0
 10
97.84399455969728
 20
-1188.852380532941
 30
0.0
  0
SPLINE
  5
376
330
1F
100
AcDbEntity
  8
0
  6
SLD-Сплошная
 62
     7
370
    35
100
AcDbSpline
210
0.0
220
0.0
230
1.0
 70
     8
 71
     3
 72
    11
 73
     7
 74
     0
 42
0.000000001
 43
0.00000001
 40
0.0
 40
0.0
 40
0.0
 40
0.0
 40
0.1265852332079885
 40
0.4692135075534917
 40
0.7339691201190731
 40
1.0
 40
1.0
 40
1.0
 40
1.0
 10
102.4346082142217
 20
-1196.051204788604
 30
0.0
 10
102.5318397451917
 20
-1195.939106599699
 30
0.0
 10
102.892247879182
 20
-1195.523592221966
 30
0.0
 10
103.4666914293742
 20
-1194.871396357668
 30
0.0
 10
104.1493519690009
 20
-1194.103897672569
 30
0.0
 10
104.5613221500545
 20
-1193.643834526203
 30
0.0
 10
104.7678021402391
 20
-1193.413250279297
 30
0.0
  0
SPLINE
  5
377
330
1F
100
AcDbEntity
  8
0
  6
SLD-Сплошная
 62
     7
370
    35
100
AcDbSpline
210
0.0
220
0.0
230
1.0
 70
    24
 71
     3
 72
    12
 73
     8
 74
     0
 42
0.000000001
 43
0.00000001
 40
0.0
 40
0.0
 40
0.0
 40
0.0
 40
0.0086674047360016
 40
0.267632629882524
 40
0.5286616002506926
 40
0.7638461449004033
 40
1.0
 40
1.0
 40
1.0
 40
1.0
 10
104.7678021402391
 20
-1193.413250279297
 30
0.0
 10
104.7666854316374
 20
-1193.413026480565
 30
0.0
 10
104.7322036381838
 20
-1193.406116010229
 30
0.0
 10
104.6671111931117
 20
-1193.393070882178
 30
0.0
 10
104.5917248133507
 20
-1193.37796275441
 30
0.0
 10
104.5394195589191
 20
-1193.367480297637
 30
0.0
 10
104.5323123018102
 20
-1193.366055937576
 30
0.0
 10
104.5287513651957
 20
-1193.365342292942
 30
0.0
  0
SPLINE
  5
378
330
1F
100
AcDbEntity
  8
0
  6
SLD-Сплошная
 62
     7
370
    35
100
AcDbSpline
210
0.0
220
0.0
230
1.0
 70
     8
 71
     3
 72
    10
 73
     6
 74
     0
 42
0.000000001
 43
0.00000001
 40
0.0
 40
0.0
 40
0.0
 40
0.0
 40
0.1318317034404784
 40
0.6614260061726865
 40
1.0
 40
1.0
 40
1.0
 40
1.0
 10
104.7678021402391
 20
-1193.413250279297
 30
0.0
 10
104.7030831585366
 20
-1193.227217715077
 30
0.0
 10
104.3783750915559
 20
-1192.293855156914
 30
0.0
 10
103.881492097851
 20
-1190.846078816018
 30
0.0
 10
103.4747096199333
 20
-1189.606764614345
 30
0.0
 10
103.3160699083553
 20
-1189.123448694459
 30
0.0
  0
SPLINE
  5
379
330
1F
100
AcDbEntity
  8
0
  6
SLD-Сплошная
 62
     7
370
    35
100
AcDbSpline
210
0.0
220
0.0
230
1.0
 70
     8
 71
     3
 72
    10
 73
     6
 74
     0
 42
0.000000001
 43
0.00000001
 40
0.0
 40
0.0
 40
0.0
 40
0.0
 40
0.1318317034405687
 40
0.6614260061727525
 40
1.0
 40
1.0
 40
1.0
 40
1.0
 10
95.23219785975995
 20
-1191.502226984471
 30
0.0
 10
95.2969168414624
 20
-1191.688259548692
 30
0.0
 10
95.62162490844311
 20
-1192.621622106854
 30
0.0
 10
96.11850790214777
 20
-1194.06939844775
 30
0.0
 10
96.5252903800653
 20
-1195.308712649424
 30
0.0
 10
96.68393009164328
 20
-1195.79202856931
 30
0.0
  0
SPLINE
  5
37A
330
1F
100
AcDbEntity
  8
0
  6
SLD-Сплошная
 62
     7
370
    35
100
AcDbSpline
210
0.0
220
0.0
230
1.0
 70
    24
 71
     3
 72
    12
 73
     8
 74
     0
 42
0.000000001
 43
0.00000001
 40
0.0
 40
0.0
 40
0.0
 40
0.0
 40
0.2361538550994861
 40
0.4713383997490284
 40
0.732367370117664
 40
0.9913325952635917
 40
1.0
 40
1.0
 40
1.0
 40
1.0
 10
95.47124863480322
 20
-1191.550134970826
 30
0.0
 10
95.46768769818887
 20
-1191.549421326192
 30
0.0
 10
95.46058044108008
 20
-1191.547996966131
 30
0.0
 10
95.40827518664857
 20
-1191.537514509359
 30
0.0
 10
95.33288880688644
 20
-1191.522406381589
 30
0.0
 10
95.26779636181665
 20
-1191.509361253543
 30
0.0
 10
95.23331456836159
 20
-1191.502450783204
 30
0.0
 10
95.23219785975995
 20
-1191.502226984471
 30
0.0
  0
SPLINE
  5
37B
330
1F
100
AcDbEntity
  8
0
  6
SLD-Сплошная
 62
     7
370
    35
100
AcDbSpline
210
0.0
220
0.0
230
1.0
 70
     8
 71
     3
 72
     9
 73
     5
 74
     0
 42
0.000000001
 43
0.00000001
 40
0.0
 40
0.0
 40
0.0
 40
0.0
 40
0.4488738627708615
 40
0.9999999999999999
 40
0.9999999999999999
 40
0.9999999999999999
 40
0.9999999999999999
 10
97.47734765991967
 20
-1188.961590981119
 30
0.0
 10
97.14282820149018
 20
-1189.346121792212
 30
0.0
 10
96.39758663994213
 20
-1190.202778512476
 30
0.0
 10
95.64626877338617
 20
-1191.040523709856
 30
0.0
 10
95.23219785975995
 20
-1191.502226984471
 30
0.0
  0
ARC
  5
37C
330
1F
100
AcDbEntity
  8
0
  6
SLD-Сплошная
 62
     7
370
    35
100
AcDbCircle
 10
300.0
 20
-1192.4577386319
 30
0.0
 40
3.999999999999869
100
AcDbArc
 50
298.9550243719
 51
318.6675229036
  0
LINE
  5
37D
330
1F
100
AcDbEntity
  8
0
  6
SLD-Сплошная
 62
     7
370
    35
100
AcDbLine
 10
303.0035596104
 20
-1195.0994482425
 30
0.0
 11
302.3510651804
 21
-1195.841318548
 31
0.0
  0
ARC
  5
37E
330
1F
100
AcDbEntity
  8
0
  6
SLD-Сплошная
 62
     7
370
    35
100
AcDbCircle
 10
300.0
 20
-1192.4577386319
 30
0.0
 40
4.000000000000196
100
AcDbArc
 50
318.6675229036
 51
18.6675229036
  0
SPLINE
  5
37F
330
1F
100
AcDbEntity
  8
0
  6
SLD-Сплошная
 62
     7
370
    35
100
AcDbSpline
210
0.0
220
0.0
230
1.0
 70
    24
 71
     3
 72
     9
 73
     5
 74
     0
 42
0.000000001
 43
0.00000001
 40
0.0
 40
0.0
 40
0.0
 40
0.0
 40
0.070185204545533
 40
1.0
 40
1.0
 40
1.0
 40
1.0
 10
303.7895674374189
 20
-1191.177434512836
 30
0.0
 10
303.8070866289979
 20
-1191.229289503342
 30
0.0
 10
304.0567003715576
 20
-1191.968120298832
 30
0.0
 10
304.3013098515707
 20
-1192.692138996067
 30
0.0
 10
304.5287513651957
 20
-1193.365342292942
 30
0.0
  0
SPLINE
  5
380
330
1F
100
AcDbEntity
  8
0
  6
SLD-Сплошная
 62
     7
370
    35
100
AcDbSpline
210
0.0
220
0.0
230
1.0
 70
    24
 71
     3
 72
     9
 73
     5
 74
     0
 42
0.000000001
 43
0.00000001
 40
0.0
 40
0.0
 40
0.0
 40
0.0
 40
0.7789539221069302
 40
1.0
 40
1.0
 40
1.0
 40
1.0
 10
304.5287513651957
 20
-1193.365342292942
 30
0.0
 10
304.1368114887798
 20
-1193.81096840482
 30
0.0
 10
303.6336496645787
 20
-1194.383051167653
 30
0.0
 10
303.1176248677983
 20
-1194.969758817624
 30
0.0
 10
303.0035596103745
 20
-1195.09944824252
 30
0.0
  0
ARC
  5
381
330
1F
100
AcDbEntity
  8
0
  6
SLD-Сплошная
 62
     7
370
    35
100
AcDbCircle
 10
300.0
 20
-1192.4577386319
 30
0.0
 40
4.000000000000196
100
AcDbArc
 50
18.6675229036
 51
61.0449756282
  0
LINE
  5
382
330
1F
100
AcDbEntity
  8
0
  6
SLD-Сплошная
 62
     7
370
    35
100
AcDbLine
 10
303.0503835096
 20
-1188.9895267327
 30
0.0
 11
303.7895674374
 21
-1191.1774345128
 31
0.0
  0
ARC
  5
383
330
1F
100
AcDbEntity
  8
0
  6
SLD-Сплошная
 62
     7
370
    35
100
AcDbCircle
 10
300.0
 20
-1192.4577386319
 30
0.0
 40
4.000000000000215
100
AcDbArc
 50
118.9550243718
 51
138.6675229036
  0
SPLINE
  5
384
330
1F
100
AcDbEntity
  8
0
  6
SLD-Сплошная
 62
     7
370
    35
100
AcDbSpline
210
0.0
220
0.0
230
1.0
 70
    24
 71
     3
 72
     9
 73
     5
 74
     0
 42
0.000000001
 43
0.00000001
 40
0.0
 40
0.0
 40
0.0
 40
0.0
 40
0.5192897231497191
 40
1.0
 40
1.0
 40
1.0
 40
1.0
 10
296.9964403896242
 20
-1189.816029021249
 30
0.0
 10
297.1107883128406
 20
-1189.686018212218
 30
0.0
 10
297.3309889409657
 20
-1189.435655450863
 30
0.0
 10
297.5457141870554
 20
-1189.191518065783
 30
0.0
 10
297.6489348195498
 20
-1189.074158715811
 30
0.0
  0
ARC
  5
385
330
1F
100
AcDbEntity
  8
0
  6
SLD-Сплошная
 62
     7
370
    35
100
AcDbCircle
 10
300.0
 20
-1192.4577386319
 30
0.0
 40
4.000000000000215
100
AcDbArc
 50
138.6675229036
 51
198.6675229036
  0
ARC
  5
386
330
1F
100
AcDbEntity
  8
0
  6
SLD-Сплошная
 62
     7
370
    35
100
AcDbCircle
 10
300.0
 20
-1192.4577386319
 30
0.0
 40
4.000000000000121
100
AcDbArc
 50
198.6675229036
 51
241.0449756281
  0
SPLINE
  5
387
330
1F
100
AcDbEntity
  8
0
  6
SLD-Сплошная
 62
     7
370
    35
100
AcDbSpline
210
0.0
220
0.0
230
1.0
 70
    24
 71
     3
 72
     9
 73
     5
 74
     0
 42
0.000000001
 43
0.00000001
 40
0.0
 40
0.0
 40
0.0
 40
0.0
 40
0.0701852045454309
 40
1.0
 40
1.0
 40
1.0
 40
1.0
 10
296.2104325625801
 20
-1193.738042750932
 30
0.0
 10
296.1929133710012
 20
-1193.686187760426
 30
0.0
 10
295.9432996284402
 20
-1192.947356964937
 30
0.0
 10
295.6986901484273
 20
-1192.223338267701
 30
0.0
 10
295.4712486348031
 20
-1191.550134970826
 30
0.0
  0
SPLINE
  5
388
330
1F
100
AcDbEntity
  8
0
  6
SLD-Сплошная
 62
     7
370
    35
100
AcDbSpline
210
0.0
220
0.0
230
1.0
 70
    24
 71
     3
 72
     9
 73
     5
 74
     0
 42
0.000000001
 43
0.00000001
 40
0.0
 40
0.0
 40
0.0
 40
0.0
 40
0.1972242043131079
 40
1.0
 40
1.0
 40
1.0
 40
1.0
 10
295.4712486348031
 20
-1191.550134970826
 30
0.0
 10
295.5691624553024
 20
-1191.438809337091
 30
0.0
 10
296.065621907834
 20
-1190.87434700792
 30
0.0
 10
296.5819470570941
 20
-1190.28729786448
 30
0.0
 10
296.9964403896242
 20
-1189.816029021249
 30
0.0
  0
LINE
  5
389
330
1F
100
AcDbEntity
  8
0
  6
SLD-Сплошная
 62
     7
370
    35
100
AcDbLine
 10
296.9496164904
 20
-1195.925950531
 30
0.0
 11
296.2104325626
 21
-1193.7380427509
 31
0.0
  0
SPLINE
  5
38A
330
1F
100
AcDbEntity
  8
0
  6
SLD-Сплошная
 62
     7
370
    35
100
AcDbSpline
210
0.0
220
0.0
230
1.0
 70
     8
 71
     3
 72
    11
 73
     7
 74
     0
 42
0.000000001
 43
0.00000001
 40
0.0
 40
0.0
 40
0.0
 40
0.0
 40
0.0936327416456145
 40
0.4491878129135745
 40
0.7239322159380179
 40
1.0
 40
1.0
 40
1.0
 40
1.0
 10
302.5185287343346
 20
-1195.954587559842
 30
0.0
 10
302.5878601845137
 20
-1195.874679802055
 30
0.0
 10
302.9204665135037
 20
-1195.491335361592
 30
0.0
 10
303.4667606980101
 20
-1194.8713819128
 30
0.0
 10
304.1493364549002
 20
-1194.103900907787
 30
0.0
 10
304.5613169704111
 20
-1193.643835606335
 30
0.0
 10
304.767802140239
 20
-1193.413250279297
 30
0.0
  0
SPLINE
  5
38B
330
1F
100
AcDbEntity
  8
0
  6
SLD-Сплошная
 62
     7
370
    35
100
AcDbSpline
210
0.0
220
0.0
230
1.0
 70
    24
 71
     3
 72
    12
 73
     8
 74
     0
 42
0.000000001
 43
0.00000001
 40
0.0
 40
0.0
 40
0.0
 40
0.0
 40
0.0086674047360016
 40
0.267632629882524
 40
0.5286616002506926
 40
0.7638461449004033
 40
1.0
 40
1.0
 40
1.0
 40
1.0
 10
304.767802140239
 20
-1193.413250279297
 30
0.0
 10
304.7666854316374
 20
-1193.413026480565
 30
0.0
 10
304.7322036381832
 20
-1193.406116010229
 30
0.0
 10
304.6671111931121
 20
-1193.393070882178
 30
0.0
 10
304.5917248133506
 20
-1193.37796275441
 30
0.0
 10
304.5394195589188
 20
-1193.367480297637
 30
0.0
 10
304.5323123018101
 20
-1193.366055937576
 30
0.0
 10
304.5287513651957
 20
-1193.365342292942
 30
0.0
  0
SPLINE
  5
38C
330
1F
100
AcDbEntity
  8
0
  6
SLD-Сплошная
 62
     7
370
    35
100
AcDbSpline
210
0.0
220
0.0
230
1.0
 70
     8
 71
     3
 72
    10
 73
     6
 74
     0
 42
0.000000001
 43
0.00000001
 40
0.0
 40
0.0
 40
0.0
 40
0.0
 40
0.1318317034405716
 40
0.6614260061727475
 40
1.0
 40
1.0
 40
1.0
 40
1.0
 10
295.2321978597598
 20
-1191.502226984471
 30
0.0
 10
295.2969168414623
 20
-1191.688259548692
 30
0.0
 10
295.6216249084433
 20
-1192.621622106854
 30
0.0
 10
296.1185079021477
 20
-1194.06939844775
 30
0.0
 10
296.5252903800654
 20
-1195.308712649424
 30
0.0
 10
296.6839300916433
 20
-1195.79202856931
 30
0.0
  0
SPLINE
  5
38D
330
1F
100
AcDbEntity
  8
0
  6
SLD-Сплошная
 62
     7
370
    35
100
AcDbSpline
210
0.0
220
0.0
230
1.0
 70
    24
 71
     3
 72
    12
 73
     8
 74
     0
 42
0.000000001
 43
0.00000001
 40
0.0
 40
0.0
 40
0.0
 40
0.0
 40
0.236153855099438
 40
0.4713383997489554
 40
0.7323673701175634
 40
0.9913325952633494
 40
0.9999999999999999
 40
0.9999999999999999
 40
0.9999999999999999
 40
0.9999999999999999
 10
295.4712486348031
 20
-1191.550134970826
 30
0.0
 10
295.4676876981889
 20
-1191.549421326192
 30
0.0
 10
295.46058044108
 20
-1191.547996966131
 30
0.0
 10
295.4082751866485
 20
-1191.537514509359
 30
0.0
 10
295.3328888068864
 20
-1191.522406381589
 30
0.0
 10
295.267796361817
 20
-1191.509361253543
 30
0.0
 10
295.2333145683615
 20
-1191.502450783204
 30
0.0
 10
295.2321978597598
 20
-1191.502226984471
 30
0.0
  0
SPLINE
  5
38E
330
1F
100
AcDbEntity
  8
0
  6
SLD-Сплошная
 62
     7
370
    35
100
AcDbSpline
210
0.0
220
0.0
230
1.0
 70
     8
 71
     3
 72
    10
 73
     6
 74
     0
 42
0.000000001
 43
0.00000001
 40
0.0
 40
0.0
 40
0.0
 40
0.0
 40
0.1318317034404777
 40
0.6614260061726828
 40
1.0
 40
1.0
 40
1.0
 40
1.0
 10
304.767802140239
 20
-1193.413250279297
 30
0.0
 10
304.7030831585367
 20
-1193.227217715077
 30
0.0
 10
304.3783750915559
 20
-1192.293855156914
 30
0.0
 10
303.881492097851
 20
-1190.846078816018
 30
0.0
 10
303.4747096199334
 20
-1189.606764614345
 30
0.0
 10
303.3160699083554
 20
-1189.123448694459
 30
0.0
  0
SPLINE
  5
38F
330
1F
100
AcDbEntity
  8
0
  6
SLD-Сплошная
 62
     7
370
    35
100
AcDbSpline
210
0.0
220
0.0
230
1.0
 70
     8
 71
     3
 72
     9
 73
     5
 74
     0
 42
0.000000001
 43
0.00000001
 40
0.0
 40
0.0
 40
0.0
 40
0.0
 40
0.4488738627708558
 40
0.9999999999999999
 40
0.9999999999999999
 40
0.9999999999999999
 40
0.9999999999999999
 10
297.4773476599196
 20
-1188.961590981119
 30
0.0
 10
297.1428282014901
 20
-1189.346121792212
 30
0.0
 10
296.3975866399422
 20
-1190.202778512476
 30
0.0
 10
295.6462687733859
 20
-1191.040523709856
 30
0.0
 10
295.2321978597598
 20
-1191.502226984471
 30
0.0
  0
LINE
  5
390
330
1F
100
AcDbEntity
  8
0
  6
SLD-Сплошная
 62
     7
370
    35
100
AcDbLine
 10
887.0
 20
-1202.4577386319
 30
0.0
 11
887.0
 21
-1200.2577386319
 31
0.0
  0
LINE
  5
391
330
1F
100
AcDbEntity
  8
0
  6
SLD-Сплошная
 62
     7
370
    35
100
AcDbLine
 10
887.0
 20
-1200.2577386319
 30
0.0
 11
705.0
 21
-1200.2577386319
 31
0.0
  0
LINE
  5
392
330
1F
100
AcDbEntity
  8
0
  6
SLD-Сплошная
 62
     7
370
    35
100
AcDbLine
 10
705.0
 20
-1200.2577386319
 30
0.0
 11
705.0
 21
-1202.4577386319
 31
0.0
  0
LINE
  5
393
330
1F
100
AcDbEntity
  8
0
  6
SLD-Сплошная
 62
     7
370
    35
100
AcDbLine
 10
887.0
 20
-1206.8322552323
 30
0.0
 11
887.0
 21
-1202.4577386319
 31
0.0
  0
LINE
  5
394
330
1F
100
AcDbEntity
  8
0
  6
SLD-Сплошная
 62
     7
370
    35
100
AcDbLine
 10
705.0
 20
-1206.8322552323
 30
0.0
 11
705.0
 21
-1202.4577386319
 31
0.0
  0
LINE
  5
395
330
1F
100
AcDbEntity
  8
0
  6
SLD-Сплошная
 62
     7
370
    35
100
AcDbLine
 10
887.0
 20
-1208.3878901509
 30
0.0
 11
887.0
 21
-1206.8322552323
 31
0.0
  0
SPLINE
  5
396
330
1F
100
AcDbEntity
  8
0
  6
SLD-Сплошная
 62
     7
370
    35
100
AcDbSpline
210
0.0
220
0.0
230
1.0
 70
     8
 71
     3
 72
    15
 73
    11
 74
     0
 42
0.000000001
 43
0.00000001
 40
0.0
 40
0.0
 40
0.0
 40
0.0
 40
0.1546081434543175
 40
0.2840352202989785
 40
0.3937333083316709
 40
0.4926684878679579
 40
0.5928369951382105
 40
0.7058429720360369
 40
0.8399293945958507
 40
1.0
 40
1.0
 40
1.0
 40
1.0
 10
864.8724136762851
 20
-1208.387890150902
 30
0.0
 10
865.0340819119817
 20
-1208.210049642285
 30
0.0
 10
865.3310874377944
 20
-1207.883333552726
 30
0.0
 10
865.8507814248751
 20
-1207.406326792964
 30
0.0
 10
866.3865814004956
 20
-1207.099607785364
 30
0.0
 10
866.9479559640258
 20
-1206.992027021696
 30
0.0
 10
867.5144503758761
 20
-1207.101686778441
 30
0.0
 10
868.0689141143572
 20
-1207.407430499315
 30
0.0
 10
868.6222592384592
 20
-1207.883025998094
 30
0.0
 10
868.9495081828846
 20
-1208.209975148269
 30
0.0
 10
869.1275863237156
 20
-1208.387890150902
 30
0.0
  0
LINE
  5
397
330
1F
100
AcDbEntity
  8
0
  6
SLD-Сплошная
 62
     7
370
    35
100
AcDbLine
 10
705.0
 20
-1206.8322552323
 30
0.0
 11
705.0
 21
-1208.3878901509
 31
0.0
  0
LINE
  5
398
330
1F
100
AcDbEntity
  8
0
  6
SLD-Сплошная
 62
     7
370
    35
100
AcDbLine
 10
-705.0
 20
-1206.8322552323
 30
0.0
 11
-705.0
 21
-1202.4577386319
 31
0.0
  0
LINE
  5
399
330
1F
100
AcDbEntity
  8
0
  6
SLD-Сплошная
 62
     7
370
    35
100
AcDbLine
 10
-887.0
 20
-1202.4577386319
 30
0.0
 11
-887.0
 21
-1206.8322552323
 31
0.0
  0
LINE
  5
39A
330
1F
100
AcDbEntity
  8
0
  6
SLD-Сплошная
 62
     7
370
    35
100
AcDbLine
 10
-297.5
 20
-1188.9577386319
 30
0.0
 11
-302.5
 21
-1188.9577386319
 31
0.0
  0
ARC
  5
39B
330
1F
100
AcDbEntity
  8
0
  6
SLD-Сплошная
 62
     7
370
    35
100
AcDbCircle
 10
-297.5
 20
-1192.4577386319
 30
0.0
 40
3.5
100
AcDbArc
 50
270.0
 51
90.0
  0
LINE
  5
39C
330
1F
100
AcDbEntity
  8
0
  6
SLD-Сплошная
 62
     7
370
    35
100
AcDbLine
 10
-302.5
 20
-1195.9577386319
 30
0.0
 11
-297.5
 21
-1195.9577386319
 31
0.0
  0
ARC
  5
39D
330
1F
100
AcDbEntity
  8
0
  6
SLD-Сплошная
 62
     7
370
    35
100
AcDbCircle
 10
-302.5
 20
-1192.4577386319
 30
0.0
 40
3.5
100
AcDbArc
 50
90.0
 51
270.0
  0
LINE
  5
39E
330
1F
100
AcDbEntity
  8
0
  6
SLD-Сплошная
 62
     7
370
    35
100
AcDbLine
 10
-97.5
 20
-1188.9577386319
 30
0.0
 11
-102.5
 21
-1188.9577386319
 31
0.0
  0
ARC
  5
39F
330
1F
100
AcDbEntity
  8
0
  6
SLD-Сплошная
 62
     7
370
    35
100
AcDbCircle
 10
-97.5
 20
-1192.4577386319
 30
0.0
 40
3.5
100
AcDbArc
 50
270.0
 51
90.0
  0
LINE
  5
3A0
330
1F
100
AcDbEntity
  8
0
  6
SLD-Сплошная
 62
     7
370
    35
100
AcDbLine
 10
-102.5
 20
-1195.9577386319
 30
0.0
 11
-97.5
 21
-1195.9577386319
 31
0.0
  0
ARC
  5
3A1
330
1F
100
AcDbEntity
  8
0
  6
SLD-Сплошная
 62
     7
370
    35
100
AcDbCircle
 10
-102.5
 20
-1192.4577386319
 30
0.0
 40
3.5
100
AcDbArc
 50
90.0
 51
270.0
  0
ARC
  5
3A2
330
1F
100
AcDbEntity
  8
0
  6
SLD-Сплошная
 62
     7
370
    35
100
AcDbCircle
 10
-695.0
 20
-1191.4577386319
 30
0.0
 40
5.000000000000114
100
AcDbArc
 50
90.0
 51
180.0
  0
LINE
  5
3A3
330
1F
100
AcDbEntity
  8
0
  6
SLD-Сплошная
 62
     7
370
    35
100
AcDbLine
 10
-700.0
 20
-1191.4577386319
 30
0.0
 11
-700.0
 21
-1199.2577386319
 31
0.0
  0
LINE
  5
3A4
330
1F
100
AcDbEntity
  8
0
  6
SLD-Сплошная
 62
     7
370
    35
100
AcDbLine
 10
700.0
 20
-1199.2577386319
 30
0.0
 11
700.0
 21
-1191.4577386319
 31
0.0
  0
ARC
  5
3A5
330
1F
100
AcDbEntity
  8
0
  6
SLD-Сплошная
 62
     7
370
    35
100
AcDbCircle
 10
695.0
 20
-1191.4577386319
 30
0.0
 40
4.999999999999886
100
AcDbArc
 50
0.0
 51
90.0
  0
LINE
  5
3A6
330
1F
100
AcDbEntity
  8
0
  6
SLD-Сплошная
 62
     7
370
    35
100
AcDbLine
 10
695.0
 20
-1186.4577386319
 30
0.0
 11
-695.0
 21
-1186.4577386319
 31
0.0
  0
LINE
  5
3A7
330
1F
100
AcDbEntity
  8
0
  6
SLD-Сплошная
 62
     7
370
    35
100
AcDbLine
 10
-497.5
 20
-1188.9577386319
 30
0.0
 11
-502.5
 21
-1188.9577386319
 31
0.0
  0
ARC
  5
3A8
330
1F
100
AcDbEntity
  8
0
  6
SLD-Сплошная
 62
     7
370
    35
100
AcDbCircle
 10
-497.5
 20
-1192.4577386319
 30
0.0
 40
3.5
100
AcDbArc
 50
270.0
 51
90.0
  0
LINE
  5
3A9
330
1F
100
AcDbEntity
  8
0
  6
SLD-Сплошная
 62
     7
370
    35
100
AcDbLine
 10
-502.5
 20
-1195.9577386319
 30
0.0
 11
-497.5
 21
-1195.9577386319
 31
0.0
  0
ARC
  5
3AA
330
1F
100
AcDbEntity
  8
0
  6
SLD-Сплошная
 62
     7
370
    35
100
AcDbCircle
 10
-502.5
 20
-1192.4577386319
 30
0.0
 40
3.5
100
AcDbArc
 50
90.0
 51
270.0
  0
ARC
  5
3AB
330
1F
100
AcDbEntity
  8
0
  6
SLD-Сплошная
 62
     7
370
    35
100
AcDbCircle
 10
497.5
 20
-1192.4577386319
 30
0.0
 40
3.5
100
AcDbArc
 50
90.0
 51
270.0
  0
LINE
  5
3AC
330
1F
100
AcDbEntity
  8
0
  6
SLD-Сплошная
 62
     7
370
    35
100
AcDbLine
 10
497.5
 20
-1188.9577386319
 30
0.0
 11
502.5
 21
-1188.9577386319
 31
0.0
  0
ARC
  5
3AD
330
1F
100
AcDbEntity
  8
0
  6
SLD-Сплошная
 62
     7
370
    35
100
AcDbCircle
 10
502.5
 20
-1192.4577386319
 30
0.0
 40
3.5
100
AcDbArc
 50
270.0
 51
90.0
  0
LINE
  5
3AE
330
1F
100
AcDbEntity
  8
0
  6
SLD-Сплошная
 62
     7
370
    35
100
AcDbLine
 10
502.5
 20
-1195.9577386319
 30
0.0
 11
497.5
 21
-1195.9577386319
 31
0.0
  0
ARC
  5
3AF
330
1F
100
AcDbEntity
  8
0
  6
SLD-Сплошная
 62
     7
370
    35
100
AcDbCircle
 10
297.5
 20
-1192.4577386319
 30
0.0
 40
3.5
100
AcDbArc
 50
90.0
 51
270.0
  0
LINE
  5
3B0
330
1F
100
AcDbEntity
  8
0
  6
SLD-Сплошная
 62
     7
370
    35
100
AcDbLine
 10
297.5
 20
-1188.9577386319
 30
0.0
 11
302.5
 21
-1188.9577386319
 31
0.0
  0
ARC
  5
3B1
330
1F
100
AcDbEntity
  8
0
  6
SLD-Сплошная
 62
     7
370
    35
100
AcDbCircle
 10
302.5
 20
-1192.4577386319
 30
0.0
 40
3.5
100
AcDbArc
 50
270.0
 51
90.0
  0
LINE
  5
3B2
330
1F
100
AcDbEntity
  8
0
  6
SLD-Сплошная
 62
     7
370
    35
100
AcDbLine
 10
302.5
 20
-1195.9577386319
 30
0.0
 11
297.5
 21
-1195.9577386319
 31
0.0
  0
ARC
  5
3B3
330
1F
100
AcDbEntity
  8
0
  6
SLD-Сплошная
 62
     7
370
    35
100
AcDbCircle
 10
97.5
 20
-1192.4577386319
 30
0.0
 40
3.5
100
AcDbArc
 50
90.0
 51
270.0
  0
LINE
  5
3B4
330
1F
100
AcDbEntity
  8
0
  6
SLD-Сплошная
 62
     7
370
    35
100
AcDbLine
 10
97.5
 20
-1188.9577386319
 30
0.0
 11
102.5
 21
-1188.9577386319
 31
0.0
  0
ARC
  5
3B5
330
1F
100
AcDbEntity
  8
0
  6
SLD-Сплошная
 62
     7
370
    35
100
AcDbCircle
 10
102.5
 20
-1192.4577386319
 30
0.0
 40
3.5
100
AcDbArc
 50
270.0
 51
90.0
  0
LINE
  5
3B6
330
1F
100
AcDbEntity
  8
0
  6
SLD-Сплошная
 62
     7
370
    35
100
AcDbLine
 10
102.5
 20
-1195.9577386319
 30
0.0
 11
97.5
 21
-1195.9577386319
 31
0.0
  0
SPLINE
  5
3B7
330
1F
100
AcDbEntity
  8
0
  6
SLD-Сплошная
 62
     7
370
    35
100
AcDbSpline
210
0.0
220
0.0
230
1.0
 70
     8
 71
     3
 72
    15
 73
    11
 74
     0
 42
0.000000001
 43
0.00000001
 40
0.0
 40
0.0
 40
0.0
 40
0.0
 40
0.1546081434543162
 40
0.2840352202989502
 40
0.393733308331658
 40
0.4926684878679071
 40
0.5928369951381228
 40
0.7058429720359665
 40
0.8399293945957836
 40
1.0
 40
1.0
 40
1.0
 40
1.0
 10
-869.1275863237154
 20
-1208.387890150903
 30
0.0
 10
-868.9659180880185
 20
-1208.210049642285
 30
0.0
 10
-868.6689125622061
 20
-1207.883333552727
 30
0.0
 10
-868.1492185751252
 20
-1207.406326792964
 30
0.0
 10
-867.6134185995048
 20
-1207.099607785364
 30
0.0
 10
-867.0520440359745
 20
-1206.992027021695
 30
0.0
 10
-866.485549624124
 20
-1207.101686778441
 30
0.0
 10
-865.9310858856435
 20
-1207.407430499315
 30
0.0
 10
-865.3777407615408
 20
-1207.883025998095
 30
0.0
 10
-865.0504918171149
 20
-1208.209975148269
 30
0.0
 10
-864.8724136762842
 20
-1208.387890150903
 30
0.0
  0
LINE
  5
3B8
330
1F
100
AcDbEntity
  8
0
  6
SLD-Сплошная
 62
     7
370
    35
100
AcDbLine
 10
-705.0
 20
-1208.3878901509
 30
0.0
 11
-705.0
 21
-1206.8322552323
 31
0.0
  0
LINE
  5
3B9
330
1F
100
AcDbEntity
  8
0
  6
SLD-Сплошная
 62
     7
370
    35
100
AcDbLine
 10
-887.0
 20
-1206.8322552323
 30
0.0
 11
-887.0
 21
-1208.3878901509
 31
0.0
  0
LINE
  5
3BA
330
1F
100
AcDbEntity
  8
0
  6
SLD-Сплошная
 62
     7
370
    35
100
AcDbLine
 10
700.0
 20
-1201.4577386319
 30
0.0
 11
700.0
 21
-1199.2577386319
 31
0.0
  0
LINE
  5
3BB
330
1F
100
AcDbEntity
  8
0
  6
SLD-Сплошная
 62
     7
370
    35
100
AcDbLine
 10
-700.0
 20
-1201.4577386319
 30
0.0
 11
700.0
 21
-1201.4577386319
 31
0.0
  0
LINE
  5
3BC
330
1F
100
AcDbEntity
  8
0
  6
SLD-Сплошная
 62
     7
370
    35
100
AcDbLine
 10
-700.0
 20
-1199.2577386319
 30
0.0
 11
-700.0
 21
-1201.4577386319
 31
0.0
  0
LINE
  5
3BD
330
1F
100
AcDbEntity
  8
0
  6
SLD-Сплошная
 62
     7
370
    35
100
AcDbLine
 10
-887.0
 20
-1200.2577386319
 30
0.0
 11
-705.0
 21
-1200.2577386319
 31
0.0
  0
LINE
  5
3BE
330
1F
100
AcDbEntity
  8
0
  6
SLD-Сплошная
 62
     7
370
    35
100
AcDbLine
 10
-887.0
 20
-1200.2577386319
 30
0.0
 11
-887.0
 21
-1202.4577386319
 31
0.0
  0
LINE
  5
3BF
330
1F
100
AcDbEntity
  8
0
  6
SLD-Сплошная
 62
     7
370
    35
100
AcDbLine
 10
-705.0
 20
-1202.4577386319
 30
0.0
 11
-705.0
 21
-1200.2577386319
 31
0.0
  0
ARC
  5
3C0
330
1F
100
AcDbEntity
  8
0
  6
SLD-Сплошная
 62
     7
370
    35
100
AcDbCircle
 10
709.5560692778
 20
-1210.9614125096
 30
0.0
 40
4.927633568712658
100
AcDbArc
 50
205.8943371867
 51
275.168787242
  0
ARC
  5
3C1
330
1F
100
AcDbEntity
  8
0
  6
SLD-Сплошная
 62
     7
370
    35
100
AcDbCircle
 10
709.5560692778
 20
-1210.1128843722
 30
0.0
 40
4.927633568713267
100
AcDbArc
 50
205.8943371867
 51
275.168787242
  0
LINE
  5
3C2
330
1F
100
AcDbEntity
  8
0
  6
SLD-Сплошная
 62
     7
370
    35
100
AcDbLine
 10
705.1231654591
 20
-1212.2648454131
 30
0.0
 11
705.1231654591
 21
-1213.1133735505
 31
0.0
  0
ARC
  5
3C3
330
1F
100
AcDbEntity
  8
0
  6
SLD-Сплошная
 62
     7
370
    35
100
AcDbCircle
 10
882.4439307222
 20
-1210.1128843722
 30
0.0
 40
4.927633568713167
100
AcDbArc
 50
264.831212758
 51
334.1056628133
  0
LINE
  5
3C4
330
1F
100
AcDbEntity
  8
0
  6
SLD-Сплошная
 62
     7
370
    35
100
AcDbLine
 10
882.0
 20
-1215.0204803317
 30
0.0
 11
710.0
 21
-1215.0204803317
 31
0.0
  0
ARC
  5
3C5
330
1F
100
AcDbEntity
  8
0
  6
SLD-Сплошная
 62
     7
370
    35
100
AcDbCircle
 10
882.4439307222
 20
-1210.9614125096
 30
0.0
 40
4.927633568712463
100
AcDbArc
 50
264.831212758
 51
334.1056628133
  0
LINE
  5
3C6
330
1F
100
AcDbEntity
  8
0
  6
SLD-Сплошная
 62
     7
370
    35
100
AcDbLine
 10
886.8768345409
 20
-1213.1133735505
 30
0.0
 11
886.8768345409
 21
-1212.2648454131
 31
0.0
  0
ARC
  5
3C7
330
1F
100
AcDbEntity
  8
0
  6
SLD-Сплошная
 62
     7
370
    35
100
AcDbCircle
 10
-882.4439307222
 20
-1210.9614125096
 30
0.0
 40
4.927633568713272
100
AcDbArc
 50
205.8943371867
 51
275.168787242
  0
ARC
  5
3C8
330
1F
100
AcDbEntity
  8
0
  6
SLD-Сплошная
 62
     7
370
    35
100
AcDbCircle
 10
-882.4439307222
 20
-1210.1128843722
 30
0.0
 40
4.927633568713272
100
AcDbArc
 50
205.8943371867
 51
275.168787242
  0
LINE
  5
3C9
330
1F
100
AcDbEntity
  8
0
  6
SLD-Сплошная
 62
     7
370
    35
100
AcDbLine
 10
-886.8768345409
 20
-1212.2648454131
 30
0.0
 11
-886.8768345409
 21
-1213.1133735505
 31
0.0
  0
ARC
  5
3CA
330
1F
100
AcDbEntity
  8
0
  6
SLD-Сплошная
 62
     7
370
    35
100
AcDbCircle
 10
-709.5560692778
 20
-1210.1128843722
 30
0.0
 40
4.927633568713167
100
AcDbArc
 50
264.831212758
 51
334.1056628133
  0
ARC
  5
3CB
330
1F
100
AcDbEntity
  8
0
  6
SLD-Сплошная
 62
     7
370
    35
100
AcDbCircle
 10
-709.5560692778
 20
-1210.9614125096
 30
0.0
 40
4.927633568712632
100
AcDbArc
 50
264.831212758
 51
334.1056628133
  0
LINE
  5
3CC
330
1F
100
AcDbEntity
  8
0
  6
SLD-Сплошная
 62
     7
370
    35
100
AcDbLine
 10
-705.1231654591
 20
-1213.1133735505
 30
0.0
 11
-705.1231654591
 21
-1212.2648454131
 31
0.0
  0
LINE
  5
3CD
330
1F
100
AcDbEntity
  8
0
  6
SLD-Сплошная
 62
     7
370
    35
100
AcDbLine
 10
-882.0
 20
-1215.0204803317
 30
0.0
 11
-710.0
 21
-1215.0204803317
 31
0.0
  0
LINE
  5
3CE
330
1F
100
AcDbEntity
  8
0
  6
SLD-Сплошная
 62
     7
370
    35
100
AcDbLine
 10
882.0
 20
-1215.8690084691
 30
0.0
 11
710.0
 21
-1215.8690084691
 31
0.0
  0
LINE
  5
3CF
330
1F
100
AcDbEntity
  8
0
  6
SLD-Сплошная
 62
     7
370
    35
100
AcDbLine
 10
-882.0
 20
-1215.8690084691
 30
0.0
 11
-710.0
 21
-1215.8690084691
 31
0.0
  0
ARC
  5
3D0
330
1F
100
AcDbEntity
  8
0
  6
SLD-Сплошная
 62
     7
370
    35
100
AcDbCircle
 10
868.1929139273
 20
-1209.6198547917
 30
0.0
 40
1.546398837499559
100
AcDbArc
 50
307.2597629339
 51
52.8129754466
  0
ARC
  5
3D1
330
1F
100
AcDbEntity
  8
0
  6
SLD-Сплошная
 62
     7
370
    35
100
AcDbCircle
 10
867.9937387435
 20
-1208.6273412913
 30
0.0
 40
1.783011352242235
100
AcDbArc
 50
309.5531654696
 51
341.4127788049
  0
LINE
  5
3D2
330
1F
100
AcDbEntity
  8
0
  6
SLD-Сплошная
 62
     7
370
    35
100
AcDbLine
 10
869.1291495791
 20
-1210.0021037133
 30
0.0
 11
869.1291495791
 21
-1210.8506318507
 31
0.0
  0
LINE
  5
3D3
330
1F
100
AcDbEntity
  8
0
  6
SLD-Сплошная
 62
     7
370
    35
100
AcDbLine
 10
705.0
 20
-1210.8506318507
 30
0.0
 11
705.0
 21
-1208.3878901509
 31
0.0
  0
ARC
  5
3D4
330
1F
100
AcDbEntity
  8
0
  6
SLD-Сплошная
 62
     7
370
    35
100
AcDbCircle
 10
865.8070860727
 20
-1209.6198547917
 30
0.0
 40
1.546398837499495
100
AcDbArc
 50
127.1870245534
 51
232.7402370661
  0
ARC
  5
3D5
330
1F
100
AcDbEntity
  8
0
  6
SLD-Сплошная
 62
     7
370
    35
100
AcDbCircle
 10
-867.9937387415
 20
-1208.6273412895
 30
0.0
 40
1.783011354970474
100
AcDbArc
 50
198.5872215547
 51
230.4468345166
  0
ARC
  5
3D6
330
1F
100
AcDbEntity
  8
0
  6
SLD-Сплошная
 62
     7
370
    35
100
AcDbCircle
 10
-868.1929139273
 20
-1209.6198547917
 30
0.0
 40
1.54639883749909
100
AcDbArc
 50
127.1870245534
 51
232.7402370661
  0
LINE
  5
3D7
330
1F
100
AcDbEntity
  8
0
  6
SLD-Сплошная
 62
     7
370
    35
100
AcDbLine
 10
-869.1291495791
 20
-1210.8506318507
 30
0.0
 11
-869.1291495791
 21
-1210.0021037133
 31
0.0
  0
ARC
  5
3D8
330
1F
100
AcDbEntity
  8
0
  6
SLD-Сплошная
 62
     7
370
    35
100
AcDbCircle
 10
866.0062612564
 20
-1208.6273412913
 30
0.0
 40
1.783011352213682
100
AcDbArc
 50
198.5872211912
 51
230.4468345306
  0
LINE
  5
3D9
330
1F
100
AcDbEntity
  8
0
  6
SLD-Сплошная
 62
     7
370
    35
100
AcDbLine
 10
864.8708504209
 20
-1210.8506318507
 30
0.0
 11
864.8708504209
 21
-1210.0021037133
 31
0.0
  0
LINE
  5
3DA
330
1F
100
AcDbEntity
  8
0
  6
SLD-Сплошная
 62
     7
370
    35
100
AcDbLine
 10
887.0
 20
-1210.8506318507
 30
0.0
 11
887.0
 21
-1208.3878901509
 31
0.0
  0
ARC
  5
3DB
330
1F
100
AcDbEntity
  8
0
  6
SLD-Сплошная
 62
     7
370
    35
100
AcDbCircle
 10
-865.8070860727
 20
-1209.6198547917
 30
0.0
 40
1.546398837499189
100
AcDbArc
 50
307.2597629339
 51
52.8129754466
  0
ARC
  5
3DC
330
1F
100
AcDbEntity
  8
0
  6
SLD-Сплошная
 62
     7
370
    35
100
AcDbCircle
 10
-866.0062612584
 20
-1208.6273412896
 30
0.0
 40
1.783011354836175
100
AcDbArc
 50
309.5531654827
 51
341.412778464
  0
LINE
  5
3DD
330
1F
100
AcDbEntity
  8
0
  6
SLD-Сплошная
 62
     7
370
    35
100
AcDbLine
 10
-864.8708504209
 20
-1210.0021037133
 30
0.0
 11
-864.8708504209
 21
-1210.8506318507
 31
0.0
  0
LINE
  5
3DE
330
1F
100
AcDbEntity
  8
0
  6
SLD-Сплошная
 62
     7
370
    35
100
AcDbLine
 10
-705.0
 20
-1210.8506318507
 30
0.0
 11
-705.0
 21
-1208.3878901509
 31
0.0
  0
LINE
  5
3DF
330
1F
100
AcDbEntity
  8
0
  6
SLD-Сплошная
 62
     7
370
    35
100
AcDbLine
 10
-887.0
 20
-1208.3878901509
 30
0.0
 11
-887.0
 21
-1210.8506318507
 31
0.0
  0
LINE
  5
3E0
330
1F
100
AcDbEntity
  8
0
  6
SLD-Сплошная
 62
     7
370
    35
100
AcDbLine
 10
-700.0
 20
-1200.2577386319
 30
0.0
 11
-705.0
 21
-1200.2577386319
 31
0.0
  0
LINE
  5
3E1
330
1F
100
AcDbEntity
  8
0
  6
SLD-Сплошная
 62
     7
370
    35
100
AcDbLine
 10
-700.0
 20
-1201.4577386319
 30
0.0
 11
-705.0
 21
-1201.4577386319
 31
0.0
  0
LINE
  5
3E2
330
1F
100
AcDbEntity
  8
0
  6
SLD-Сплошная
 62
     7
370
    35
100
AcDbLine
 10
917.0
 20
-1201.4577386319
 30
0.0
 11
917.0
 21
-1200.2577386319
 31
0.0
  0
LINE
  5
3E3
330
1F
100
AcDbEntity
  8
0
  6
SLD-Сплошная
 62
     7
370
    35
100
AcDbLine
 10
917.0
 20
-1200.2577386319
 30
0.0
 11
912.0
 21
-1200.2577386319
 31
0.0
  0
LINE
  5
3E4
330
1F
100
AcDbEntity
  8
0
  6
SLD-Сплошная
 62
     7
370
    35
100
AcDbLine
 10
912.0
 20
-1201.4577386319
 30
0.0
 11
917.0
 21
-1201.4577386319
 31
0.0
  0
LINE
  5
3E5
330
1F
100
AcDbEntity
  8
0
  6
SLD-Сплошная
 62
     7
370
    35
100
AcDbLine
 10
912.0
 20
-1200.2577386319
 30
0.0
 11
887.0
 21
-1200.2577386319
 31
0.0
  0
LINE
  5
3E6
330
1F
100
AcDbEntity
  8
0
  6
SLD-Сплошная
 62
     7
370
    35
100
AcDbLine
 10
912.0
 20
-1201.4577386319
 30
0.0
 11
887.0
 21
-1201.4577386319
 31
0.0
  0
LINE
  5
3E7
330
1F
100
AcDbEntity
  8
0
  6
SLD-Сплошная
 62
     7
370
    35
100
AcDbLine
 10
-912.0
 20
-1200.2577386319
 30
0.0
 11
-887.0
 21
-1200.2577386319
 31
0.0
  0
LINE
  5
3E8
330
1F
100
AcDbEntity
  8
0
  6
SLD-Сплошная
 62
     7
370
    35
100
AcDbLine
 10
-912.0
 20
-1201.4577386319
 30
0.0
 11
-887.0
 21
-1201.4577386319
 31
0.0
  0
LINE
  5
3E9
330
1F
100
AcDbEntity
  8
0
  6
SLD-Сплошная
 62
     7
370
    35
100
AcDbLine
 10
-917.0
 20
-1200.2577386319
 30
0.0
 11
-917.0
 21
-1201.4577386319
 31
0.0
  0
LINE
  5
3EA
330
1F
100
AcDbEntity
  8
0
  6
SLD-Сплошная
 62
     7
370
    35
100
AcDbLine
 10
-912.0
 20
-1200.2577386319
 30
0.0
 11
-917.0
 21
-1200.2577386319
 31
0.0
  0
LINE
  5
3EB
330
1F
100
AcDbEntity
  8
0
  6
SLD-Сплошная
 62
     7
370
    35
100
AcDbLine
 10
-917.0
 20
-1201.4577386319
 30
0.0
 11
-912.0
 21
-1201.4577386319
 31
0.0
  0
LINE
  5
3EC
330
1F
100
AcDbEntity
  8
0
  6
SLD-Сплошная
 62
     7
370
    35
100
AcDbLine
 10
705.0
 20
-1200.2577386319
 30
0.0
 11
700.0
 21
-1200.2577386319
 31
0.0
  0
LINE
  5
3ED
330
1F
100
AcDbEntity
  8
0
  6
SLD-Сплошная
 62
     7
370
    35
100
AcDbLine
 10
705.0
 20
-1201.4577386319
 30
0.0
 11
700.0
 21
-1201.4577386319
 31
0.0
  0
SPLINE
  5
3EE
330
1F
100
AcDbEntity
  8
0
  6
SLD-Сплошная
 62
     7
370
    35
100
AcDbSpline
210
0.0
220
0.0
230
1.0
 70
     8
 71
     3
 72
     9
 73
     5
 74
     0
 42
0.000000001
 43
0.00000001
 40
0.0
 40
0.0
 40
0.0
 40
0.0
 40
0.5000000000000282
 40
1.0
 40
1.0
 40
1.0
 40
1.0
 10
886.8768345408829
 20
-1213.113373550494
 30
0.0
 10
886.8973621174023
 20
-1212.902911276453
 30
0.0
 10
886.9384172704415
 20
-1212.481986728372
 30
0.0
 10
886.9794724234807
 20
-1211.942138466455
 30
0.0
 10
887.0
 20
-1211.672214335497
 30
0.0
  0
SPLINE
  5
3EF
330
1F
100
AcDbEntity
  8
0
  6
SLD-Сплошная
 62
     7
370
    35
100
AcDbSpline
210
0.0
220
0.0
230
1.0
 70
     8
 71
     3
 72
     9
 73
     5
 74
     0
 42
0.000000001
 43
0.00000001
 40
0.0
 40
0.0
 40
0.0
 40
0.0
 40
0.5000000000000218
 40
1.0
 40
1.0
 40
1.0
 40
1.0
 10
886.8768345408829
 20
-1212.26484541307
 30
0.0
 10
886.8973621174025
 20
-1212.169180743052
 30
0.0
 10
886.9384172704417
 20
-1211.977851403015
 30
0.0
 10
886.9794724234803
 20
-1211.732465829416
 30
0.0
 10
887.0
 20
-1211.609773042617
 30
0.0
  0
LINE
  5
3F0
330
1F
100
AcDbEntity
  8
0
  6
SLD-Сплошная
 62
     7
370
    35
100
AcDbLine
 10
705.0
 20
-1210.8506318507
 30
0.0
 11
705.0
 21
-1211.6097730426
 31
0.0
  0
SPLINE
  5
3F1
330
1F
100
AcDbEntity
  8
0
  6
SLD-Сплошная
 62
     7
370
    35
100
AcDbSpline
210
0.0
220
0.0
230
1.0
 70
     8
 71
     3
 72
     9
 73
     5
 74
     0
 42
0.000000001
 43
0.00000001
 40
0.0
 40
0.0
 40
0.0
 40
0.0
 40
0.5000000000000312
 40
1.0
 40
1.0
 40
1.0
 40
1.0
 10
704.9999999999999
 20
-1211.609773042617
 30
0.0
 10
705.0205275765194
 20
-1211.732465829416
 30
0.0
 10
705.0615827295587
 20
-1211.977851403015
 30
0.0
 10
705.1026378825977
 20
-1212.169180743052
 30
0.0
 10
705.123165459117
 20
-1212.26484541307
 30
0.0
  0
LINE
  5
3F2
330
1F
100
AcDbEntity
  8
0
  6
SLD-Сплошная
 62
     7
370
    35
100
AcDbLine
 10
887.0
 20
-1211.6097730426
 30
0.0
 11
887.0
 21
-1210.8506318507
 31
0.0
  0
SPLINE
  5
3F3
330
1F
100
AcDbEntity
  8
0
  6
SLD-Сплошная
 62
     7
370
    35
100
AcDbSpline
210
0.0
220
0.0
230
1.0
 70
     8
 71
     3
 72
    11
 73
     7
 74
     0
 42
0.000000001
 43
0.00000001
 40
0.0
 40
0.0
 40
0.0
 40
0.0
 40
0.2476695311052234
 40
0.4998277937302004
 40
0.7446021013264866
 40
1.0
 40
1.0
 40
1.0
 40
1.0
 10
869.1291495790592
 20
-1210.850631850697
 30
0.0
 10
868.8039946679937
 20
-1211.010219294469
 30
0.0
 10
868.1477917790348
 20
-1211.332286524828
 30
0.0
 10
867.0126047284031
 20
-1211.500466168512
 30
0.0
 10
865.8705234830686
 20
-1211.325091799423
 30
0.0
 10
865.2087600308606
 20
-1211.011008860211
 30
0.0
 10
864.8708504209419
 20
-1210.850631850697
 30
0.0
  0
SPLINE
  5
3F4
330
1F
100
AcDbEntity
  8
0
  6
SLD-Сплошная
 62
     7
370
    35
100
AcDbSpline
210
0.0
220
0.0
230
1.0
 70
     8
 71
     3
 72
     9
 73
     5
 74
     0
 42
0.000000001
 43
0.00000001
 40
0.0
 40
0.0
 40
0.0
 40
0.0
 40
0.4999999999999832
 40
1.0
 40
1.0
 40
1.0
 40
1.0
 10
704.9999999999999
 20
-1211.672214335497
 30
0.0
 10
705.0205275765194
 20
-1211.942138466455
 30
0.0
 10
705.0615827295585
 20
-1212.481986728372
 30
0.0
 10
705.1026378825975
 20
-1212.902911276453
 30
0.0
 10
705.123165459117
 20
-1213.113373550494
 30
0.0
  0
SPLINE
  5
3F5
330
1F
100
AcDbEntity
  8
0
  6
SLD-Сплошная
 62
     7
370
    35
100
AcDbSpline
210
0.0
220
0.0
230
1.0
 70
     8
 71
     3
 72
    15
 73
    11
 74
     0
 42
0.000000001
 43
0.00000001
 40
0.0
 40
0.0
 40
0.0
 40
0.0
 40
0.1493602607961659
 40
0.2777329983852341
 40
0.3916592779308058
 40
0.500468875289
 40
0.6044785831447118
 40
0.7170072555597968
 40
0.8469247013847546
 40
1.0
 40
1.0
 40
1.0
 40
1.0
 10
869.129149579059
 20
-1210.002103713273
 30
0.0
 10
868.9758477030982
 20
-1210.173049299418
 30
0.0
 10
868.6907853348238
 20
-1210.490919862497
 30
0.0
 10
868.1653944956031
 20
-1210.948743476662
 30
0.0
 10
867.5998749342144
 20
-1211.239203472022
 30
0.0
 10
867.0108972295907
 20
-1211.338124311763
 30
0.0
 10
866.4240509156349
 20
-1211.241477600991
 30
0.0
 10
865.8688231077018
 20
-1210.948940367497
 30
0.0
 10
865.3358142245893
 20
-1210.491438874461
 30
0.0
 10
865.034069153023
 20
-1210.173877653406
 30
0.0
 10
864.8708504209419
 20
-1210.002103713273
 30
0.0
  0
SPLINE
  5
3F6
330
1F
100
AcDbEntity
  8
0
  6
SLD-Сплошная
 62
     7
370
    35
100
AcDbSpline
210
0.0
220
0.0
230
1.0
 70
     8
 71
     3
 72
     9
 73
     5
 74
     0
 42
0.000000001
 43
0.00000001
 40
0.0
 40
0.0
 40
0.0
 40
0.0
 40
0.4999999999999836
 40
1.0
 40
1.0
 40
1.0
 40
1.0
 10
-886.9999999999998
 20
-1211.609773042618
 30
0.0
 10
-886.9794724234803
 20
-1211.732465829417
 30
0.0
 10
-886.9384172704412
 20
-1211.977851403015
 30
0.0
 10
-886.8973621174022
 20
-1212.169180743052
 30
0.0
 10
-886.8768345408827
 20
-1212.264845413071
 30
0.0
  0
SPLINE
  5
3F7
330
1F
100
AcDbEntity
  8
0
  6
SLD-Сплошная
 62
     7
370
    35
100
AcDbSpline
210
0.0
220
0.0
230
1.0
 70
     8
 71
     3
 72
     9
 73
     5
 74
     0
 42
0.000000001
 43
0.00000001
 40
0.0
 40
0.0
 40
0.0
 40
0.0
 40
0.5000000000000164
 40
1.0
 40
1.0
 40
1.0
 40
1.0
 10
-705.123165459117
 20
-1212.264845413071
 30
0.0
 10
-705.1026378825975
 20
-1212.169180743052
 30
0.0
 10
-705.0615827295583
 20
-1211.977851403015
 30
0.0
 10
-705.0205275765192
 20
-1211.732465829417
 30
0.0
 10
-704.9999999999997
 20
-1211.609773042618
 30
0.0
  0
LINE
  5
3F8
330
1F
100
AcDbEntity
  8
0
  6
SLD-Сплошная
 62
     7
370
    35
100
AcDbLine
 10
-705.0
 20
-1211.6097730426
 30
0.0
 11
-705.0
 21
-1210.8506318507
 31
0.0
  0
SPLINE
  5
3F9
330
1F
100
AcDbEntity
  8
0
  6
SLD-Сплошная
 62
     7
370
    35
100
AcDbSpline
210
0.0
220
0.0
230
1.0
 70
     8
 71
     3
 72
    11
 73
     7
 74
     0
 42
0.000000001
 43
0.00000001
 40
0.0
 40
0.0
 40
0.0
 40
0.0
 40
0.2476695311010556
 40
0.4998277937298909
 40
0.7446021013224526
 40
1.0
 40
1.0
 40
1.0
 40
1.0
 10
-864.8708504209417
 20
-1210.850631850698
 30
0.0
 10
-865.1960053320022
 20
-1211.010219294464
 30
0.0
 10
-865.8522082209619
 20
-1211.332286524818
 30
0.0
 10
-866.9873952715855
 20
-1211.500466168512
 30
0.0
 10
-868.1294765169271
 20
-1211.325091799432
 30
0.0
 10
-868.7912399691344
 20
-1211.011008860217
 30
0.0
 10
-869.1291495790579
 20
-1210.850631850698
 30
0.0
  0
LINE
  5
3FA
330
1F
100
AcDbEntity
  8
0
  6
SLD-Сплошная
 62
     7
370
    35
100
AcDbLine
 10
-887.0
 20
-1210.8506318507
 30
0.0
 11
-887.0
 21
-1211.6097730426
 31
0.0
  0
SPLINE
  5
3FB
330
1F
100
AcDbEntity
  8
0
  6
SLD-Сплошная
 62
     7
370
    35
100
AcDbSpline
210
0.0
220
0.0
230
1.0
 70
     8
 71
     3
 72
     9
 73
     5
 74
     0
 42
0.000000001
 43
0.00000001
 40
0.0
 40
0.0
 40
0.0
 40
0.0
 40
0.5000000000000037
 40
1.0
 40
1.0
 40
1.0
 40
1.0
 10
-705.123165459117
 20
-1213.113373550495
 30
0.0
 10
-705.1026378825973
 20
-1212.902911276454
 30
0.0
 10
-705.0615827295583
 20
-1212.481986728373
 30
0.0
 10
-705.0205275765193
 20
-1211.942138466457
 30
0.0
 10
-704.9999999999997
 20
-1211.672214335498
 30
0.0
  0
SPLINE
  5
3FC
330
1F
100
AcDbEntity
  8
0
  6
SLD-Сплошная
 62
     7
370
    35
100
AcDbSpline
210
0.0
220
0.0
230
1.0
 70
     8
 71
     3
 72
    15
 73
    11
 74
     0
 42
0.000000001
 43
0.00000001
 40
0.0
 40
0.0
 40
0.0
 40
0.0
 40
0.1493602607922086
 40
0.2777329983800051
 40
0.3916592779267791
 40
0.5004688752876965
 40
0.6044785831408107
 40
0.7170072555547811
 40
0.8469247013810033
 40
1.0
 40
1.0
 40
1.0
 40
1.0
 10
-864.8708504209417
 20
-1210.002103713274
 30
0.0
 10
-865.0241522968987
 20
-1210.173049299414
 30
0.0
 10
-865.3092146651684
 20
-1210.490919862485
 30
0.0
 10
-865.8346055043862
 20
-1210.94874347664
 30
0.0
 10
-866.4001250657774
 20
-1211.239203472001
 30
0.0
 10
-866.9891027703989
 20
-1211.338124311762
 30
0.0
 10
-867.5759490843567
 20
-1211.24147760101
 30
0.0
 10
-868.1311768922868
 20
-1210.948940367516
 30
0.0
 10
-868.6641857754025
 20
-1210.491438874473
 30
0.0
 10
-868.9659308469733
 20
-1210.173877653411
 30
0.0
 10
-869.1291495790579
 20
-1210.002103713274
 30
0.0
  0
SPLINE
  5
3FD
330
1F
100
AcDbEntity
  8
0
  6
SLD-Сплошная
 62
     7
370
    35
100
AcDbSpline
210
0.0
220
0.0
230
1.0
 70
     8
 71
     3
 72
     9
 73
     5
 74
     0
 42
0.000000001
 43
0.00000001
 40
0.0
 40
0.0
 40
0.0
 40
0.0
 40
0.4999999999999964
 40
1.0
 40
1.0
 40
1.0
 40
1.0
 10
-886.9999999999998
 20
-1211.672214335498
 30
0.0
 10
-886.9794724234803
 20
-1211.942138466457
 30
0.0
 10
-886.9384172704413
 20
-1212.481986728373
 30
0.0
 10
-886.8973621174022
 20
-1212.902911276454
 30
0.0
 10
-886.8768345408827
 20
-1213.113373550495
 30
0.0
  0
LINE
  5
3FE
330
1F
100
AcDbEntity
  8
0
  6
SLD-Сплошная
 62
     7
370
    35
100
AcDbLine
 10
895.0
 20
-1199.2577386319
 30
0.0
 11
909.0
 21
-1199.2577386319
 31
0.0
  0
LINE
  5
3FF
330
1F
100
AcDbEntity
  8
0
  6
SLD-Сплошная
 62
     7
370
    35
100
AcDbLine
 10
-895.0
 20
-1199.2577386319
 30
0.0
 11
-909.0
 21
-1199.2577386319
 31
0.0
  0
LINE
  5
400
330
1F
100
AcDbEntity
  8
0
  6
SLD-Сплошная
 62
     7
370
    35
100
AcDbLine
 10
898.75
 20
-1202.057738632
 30
0.0
 11
905.25
 21
-1202.057738632
 31
0.0
  0
LINE
  5
401
330
1F
100
AcDbEntity
  8
0
  6
SLD-Сплошная
 62
     7
370
    35
100
AcDbLine
 10
-905.25
 20
-1202.057738632
 30
0.0
 11
-898.75
 21
-1202.057738632
 31
0.0
  0
ENDSEC
  0
SECTION
  2
OBJECTS
  0
DICTIONARY
  5
C
330
0
100
AcDbDictionary
281
     1
  3
ACAD_DETAILVIEWSTYLE
350
409
  3
ACAD_GROUP
350
D
  3
ACAD_LAYOUT
350
1A
  3
ACAD_MATERIAL
350
43
  3
ACAD_MLEADERSTYLE
350
6B
  3
ACAD_MLINESTYLE
350
17
  3
ACAD_PLOTSETTINGS
350
19
  3
ACAD_PLOTSTYLENAME
350
E
  3
ACAD_SCALELIST
350
47
  3
ACAD_SECTIONVIEWSTYLE
350
40A
  3
ACAD_TABLESTYLE
350
69
  3
ACAD_VISUALSTYLE
350
2A
  3
ACDB_RECOMPOSE_DATA
350
406
  3
AcDbVariableDictionary
350
402
  0
SUN
  5
6D
330
29
100
AcDbSun
 90
        1
290
     0
 63
     7
421
 16777215
 40
1.0
291
     1
 91
  2455826
 92
 54000000
292
     0
 70
     2
 71
   256
280
     1
  0
DICTIONARY
  5
409
102
{ACAD_REACTORS
330
C
102
}
330
C
100
AcDbDictionary
281
     1
  0
DICTIONARY
  5
D
102
{ACAD_REACTORS
330
C
102
}
330
C
100
AcDbDictionary
281
     1
  0
DICTIONARY
  5
1A
102
{ACAD_REACTORS
330
C
102
}
330
C
100
AcDbDictionary
281
     1
  3
Layout1
350
1E
  3
Layout2
350
26
  3
Model
350
22
  0
DICTIONARY
  5
43
102
{ACAD_REACTORS
330
C
102
}
330
C
100
AcDbDictionary
281
     1
  3
ByBlock
350
45
  3
ByLayer
350
44
  3
Global
350
46
  0
DICTIONARY
  5
6B
102
{ACAD_REACTORS
330
C
102
}
330
C
100
AcDbDictionary
281
     1
  3
Standard
350
6C
  0
DICTIONARY
  5
17
102
{ACAD_REACTORS
330
C
102
}
330
C
100
AcDbDictionary
281
     1
  3
Standard
350
18
  0
DICTIONARY
  5
19
102
{ACAD_REACTORS
330
C
102
}
330
C
100
AcDbDictionary
281
     1
  0
ACDBDICTIONARYWDFLT
  5
E
102
{ACAD_REACTORS
330
C
102
}
330
C
100
AcDbDictionary
281
     1
  3
Normal
350
F
100
AcDbDictionaryWithDefault
340
F
  0
DICTIONARY
  5
47
102
{ACAD_REACTORS
330
C
102
}
330
C
100
AcDbDictionary
281
     1
  3
A0
350
48
  3
A1
350
49
  3
A2
350
4A
  3
A3
350
4B
  3
A4
350
4C
  3
A5
350
4D
  3
A6
350
4E
  3
A7
350
4F
  3
A8
350
50
  3
A9
350
51
  3
B0
350
52
  3
B1
350
53
  3
B2
350
54
  3
B3
350
55
  3
B4
350
56
  3
B5
350
57
  3
B6
350
58
  3
B7
350
59
  3
B8
350
5A
  3
B9
350
5B
  3
C0
350
5C
  3
C1
350
5D
  3
C2
350
5E
  3
C3
350
5F
  3
C4
350
60
  3
C5
350
61
  3
C6
350
62
  3
C7
350
63
  3
C8
350
64
  3
C9
350
65
  3
D0
350
66
  3
D1
350
67
  3
D2
350
68
  0
DICTIONARY
  5
40A
102
{ACAD_REACTORS
330
C
102
}
330
C
100
AcDbDictionary
281
     1
  0
DICTIONARY
  5
69
102
{ACAD_REACTORS
330
C
102
}
330
C
100
AcDbDictionary
281
     1
  3
Standard
350
6A
  0
DICTIONARY
  5
2A
102
{ACAD_REACTORS
330
C
102
}
330
C
100
AcDbDictionary
281
     1
  3
2dWireframe
350
2F
  3
Basic
350
32
  3
Brighten
350
36
  3
ColorChange
350
3A
  3
Conceptual
350
34
  3
Dim
350
35
  3
EdgeColorOff
350
3D
  3
Facepattern
350
39
  3
Flat
350
2B
  3
FlatWithEdges
350
2C
  3
Gouraud
350
2D
  3
GouraudWithEdges
350
2E
  3
Hidden
350
31
  3
JitterOff
350
3B
  3
Linepattern
350
38
  3
OverhangOff
350
3C
  3
Realistic
350
33
  3
Shaded
350
42
  3
Shaded with edges
350
41
  3
Shades of Gray
350
3E
  3
Sketchy
350
3F
  3
Thicken
350
37
  3
Wireframe
350
30
  3
X-Ray
350
40
  0
XRECORD
  5
406
102
{ACAD_REACTORS
330
C
102
}
330
C
100
AcDbXrecord
280
     1
 90
        1
330
6A
  0
DICTIONARY
  5
402
102
{ACAD_REACTORS
330
C
102
}
330
C
100
AcDbDictionary
281
     1
  3
CANNOSCALE
350
403
  3
CMLEADERSTYLE
350
408
  3
CTABLESTYLE
350
407
  0
LAYOUT
  5
1E
102
{ACAD_REACTORS
330
1A
102
}
330
1A
100
AcDbPlotSettings
  1

  2
none_device
  4

  6

 40
0.0
 41
0.0
 42
0.0
 43
0.0
 44
0.0
 45
0.0
 46
0.0
 47
0.0
 48
0.0
 49
0.0
140
0.0
141
0.0
142
1.0
143
1.0
 70
   688
 72
     1
 73
     0
 74
     5
  7

 75
    16
 76
     0
 77
     2
 78
   300
147
1.0
148
0.0
149
0.0
100
AcDbLayout
  1
Layout1
 70
     1
 71
     1
 10
0.0
 20
0.0
 11
420.0
 21
297.0
 12
0.0
 22
0.0
 32
0.0
 14
1.0000000000E+20
 24
1.0000000000E+20
 34
1.0000000000E+20
 15
-1.0000000000E+20
 25
-1.0000000000E+20
 35
-1.0000000000E+20
146
0.0
 13
0.0
 23
0.0
 33
0.0
 16
1.0
 26
0.0
 36
0.0
 17
0.0
 27
1.0
 37
0.0
 76
     0
330
1B
  0
LAYOUT
  5
26
102
{ACAD_REACTORS
330
1A
102
}
330
1A
100
AcDbPlotSettings
  1

  2
none_device
  4

  6

 40
0.0
 41
0.0
 42
0.0
 43
0.0
 44
0.0
 45
0.0
 46
0.0
 47
0.0
 48
0.0
 49
0.0
140
0.0
141
0.0
142
1.0
143
1.0
 70
   688
 72
     1
 73
     0
 74
     5
  7

 75
    16
 76
     0
 77
     2
 78
   300
147
1.0
148
0.0
149
0.0
100
AcDbLayout
  1
Layout2
 70
     1
 71
     2
 10
0.0
 20
0.0
 11
0.0
 21
0.0
 12
0.0
 22
0.0
 32
0.0
 14
0.0
 24
0.0
 34
0.0
 15
0.0
 25
0.0
 35
0.0
146
0.0
 13
0.0
 23
0.0
 33
0.0
 16
1.0
 26
0.0
 36
0.0
 17
0.0
 27
1.0
 37
0.0
 76
     0
330
23
  0
LAYOUT
  5
22
102
{ACAD_REACTORS
330
1A
102
}
330
1A
100
AcDbPlotSettings
  1

  2
none_device
  4
Letter_(8.50_x_11.00_Inches)
  6

 40
6.35
 41
6.35
 42
6.35000508
 43
6.35000508
 44
215.9
 45
279.4
 46
0.0
 47
0.0
 48
0.0
 49
0.0
140
0.0
141
0.0
142
1.0
143
1.0
 70
  1712
 72
     1
 73
     0
 74
     0
  7

 75
     0
 76
     0
 77
     2
 78
   300
147
1.0
148
0.0
149
0.0
100
AcDbLayout
  1
Model
 70
     1
 71
     0
 10
0.0
 20
0.0
 11
1420.0
 21
1297.0
 12
0.0
 22
0.0
 32
0.0
 14
0.0
 24
0.0
 34
0.0
 15
1420.0
 25
1297.0
 35
0.0
146
0.0
 13
0.0
 23
0.0
 33
0.0
 16
1.0
 26
0.0
 36
0.0
 17
0.0
 27
1.0
 37
0.0
 76
     0
330
1F
331
29
  0
MATERIAL
  5
45
102
{ACAD_REACTORS
330
43
102
}
330
43
100
AcDbMaterial
  1
ByBlock
 72
     1
 94
      127
  0
MATERIAL
  5
44
102
{ACAD_REACTORS
330
43
102
}
330
43
100
AcDbMaterial
  1
ByLayer
 72
     1
 94
      127
  0
MATERIAL
  5
46
102
{ACAD_REACTORS
330
43
102
}
330
43
100
AcDbMaterial
  1
Global
 72
     1
 94
      127
  0
MLEADERSTYLE
  5
6C
102
{ACAD_REACTORS
330
6B
102
}
330
6B
100
AcDbMLeaderStyle
179
     2
170
     2
171
     1
172
     0
 90
        2
 40
0.0
 41
0.0
173
     1
 91
-1056964608
340
14
 92
       -2
290
     1
 42
2.0
291
     1
 43
8.0
  3
Standard
341
0
 44
4.0
300

342
11
174
     1
178
     6
175
     1
176
     0
 93
-1056964608
 45
4.0
292
     0
297
     0
 46
4.0
343
0
 94
-1056964608
 47
1.0
 49
1.0
140
1.0
293
     1
141
0.0
294
     1
177
     0
142
1.0
295
     0
296
     0
143
3.75
271
     0
272
     9
273
     9
298
     0
  0
MLINESTYLE
  5
18
102
{ACAD_REACTORS
330
17
102
}
330
17
100
AcDbMlineStyle
  2
Standard
 70
     0
  3

 62
   256
 51
90.0
 52
90.0
 71
     2
 49
0.5
 62
   256
  6
BYLAYER
 49
-0.5
 62
   256
  6
BYLAYER
  0
ACDBPLACEHOLDER
  5
F
102
{ACAD_REACTORS
330
E
102
}
330
E
  0
SCALE
  5
48
102
{ACAD_REACTORS
330
47
102
}
330
47
100
AcDbScale
 70
     0
300
1:1
140
1.0
141
1.0
290
     1
  0
SCALE
  5
49
102
{ACAD_REACTORS
330
47
102
}
330
47
100
AcDbScale
 70
     0
300
1:2
140
1.0
141
2.0
290
     0
  0
SCALE
  5
4A
102
{ACAD_REACTORS
330
47
102
}
330
47
100
AcDbScale
 70
     0
300
1:4
140
1.0
141
4.0
290
     0
  0
SCALE
  5
4B
102
{ACAD_REACTORS
330
47
102
}
330
47
100
AcDbScale
 70
     0
300
1:5
140
1.0
141
5.0
290
     0
  0
SCALE
  5
4C
102
{ACAD_REACTORS
330
47
102
}
330
47
100
AcDbScale
 70
     0
300
1:8
140
1.0
141
8.0
290
     0
  0
SCALE
  5
4D
102
{ACAD_REACTORS
330
47
102
}
330
47
100
AcDbScale
 70
     0
300
1:10
140
1.0
141
10.0
290
     0
  0
SCALE
  5
4E
102
{ACAD_REACTORS
330
47
102
}
330
47
100
AcDbScale
 70
     0
300
1:16
140
1.0
141
16.0
290
     0
  0
SCALE
  5
4F
102
{ACAD_REACTORS
330
47
102
}
330
47
100
AcDbScale
 70
     0
300
1:20
140
1.0
141
20.0
290
     0
  0
SCALE
  5
50
102
{ACAD_REACTORS
330
47
102
}
330
47
100
AcDbScale
 70
     0
300
1:30
140
1.0
141
30.0
290
     0
  0
SCALE
  5
51
102
{ACAD_REACTORS
330
47
102
}
330
47
100
AcDbScale
 70
     0
300
1:40
140
1.0
141
40.0
290
     0
  0
SCALE
  5
52
102
{ACAD_REACTORS
330
47
102
}
330
47
100
AcDbScale
 70
     0
300
1:50
140
1.0
141
50.0
290
     0
  0
SCALE
  5
53
102
{ACAD_REACTORS
330
47
102
}
330
47
100
AcDbScale
 70
     0
300
1:100
140
1.0
141
100.0
290
     0
  0
SCALE
  5
54
102
{ACAD_REACTORS
330
47
102
}
330
47
100
AcDbScale
 70
     0
300
2:1
140
2.0
141
1.0
290
     0
  0
SCALE
  5
55
102
{ACAD_REACTORS
330
47
102
}
330
47
100
AcDbScale
 70
     0
300
4:1
140
4.0
141
1.0
290
     0
  0
SCALE
  5
56
102
{ACAD_REACTORS
330
47
102
}
330
47
100
AcDbScale
 70
     0
300
8:1
140
8.0
141
1.0
290
     0
  0
SCALE
  5
57
102
{ACAD_REACTORS
330
47
102
}
330
47
100
AcDbScale
 70
     0
300
10:1
140
10.0
141
1.0
290
     0
  0
SCALE
  5
58
102
{ACAD_REACTORS
330
47
102
}
330
47
100
AcDbScale
 70
     0
300
100:1
140
100.0
141
1.0
290
     0
  0
SCALE
  5
59
102
{ACAD_REACTORS
330
47
102
}
330
47
100
AcDbScale
 70
     0
300
1/128" = 1'-0"
140
0.0078125
141
12.0
290
     0
  0
SCALE
  5
5A
102
{ACAD_REACTORS
330
47
102
}
330
47
100
AcDbScale
 70
     0
300
1/64" = 1'-0"
140
0.015625
141
12.0
290
     0
  0
SCALE
  5
5B
102
{ACAD_REACTORS
330
47
102
}
330
47
100
AcDbScale
 70
     0
300
1/32" = 1'-0"
140
0.03125
141
12.0
290
     0
  0
SCALE
  5
5C
102
{ACAD_REACTORS
330
47
102
}
330
47
100
AcDbScale
 70
     0
300
1/16" = 1'-0"
140
0.0625
141
12.0
290
     0
  0
SCALE
  5
5D
102
{ACAD_REACTORS
330
47
102
}
330
47
100
AcDbScale
 70
     0
300
3/32" = 1'-0"
140
0.09375
141
12.0
290
     0
  0
SCALE
  5
5E
102
{ACAD_REACTORS
330
47
102
}
330
47
100
AcDbScale
 70
     0
300
1/8" = 1'-0"
140
0.125
141
12.0
290
     0
  0
SCALE
  5
5F
102
{ACAD_REACTORS
330
47
102
}
330
47
100
AcDbScale
 70
     0
300
3/16" = 1'-0"
140
0.1875
141
12.0
290
     0
  0
SCALE
  5
60
102
{ACAD_REACTORS
330
47
102
}
330
47
100
AcDbScale
 70
     0
300
1/4" = 1'-0"
140
0.25
141
12.0
290
     0
  0
SCALE
  5
61
102
{ACAD_REACTORS
330
47
102
}
330
47
100
AcDbScale
 70
     0
300
3/8" = 1'-0"
140
0.375
141
12.0
290
     0
  0
SCALE
  5
62
102
{ACAD_REACTORS
330
47
102
}
330
47
100
AcDbScale
 70
     0
300
1/2" = 1'-0"
140
0.5
141
12.0
290
     0
  0
SCALE
  5
63
102
{ACAD_REACTORS
330
47
102
}
330
47
100
AcDbScale
 70
     0
300
3/4" = 1'-0"
140
0.75
141
12.0
290
     0
  0
SCALE
  5
64
102
{ACAD_REACTORS
330
47
102
}
330
47
100
AcDbScale
 70
     0
300
1" = 1'-0"
140
1.0
141
12.0
290
     0
  0
SCALE
  5
65
102
{ACAD_REACTORS
330
47
102
}
330
47
100
AcDbScale
 70
     0
300
1-1/2" = 1'-0"
140
1.5
141
12.0
290
     0
  0
SCALE
  5
66
102
{ACAD_REACTORS
330
47
102
}
330
47
100
AcDbScale
 70
     0
300
3" = 1'-0"
140
3.0
141
12.0
290
     0
  0
SCALE
  5
67
102
{ACAD_REACTORS
330
47
102
}
330
47
100
AcDbScale
 70
     0
300
6" = 1'-0"
140
6.0
141
12.0
290
     0
  0
SCALE
  5
68
102
{ACAD_REACTORS
330
47
102
}
330
47
100
AcDbScale
 70
     0
300
1'-0" = 1'-0"
140
12.0
141
12.0
290
     0
  0
TABLESTYLE
  5
6A
102
{ACAD_REACTORS
330
69
102
}
102
{ACAD_XDICTIONARY
360
404
102
}
330
69
100
AcDbTableStyle
  3
Standard
 70
     0
 71
     0
 40
0.06
 41
0.06
280
     0
281
     0
  7
Standard
140
4.5
170
     2
 62
     0
 63
   257
283
     0
 90
        4
 91
        0
  1

274
    -2
284
     1
 64
     0
275
    -2
285
     1
 65
     0
276
    -2
286
     1
 66
     0
277
    -2
287
     1
 67
     0
278
    -2
288
     1
 68
     0
279
    -2
289
     1
 69
     0
  7
Standard
140
6.0
170
     5
 62
     0
 63
   257
283
     0
 90
        4
 91
        0
  1

274
    -2
284
     1
 64
     0
275
    -2
285
     1
 65
     0
276
    -2
286
     1
 66
     0
277
    -2
287
     1
 67
     0
278
    -2
288
     1
 68
     0
279
    -2
289
     1
 69
     0
  7
Standard
140
4.5
170
     5
 62
     0
 63
   257
283
     0
 90
        4
 91
        0
  1

274
    -2
284
     1
 64
     0
275
    -2
285
     1
 65
     0
276
    -2
286
     1
 66
     0
277
    -2
287
     1
 67
     0
278
    -2
288
     1
 68
     0
279
    -2
289
     1
 69
     0
  0
VISUALSTYLE
  5
2F
102
{ACAD_REACTORS
330
2A
102
}
330
2A
100
AcDbVisualStyle
  2
2dWireframe
 70
     4
177
     3
291
     0
 70
    58
 90
        0
176
     1
 90
        2
176
     1
 90
        0
176
     1
 90
        0
176
     1
 40
0.6
176
     1
 40
30.0
176
     1
 62
     7
420
 16777215
176
     1
 90
        1
176
     1
 90
        4
176
     1
 62
     7
176
     1
 62
   257
176
     1
 90
        1
176
     1
 90
        1
176
     1
 40
1.0
176
     1
 90
        0
176
     1
 62
   257
176
     1
 40
1.0
176
     1
 90
        1
176
     1
 90
        6
176
     1
 90
        2
176
     1
 62
     7
176
     1
 90
        5
176
     1
 90
        0
176
     1
 90
        0
176
     1
290
     0
176
     1
 90
        1
176
     1
 40
0.0
176
     1
 90
        0
176
     1
290
     1
176
     1
290
     1
176
     1
290
     0
176
     1
290
     0
176
     1
290
     0
176
     1
290
     0
176
     1
290
     0
176
     1
290
     0
176
     1
290
     0
176
     1
 90
       50
176
     1
 40
0.0
176
     1
 40
1.0
176
     1
 90
        0
176
     1
 62
    18
420
        0
176
     1
 90
       50
176
     1
 90
        3
176
     1
 62
     5
420
      255
176
     1
290
     0
176
     1
 90
       50
176
     1
 90
       50
176
     1
 90
       50
176
     1
290
     0
176
     1
 90
       50
176
     1
 62
   256
176
     0
 40
1.0
176
     0
 90
        2
176
     1
  1
strokes_ogs.tif
176
     1
290
     0
176
     1
 40
1.0
176
     1
 40
1.0
176
     1
  0
VISUALSTYLE
  5
32
102
{ACAD_REACTORS
330
2A
102
}
330
2A
100
AcDbVisualStyle
  2
Basic
 70
     7
177
     3
291
     1
 70
    58
 90
        1
176
     1
 90
        0
176
     1
 90
        1
176
     1
 90
        0
176
     1
 40
0.6
176
     1
 40
30.0
176
     1
 62
     7
420
 16777215
176
     1
 90
        0
176
     1
 90
        4
176
     1
 62
     7
176
     1
 62
   257
176
     1
 90
        1
176
     1
 90
        1
176
     1
 40
1.0
176
     1
 90
        8
176
     1
 62
     7
176
     1
 40
1.0
176
     1
 90
        1
176
     1
 90
        6
176
     1
 90
        2
176
     1
 62
     7
176
     1
 90
        5
176
     1
 90
        0
176
     1
 90
        0
176
     1
290
     0
176
     1
 90
        1
176
     1
 40
0.0
176
     1
 90
        0
176
     1
290
     0
176
     1
290
     1
176
     1
290
     1
176
     1
290
     0
176
     1
290
     0
176
     1
290
     0
176
     1
290
     0
176
     1
290
     0
176
     1
290
     0
176
     1
 90
       50
176
     1
 40
0.0
176
     1
 40
1.0
176
     1
 90
        0
176
     1
 62
    18
420
        0
176
     1
 90
       50
176
     1
 90
        3
176
     1
 62
     5
420
      255
176
     1
290
     0
176
     1
 90
       50
176
     1
 90
       50
176
     1
 90
       50
176
     1
290
     0
176
     1
 90
       50
176
     1
 62
   256
176
     0
 40
1.0
176
     0
 90
        2
176
     1
  1
strokes_ogs.tif
176
     1
290
     0
176
     1
 40
1.0
176
     1
 40
1.0
176
     1
  0
VISUALSTYLE
  5
36
102
{ACAD_REACTORS
330
2A
102
}
330
2A
100
AcDbVisualStyle
  2
Brighten
 70
    12
177
     3
291
     1
 70
    58
 90
        2
176
     1
 90
        2
176
     1
 90
        0
176
     1
 90
        0
176
     1
 40
0.6
176
     1
 40
30.0
176
     1
 62
     7
420
 16777215
176
     1
 90
        1
176
     1
 90
        4
176
     1
 62
     7
176
     1
 62
   257
176
     1
 90
        1
176
     1
 90
        1
176
     1
 40
1.0
176
     1
 90
        8
176
     1
 62
     7
176
     1
 40
1.0
176
     1
 90
        1
176
     1
 90
        6
176
     1
 90
        2
176
     1
 62
     7
176
     1
 90
        5
176
     1
 90
        0
176
     1
 90
        0
176
     1
290
     0
176
     1
 90
        1
176
     1
 40
50.0
176
     1
 90
        0
176
     1
290
     0
176
     1
290
     1
176
     1
290
     1
176
     1
290
     0
176
     1
290
     0
176
     1
290
     0
176
     1
290
     0
176
     1
290
     0
176
     1
290
     0
176
     1
 90
       50
176
     1
 40
0.0
176
     1
 40
1.0
176
     1
 90
        0
176
     1
 62
    18
420
        0
176
     1
 90
       50
176
     1
 90
        3
176
     1
 62
     5
420
      255
176
     1
290
     0
176
     1
 90
       50
176
     1
 90
       50
176
     1
 90
       50
176
     1
290
     0
176
     1
 90
       50
176
     1
 62
   256
176
     0
 40
1.0
176
     0
 90
        2
176
     1
  1
strokes_ogs.tif
176
     1
290
     0
176
     1
 40
1.0
176
     1
 40
1.0
176
     1
  0
VISUALSTYLE
  5
3A
102
{ACAD_REACTORS
330
2A
102
}
330
2A
100
AcDbVisualStyle
  2
ColorChange
 70
    16
177
     3
291
     1
 70
    58
 90
        2
176
     1
 90
        2
176
     1
 90
        3
176
     1
 90
        0
176
     1
 40
0.6
176
     1
 40
30.0
176
     1
 62
     8
420
  8421504
176
     1
 90
        1
176
     1
 90
        4
176
     1
 62
     7
176
     1
 62
   257
176
     1
 90
        1
176
     1
 90
        1
176
     1
 40
1.0
176
     1
 90
        8
176
     1
 62
     8
420
  8421504
176
     1
 40
1.0
176
     1
 90
        1
176
     1
 90
        6
176
     1
 90
        2
176
     1
 62
     7
176
     1
 90
        5
176
     1
 90
        0
176
     1
 90
        0
176
     1
290
     0
176
     1
 90
        1
176
     1
 40
0.0
176
     1
 90
        0
176
     1
290
     0
176
     1
290
     1
176
     1
290
     1
176
     1
290
     0
176
     1
290
     0
176
     1
290
     0
176
     1
290
     0
176
     1
290
     0
176
     1
290
     0
176
     1
 90
       50
176
     1
 40
0.0
176
     1
 40
1.0
176
     1
 90
        0
176
     1
 62
    18
420
        0
176
     1
 90
       50
176
     1
 90
        3
176
     1
 62
     5
420
      255
176
     1
290
     0
176
     1
 90
       50
176
     1
 90
       50
176
     1
 90
       50
176
     1
290
     0
176
     1
 90
       50
176
     1
 62
   256
176
     0
 40
1.0
176
     0
 90
        2
176
     1
  1
strokes_ogs.tif
176
     1
290
     0
176
     1
 40
1.0
176
     1
 40
1.0
176
     1
  0
VISUALSTYLE
  5
34
102
{ACAD_REACTORS
330
2A
102
}
330
2A
100
AcDbVisualStyle
  2
Conceptual
 70
     9
177
     3
291
     0
 70
    58
 90
        3
176
     1
 90
        2
176
     1
 90
        0
176
     1
 90
        0
176
     1
 40
0.6
176
     1
 40
30.0
176
     1
 62
     7
420
 16777215
176
     1
 90
        2
176
     1
 90
        2
176
     1
 62
     7
176
     1
 62
   257
176
     1
 90
        1
176
     1
 90
        1
176
     1
 40
179.0
176
     1
 90
        8
176
     1
 62
     7
176
     1
 40
1.0
176
     1
 90
        1
176
     1
 90
        6
176
     1
 90
        2
176
     1
 62
     7
176
     1
 90
        3
176
     1
 90
        0
176
     1
 90
        0
176
     1
290
     0
176
     1
 90
        1
176
     1
 40
0.0
176
     1
 90
        0
176
     1
290
     0
176
     1
290
     1
176
     1
290
     1
176
     1
290
     0
176
     1
290
     0
176
     1
290
     0
176
     1
290
     0
176
     1
290
     0
176
     1
290
     0
176
     1
 90
       50
176
     1
 40
0.0
176
     1
 40
1.0
176
     1
 90
        0
176
     1
 62
    18
420
        0
176
     1
 90
       50
176
     1
 90
        3
176
     1
 62
     5
420
      255
176
     1
290
     0
176
     1
 90
       50
176
     1
 90
       50
176
     1
 90
       50
176
     1
290
     0
176
     1
 90
       50
176
     1
 62
   256
176
     0
 40
1.0
176
     0
 90
        2
176
     1
  1
strokes_ogs.tif
176
     1
290
     0
176
     1
 40
1.0
176
     1
 40
1.0
176
     1
  0
VISUALSTYLE
  5
35
102
{ACAD_REACTORS
330
2A
102
}
330
2A
100
AcDbVisualStyle
  2
Dim
 70
    11
177
     3
291
     1
 70
    58
 90
        2
176
     1
 90
        2
176
     1
 90
        0
176
     1
 90
        0
176
     1
 40
0.6
176
     1
 40
30.0
176
     1
 62
     7
420
 16777215
176
     1
 90
        1
176
     1
 90
        4
176
     1
 62
     7
176
     1
 62
   257
176
     1
 90
        1
176
     1
 90
        1
176
     1
 40
1.0
176
     1
 90
        8
176
     1
 62
     7
176
     1
 40
1.0
176
     1
 90
        1
176
     1
 90
        6
176
     1
 90
        2
176
     1
 62
     7
176
     1
 90
        5
176
     1
 90
        0
176
     1
 90
        0
176
     1
290
     0
176
     1
 90
        1
176
     1
 40
-50.0
176
     1
 90
        0
176
     1
290
     0
176
     1
290
     1
176
     1
290
     1
176
     1
290
     0
176
     1
290
     0
176
     1
290
     0
176
     1
290
     0
176
     1
290
     0
176
     1
290
     0
176
     1
 90
       50
176
     1
 40
0.0
176
     1
 40
1.0
176
     1
 90
        0
176
     1
 62
    18
420
        0
176
     1
 90
       50
176
     1
 90
        3
176
     1
 62
     5
420
      255
176
     1
290
     0
176
     1
 90
       50
176
     1
 90
       50
176
     1
 90
       50
176
     1
290
     0
176
     1
 90
       50
176
     1
 62
   256
176
     0
 40
1.0
176
     0
 90
        2
176
     1
  1
strokes_ogs.tif
176
     1
290
     0
176
     1
 40
1.0
176
     1
 40
1.0
176
     1
  0
VISUALSTYLE
  5
3D
102
{ACAD_REACTORS
330
2A
102
}
330
2A
100
AcDbVisualStyle
  2
EdgeColorOff
 70
    22
177
     3
291
     1
 70
    58
 90
        2
176
     0
 90
        2
176
     0
 90
        0
176
     0
 90
        0
176
     0
 40
0.6
176
     0
 40
30.0
176
     0
 62
     7
420
 16777215
176
     0
 90
        1
176
     0
 90
        4
176
     0
 62
     7
176
     0
 62
   257
176
     0
 90
        1
176
     0
 90
        1
176
     0
 40
1.0
176
     0
 90
        8
176
     2
 62
     7
176
     0
 40
1.0
176
     0
 90
        1
176
     0
 90
        6
176
     0
 90
        2
176
     0
 62
     7
176
     0
 90
        5
176
     0
 90
        0
176
     0
 90
        0
176
     0
290
     0
176
     0
 90
        1
176
     0
 40
0.0
176
     0
 90
        0
176
     0
290
     0
176
     0
290
     1
176
     0
290
     1
176
     0
290
     0
176
     0
290
     0
176
     0
290
     0
176
     0
290
     0
176
     0
290
     0
176
     0
290
     0
176
     0
 90
       50
176
     0
 40
0.0
176
     0
 40
1.0
176
     0
 90
        0
176
     0
 62
    18
420
        0
176
     0
 90
       50
176
     0
 90
        3
176
     0
 62
     5
420
      255
176
     0
290
     0
176
     0
 90
       50
176
     0
 90
       50
176
     0
 90
       50
176
     0
290
     0
176
     0
 90
       50
176
     0
 62
   256
176
     0
 40
1.0
176
     0
 90
        2
176
     0
  1
strokes_ogs.tif
176
     0
290
     0
176
     0
 40
1.0
176
     0
 40
1.0
176
     0
  0
VISUALSTYLE
  5
39
102
{ACAD_REACTORS
330
2A
102
}
330
2A
100
AcDbVisualStyle
  2
Facepattern
 70
    15
177
     3
291
     1
 70
    58
 90
        2
176
     1
 90
        2
176
     1
 90
        0
176
     1
 90
        0
176
     1
 40
0.6
176
     1
 40
30.0
176
     1
 62
     7
420
 16777215
176
     1
 90
        1
176
     1
 90
        4
176
     1
 62
     7
176
     1
 62
   257
176
     1
 90
        1
176
     1
 90
        1
176
     1
 40
1.0
176
     1
 90
        8
176
     1
 62
     7
176
     1
 40
1.0
176
     1
 90
        1
176
     1
 90
        6
176
     1
 90
        2
176
     1
 62
     7
176
     1
 90
        5
176
     1
 90
        0
176
     1
 90
        0
176
     1
290
     0
176
     1
 90
        1
176
     1
 40
0.0
176
     1
 90
        0
176
     1
290
     0
176
     1
290
     1
176
     1
290
     1
176
     1
290
     0
176
     1
290
     0
176
     1
290
     0
176
     1
290
     0
176
     1
290
     0
176
     1
290
     0
176
     1
 90
       50
176
     1
 40
0.0
176
     1
 40
1.0
176
     1
 90
        0
176
     1
 62
    18
420
        0
176
     1
 90
       50
176
     1
 90
        3
176
     1
 62
     5
420
      255
176
     1
290
     0
176
     1
 90
       50
176
     1
 90
       50
176
     1
 90
       50
176
     1
290
     0
176
     1
 90
       50
176
     1
 62
   256
176
     0
 40
1.0
176
     0
 90
        2
176
     1
  1
strokes_ogs.tif
176
     1
290
     0
176
     1
 40
1.0
176
     1
 40
1.0
176
     1
  0
VISUALSTYLE
  5
2B
102
{ACAD_REACTORS
330
2A
102
}
330
2A
100
AcDbVisualStyle
  2
Flat
 70
     0
177
     3
291
     1
 70
    58
 90
        2
176
     1
 90
        1
176
     1
 90
        1
176
     1
 90
        2
176
     1
 40
0.6
176
     1
 40
30.0
176
     1
 62
     7
420
 16777215
176
     1
 90
        0
176
     1
 90
        0
176
     1
 62
     7
176
     1
 62
   257
176
     1
 90
        1
176
     1
 90
        1
176
     1
 40
1.0
176
     1
 90
        8
176
     1
 62
     7
176
     1
 40
1.0
176
     1
 90
        1
176
     1
 90
        6
176
     1
 90
        2
176
     1
 62
     7
176
     1
 90
        5
176
     1
 90
        0
176
     1
 90
        0
176
     1
290
     0
176
     1
 90
       13
176
     1
 40
0.0
176
     1
 90
        0
176
     1
290
     0
176
     1
290
     1
176
     1
290
     1
176
     1
290
     0
176
     1
290
     0
176
     1
290
     0
176
     1
290
     0
176
     1
290
     0
176
     1
290
     0
176
     1
 90
       50
176
     1
 40
0.0
176
     1
 40
1.0
176
     1
 90
        0
176
     1
 62
    18
420
        0
176
     1
 90
       50
176
     1
 90
        3
176
     1
 62
     5
420
      255
176
     1
290
     0
176
     1
 90
       50
176
     1
 90
       50
176
     1
 90
       50
176
     1
290
     0
176
     1
 90
       50
176
     1
 62
   256
176
     0
 40
1.0
176
     0
 90
        2
176
     1
  1
strokes_ogs.tif
176
     1
290
     0
176
     1
 40
1.0
176
     1
 40
1.0
176
     1
  0
VISUALSTYLE
  5
2C
102
{ACAD_REACTORS
330
2A
102
}
330
2A
100
AcDbVisualStyle
  2
FlatWithEdges
 70
     1
177
     3
291
     1
 70
    58
 90
        2
176
     1
 90
        1
176
     1
 90
        1
176
     1
 90
        2
176
     1
 40
0.6
176
     1
 40
30.0
176
     1
 62
     7
420
 16777215
176
     1
 90
        1
176
     1
 90
        0
176
     1
 62
     7
176
     1
 62
   257
176
     1
 90
        1
176
     1
 90
        1
176
     1
 40
1.0
176
     1
 90
        0
176
     1
 62
   257
176
     1
 40
1.0
176
     1
 90
        1
176
     1
 90
        6
176
     1
 90
        2
176
     1
 62
     7
176
     1
 90
        5
176
     1
 90
        0
176
     1
 90
        0
176
     1
290
     0
176
     1
 90
       13
176
     1
 40
0.0
176
     1
 90
        0
176
     1
290
     0
176
     1
290
     1
176
     1
290
     1
176
     1
290
     0
176
     1
290
     0
176
     1
290
     0
176
     1
290
     0
176
     1
290
     0
176
     1
290
     0
176
     1
 90
       50
176
     1
 40
0.0
176
     1
 40
1.0
176
     1
 90
        0
176
     1
 62
    18
420
        0
176
     1
 90
       50
176
     1
 90
        3
176
     1
 62
     5
420
      255
176
     1
290
     0
176
     1
 90
       50
176
     1
 90
       50
176
     1
 90
       50
176
     1
290
     0
176
     1
 90
       50
176
     1
 62
   256
176
     0
 40
1.0
176
     0
 90
        2
176
     1
  1
strokes_ogs.tif
176
     1
290
     0
176
     1
 40
1.0
176
     1
 40
1.0
176
     1
  0
VISUALSTYLE
  5
2D
102
{ACAD_REACTORS
330
2A
102
}
330
2A
100
AcDbVisualStyle
  2
Gouraud
 70
     2
177
     3
291
     1
 70
    58
 90
        2
176
     1
 90
        2
176
     1
 90
        1
176
     1
 90
        2
176
     1
 40
0.6
176
     1
 40
30.0
176
     1
 62
     7
420
 16777215
176
     1
 90
        0
176
     1
 90
        0
176
     1
 62
     7
176
     1
 62
   257
176
     1
 90
        1
176
     1
 90
        1
176
     1
 40
1.0
176
     1
 90
        0
176
     1
 62
     7
176
     1
 40
1.0
176
     1
 90
        1
176
     1
 90
        6
176
     1
 90
        2
176
     1
 62
     7
176
     1
 90
        5
176
     1
 90
        0
176
     1
 90
        0
176
     1
290
     0
176
     1
 90
       13
176
     1
 40
0.0
176
     1
 90
        0
176
     1
290
     0
176
     1
290
     1
176
     1
290
     1
176
     1
290
     0
176
     1
290
     0
176
     1
290
     0
176
     1
290
     0
176
     1
290
     0
176
     1
290
     0
176
     1
 90
       50
176
     1
 40
0.0
176
     1
 40
1.0
176
     1
 90
        0
176
     1
 62
    18
420
        0
176
     1
 90
       50
176
     1
 90
        3
176
     1
 62
     5
420
      255
176
     1
290
     0
176
     1
 90
       50
176
     1
 90
       50
176
     1
 90
       50
176
     1
290
     0
176
     1
 90
       50
176
     1
 62
   256
176
     0
 40
1.0
176
     0
 90
        2
176
     1
  1
strokes_ogs.tif
176
     1
290
     0
176
     1
 40
1.0
176
     1
 40
1.0
176
     1
  0
VISUALSTYLE
  5
2E
102
{ACAD_REACTORS
330
2A
102
}
330
2A
100
AcDbVisualStyle
  2
GouraudWithEdges
 70
     3
177
     3
291
     1
 70
    58
 90
        2
176
     1
 90
        2
176
     1
 90
        1
176
     1
 90
        2
176
     1
 40
0.6
176
     1
 40
30.0
176
     1
 62
     7
420
 16777215
176
     1
 90
        1
176
     1
 90
        0
176
     1
 62
     7
176
     1
 62
   257
176
     1
 90
        1
176
     1
 90
        1
176
     1
 40
1.0
176
     1
 90
        0
176
     1
 62
   257
176
     1
 40
1.0
176
     1
 90
        1
176
     1
 90
        6
176
     1
 90
        2
176
     1
 62
     7
176
     1
 90
        5
176
     1
 90
        0
176
     1
 90
        0
176
     1
290
     0
176
     1
 90
       13
176
     1
 40
0.0
176
     1
 90
        0
176
     1
290
     0
176
     1
290
     1
176
     1
290
     1
176
     1
290
     0
176
     1
290
     0
176
     1
290
     0
176
     1
290
     0
176
     1
290
     0
176
     1
290
     0
176
     1
 90
       50
176
     1
 40
0.0
176
     1
 40
1.0
176
     1
 90
        0
176
     1
 62
    18
420
        0
176
     1
 90
       50
176
     1
 90
        3
176
     1
 62
     5
420
      255
176
     1
290
     0
176
     1
 90
       50
176
     1
 90
       50
176
     1
 90
       50
176
     1
290
     0
176
     1
 90
       50
176
     1
 62
   256
176
     0
 40
1.0
176
     0
 90
        2
176
     1
  1
strokes_ogs.tif
176
     1
290
     0
176
     1
 40
1.0
176
     1
 40
1.0
176
     1
  0
VISUALSTYLE
  5
31
102
{ACAD_REACTORS
330
2A
102
}
330
2A
100
AcDbVisualStyle
  2
Hidden
 70
     6
177
     3
291
     0
 70
    58
 90
        1
176
     1
 90
        2
176
     1
 90
        2
176
     1
 90
        0
176
     1
 40
0.6
176
     1
 40
30.0
176
     1
 62
     7
420
 16777215
176
     1
 90
        2
176
     1
 90
        2
176
     1
 62
     7
176
     1
 62
   257
176
     1
 90
        2
176
     1
 90
        1
176
     1
 40
40.0
176
     1
 90
        0
176
     1
 62
   257
176
     1
 40
1.0
176
     1
 90
        1
176
     1
 90
        6
176
     1
 90
        2
176
     1
 62
     7
176
     1
 90
        3
176
     1
 90
        0
176
     1
 90
        0
176
     1
290
     0
176
     1
 90
        1
176
     1
 40
0.0
176
     1
 90
        0
176
     1
290
     0
176
     1
290
     1
176
     1
290
     1
176
     1
290
     0
176
     1
290
     0
176
     1
290
     0
176
     1
290
     0
176
     1
290
     0
176
     1
290
     0
176
     1
 90
       50
176
     1
 40
0.0
176
     1
 40
1.0
176
     1
 90
        0
176
     1
 62
    18
420
        0
176
     1
 90
       50
176
     1
 90
        3
176
     1
 62
     5
420
      255
176
     1
290
     0
176
     1
 90
       50
176
     1
 90
       50
176
     1
 90
       50
176
     1
290
     0
176
     1
 90
       50
176
     1
 62
   256
176
     0
 40
1.0
176
     0
 90
        2
176
     1
  1
strokes_ogs.tif
176
     1
290
     0
176
     1
 40
1.0
176
     1
 40
1.0
176
     1
  0
VISUALSTYLE
  5
3B
102
{ACAD_REACTORS
330
2A
102
}
330
2A
100
AcDbVisualStyle
  2
JitterOff
 70
    20
177
     3
291
     1
 70
    58
 90
        2
176
     0
 90
        2
176
     0
 90
        0
176
     0
 90
        0
176
     0
 40
0.6
176
     0
 40
30.0
176
     0
 62
     7
420
 16777215
176
     0
 90
        1
176
     0
 90
        4
176
     0
 62
     7
176
     0
 62
   257
176
     0
 90
        1
176
     0
 90
        1
176
     0
 40
1.0
176
     0
 90
       10
176
     2
 62
     7
176
     0
 40
1.0
176
     0
 90
        1
176
     0
 90
        6
176
     0
 90
        2
176
     0
 62
     7
176
     0
 90
        5
176
     0
 90
        0
176
     0
 90
        0
176
     0
290
     0
176
     0
 90
        1
176
     0
 40
0.0
176
     0
 90
        0
176
     0
290
     0
176
     0
290
     1
176
     0
290
     1
176
     0
290
     0
176
     0
290
     0
176
     0
290
     0
176
     0
290
     0
176
     0
290
     0
176
     0
290
     0
176
     0
 90
       50
176
     0
 40
0.0
176
     0
 40
1.0
176
     0
 90
        0
176
     0
 62
    18
420
        0
176
     0
 90
       50
176
     0
 90
        3
176
     0
 62
     5
420
      255
176
     0
290
     0
176
     0
 90
       50
176
     0
 90
       50
176
     0
 90
       50
176
     0
290
     0
176
     0
 90
       50
176
     0
 62
   256
176
     0
 40
1.0
176
     0
 90
        2
176
     0
  1
strokes_ogs.tif
176
     0
290
     0
176
     0
 40
1.0
176
     0
 40
1.0
176
     0
  0
VISUALSTYLE
  5
38
102
{ACAD_REACTORS
330
2A
102
}
330
2A
100
AcDbVisualStyle
  2
Linepattern
 70
    14
177
     3
291
     1
 70
    58
 90
        2
176
     1
 90
        2
176
     1
 90
        0
176
     1
 90
        0
176
     1
 40
0.6
176
     1
 40
30.0
176
     1
 62
     7
420
 16777215
176
     1
 90
        1
176
     1
 90
        4
176
     1
 62
     7
176
     1
 62
   257
176
     1
 90
        7
176
     1
 90
        7
176
     1
 40
1.0
176
     1
 90
        8
176
     1
 62
     7
176
     1
 40
1.0
176
     1
 90
        1
176
     1
 90
        6
176
     1
 90
        2
176
     1
 62
     7
176
     1
 90
        5
176
     1
 90
        0
176
     1
 90
        0
176
     1
290
     0
176
     1
 90
        1
176
     1
 40
0.0
176
     1
 90
        0
176
     1
290
     0
176
     1
290
     1
176
     1
290
     1
176
     1
290
     0
176
     1
290
     0
176
     1
290
     0
176
     1
290
     0
176
     1
290
     0
176
     1
290
     0
176
     1
 90
       50
176
     1
 40
0.0
176
     1
 40
1.0
176
     1
 90
        0
176
     1
 62
    18
420
        0
176
     1
 90
       50
176
     1
 90
        3
176
     1
 62
     5
420
      255
176
     1
290
     0
176
     1
 90
       50
176
     1
 90
       50
176
     1
 90
       50
176
     1
290
     0
176
     1
 90
       50
176
     1
 62
   256
176
     0
 40
1.0
176
     0
 90
        2
176
     1
  1
strokes_ogs.tif
176
     1
290
     0
176
     1
 40
1.0
176
     1
 40
1.0
176
     1
  0
VISUALSTYLE
  5
3C
102
{ACAD_REACTORS
330
2A
102
}
330
2A
100
AcDbVisualStyle
  2
OverhangOff
 70
    21
177
     3
291
     1
 70
    58
 90
        2
176
     0
 90
        2
176
     0
 90
        0
176
     0
 90
        0
176
     0
 40
0.6
176
     0
 40
30.0
176
     0
 62
     7
420
 16777215
176
     0
 90
        1
176
     0
 90
        4
176
     0
 62
     7
176
     0
 62
   257
176
     0
 90
        1
176
     0
 90
        1
176
     0
 40
1.0
176
     0
 90
        9
176
     2
 62
     7
176
     0
 40
1.0
176
     0
 90
        1
176
     0
 90
        6
176
     0
 90
        2
176
     0
 62
     7
176
     0
 90
        5
176
     0
 90
        0
176
     0
 90
        0
176
     0
290
     0
176
     0
 90
        1
176
     0
 40
0.0
176
     0
 90
        0
176
     0
290
     0
176
     0
290
     1
176
     0
290
     1
176
     0
290
     0
176
     0
290
     0
176
     0
290
     0
176
     0
290
     0
176
     0
290
     0
176
     0
290
     0
176
     0
 90
       50
176
     0
 40
0.0
176
     0
 40
1.0
176
     0
 90
        0
176
     0
 62
    18
420
        0
176
     0
 90
       50
176
     0
 90
        3
176
     0
 62
     5
420
      255
176
     0
290
     0
176
     0
 90
       50
176
     0
 90
       50
176
     0
 90
       50
176
     0
290
     0
176
     0
 90
       50
176
     0
 62
   256
176
     0
 40
1.0
176
     0
 90
        2
176
     0
  1
strokes_ogs.tif
176
     0
290
     0
176
     0
 40
1.0
176
     0
 40
1.0
176
     0
  0
VISUALSTYLE
  5
33
102
{ACAD_REACTORS
330
2A
102
}
330
2A
100
AcDbVisualStyle
  2
Realistic
 70
     8
177
     3
291
     0
 70
    58
 90
        2
176
     1
 90
        3
176
     1
 90
        0
176
     1
 90
        2
176
     1
 40
0.6
176
     1
 40
30.0
176
     1
 62
     7
420
 16777215
176
     1
 90
        0
176
     1
 90
        0
176
     1
 62
     7
176
     1
 62
   257
176
     1
 90
        1
176
     1
 90
        1
176
     1
 40
1.0
176
     1
 90
        8
176
     1
 62
   257
176
     1
 40
1.0
176
     1
 90
        1
176
     1
 90
        6
176
     1
 90
        2
176
     1
 62
     7
176
     1
 90
        3
176
     1
 90
        0
176
     1
 90
        0
176
     1
290
     0
176
     1
 90
       13
176
     1
 40
0.0
176
     1
 90
        0
176
     1
290
     0
176
     1
290
     1
176
     1
290
     1
176
     1
290
     0
176
     1
290
     0
176
     1
290
     0
176
     1
290
     0
176
     1
290
     0
176
     1
290
     0
176
     1
 90
       50
176
     1
 40
0.0
176
     1
 40
1.0
176
     1
 90
        0
176
     1
 62
    18
420
        0
176
     1
 90
       50
176
     1
 90
        3
176
     1
 62
     5
420
      255
176
     1
290
     0
176
     1
 90
       50
176
     1
 90
       50
176
     1
 90
       50
176
     1
290
     0
176
     1
 90
       50
176
     1
 62
   256
176
     0
 40
1.0
176
     0
 90
        2
176
     1
  1
strokes_ogs.tif
176
     1
290
     0
176
     1
 40
1.0
176
     1
 40
1.0
176
     1
  0
VISUALSTYLE
  5
42
102
{ACAD_REACTORS
330
2A
102
}
330
2A
100
AcDbVisualStyle
  2
Shaded
 70
    27
177
     3
291
     0
 70
    58
 90
        2
176
     1
 90
        2
176
     1
 90
        1
176
     1
 90
        2
176
     1
 40
0.6
176
     1
 40
30.0
176
     1
 62
     7
420
 16777215
176
     1
 90
        0
176
     1
 90
        4
176
     1
 62
     7
176
     1
 62
   257
176
     1
 90
        1
176
     1
 90
        1
176
     1
 40
1.0
176
     1
 90
        8
176
     1
 62
   257
176
     1
 40
1.0
176
     1
 90
        1
176
     1
 90
        6
176
     1
 90
        2
176
     1
 62
     8
420
  7895160
176
     1
 90
        3
176
     1
 90
        0
176
     1
 90
        0
176
     1
290
     0
176
     1
 90
        5
176
     1
 40
0.0
176
     1
 90
        0
176
     1
290
     0
176
     1
290
     1
176
     1
290
     1
176
     1
290
     0
176
     1
290
     0
176
     1
290
     0
176
     1
290
     0
176
     1
290
     0
176
     1
290
     0
176
     1
 90
       50
176
     1
 40
0.0
176
     1
 40
1.0
176
     1
 90
        0
176
     1
 62
    18
420
        0
176
     1
 90
       50
176
     1
 90
        3
176
     1
 62
     5
420
      255
176
     1
290
     0
176
     1
 90
       50
176
     1
 90
       50
176
     1
 90
       50
176
     1
290
     0
176
     1
 90
       50
176
     1
 62
   256
176
     0
 40
1.0
176
     0
 90
        2
176
     1
  1
strokes_ogs.tif
176
     1
290
     0
176
     1
 40
1.0
176
     1
 40
1.0
176
     1
  0
VISUALSTYLE
  5
41
102
{ACAD_REACTORS
330
2A
102
}
330
2A
100
AcDbVisualStyle
  2
Shaded with edges
 70
    26
177
     3
291
     0
 70
    58
 90
        2
176
     1
 90
        2
176
     1
 90
        1
176
     1
 90
        2
176
     1
 40
0.6
176
     1
 40
30.0
176
     1
 62
     7
420
 16777215
176
     1
 90
        1
176
     1
 90
       10
176
     1
 62
     7
176
     1
 62
   257
176
     1
 90
        2
176
     1
 90
        1
176
     1
 40
1.0
176
     1
 90
        8
176
     1
 62
   257
176
     1
 40
1.0
176
     1
 90
        1
176
     1
 90
        6
176
     1
 90
        2
176
     1
 62
     7
176
     1
 90
        3
176
     1
 90
        0
176
     1
 90
        0
176
     1
290
     0
176
     1
 90
        5
176
     1
 40
0.0
176
     1
 90
        0
176
     1
290
     0
176
     1
290
     1
176
     1
290
     1
176
     1
290
     0
176
     1
290
     0
176
     1
290
     0
176
     1
290
     0
176
     1
290
     0
176
     1
290
     0
176
     1
 90
       50
176
     1
 40
0.0
176
     1
 40
1.0
176
     1
 90
        0
176
     1
 62
    18
420
        0
176
     1
 90
       50
176
     1
 90
        3
176
     1
 62
     5
420
      255
176
     1
290
     0
176
     1
 90
       50
176
     1
 90
       50
176
     1
 90
       50
176
     1
290
     0
176
     1
 90
       50
176
     1
 62
   256
176
     0
 40
1.0
176
     0
 90
        2
176
     1
  1
strokes_ogs.tif
176
     1
290
     0
176
     1
 40
1.0
176
     1
 40
1.0
176
     1
  0
VISUALSTYLE
  5
3E
102
{ACAD_REACTORS
330
2A
102
}
330
2A
100
AcDbVisualStyle
  2
Shades of Gray
 70
    23
177
     3
291
     0
 70
    58
 90
        2
176
     1
 90
        2
176
     1
 90
        3
176
     1
 90
        0
176
     1
 40
0.6
176
     1
 40
30.0
176
     1
 62
     7
420
 16777215
176
     1
 90
        2
176
     1
 90
        2
176
     1
 62
     7
176
     1
 62
     7
176
     1
 90
        1
176
     1
 90
        1
176
     1
 40
40.0
176
     1
 90
        8
176
     1
 62
     7
176
     1
 40
1.0
176
     1
 90
        1
176
     1
 90
        6
176
     1
 90
        2
176
     1
 62
     7
176
     1
 90
        3
176
     1
 90
        0
176
     1
 90
        0
176
     1
290
     0
176
     1
 90
        1
176
     1
 40
0.0
176
     1
 90
        0
176
     1
290
     0
176
     1
290
     1
176
     1
290
     1
176
     1
290
     0
176
     1
290
     0
176
     1
290
     0
176
     1
290
     0
176
     1
290
     0
176
     1
290
     0
176
     1
 90
       50
176
     1
 40
0.0
176
     1
 40
1.0
176
     1
 90
        0
176
     1
 62
    18
420
        0
176
     1
 90
       50
176
     1
 90
        3
176
     1
 62
     5
420
      255
176
     1
290
     0
176
     1
 90
       50
176
     1
 90
       50
176
     1
 90
       50
176
     1
290
     0
176
     1
 90
       50
176
     1
 62
   256
176
     0
 40
1.0
176
     0
 90
        2
176
     1
  1
strokes_ogs.tif
176
     1
290
     0
176
     1
 40
1.0
176
     1
 40
1.0
176
     1
  0
VISUALSTYLE
  5
3F
102
{ACAD_REACTORS
330
2A
102
}
330
2A
100
AcDbVisualStyle
  2
Sketchy
 70
    24
177
     3
291
     0
 70
    58
 90
        1
176
     1
 90
        2
176
     1
 90
        2
176
     1
 90
        0
176
     1
 40
0.6
176
     1
 40
30.0
176
     1
 62
     7
420
 16777215
176
     1
 90
        2
176
     1
 90
        2
176
     1
 62
     7
176
     1
 62
     7
176
     1
 90
        1
176
     1
 90
        1
176
     1
 40
40.0
176
     1
 90
       11
176
     1
 62
     7
176
     1
 40
1.0
176
     1
 90
        1
176
     1
 90
        6
176
     1
 90
        2
176
     1
 62
     7
176
     1
 90
        6
176
     1
 90
        0
176
     1
 90
        0
176
     1
290
     0
176
     1
 90
        1
176
     1
 40
0.0
176
     1
 90
        0
176
     1
290
     0
176
     1
290
     1
176
     1
290
     1
176
     1
290
     0
176
     1
290
     0
176
     1
290
     0
176
     1
290
     0
176
     1
290
     0
176
     1
290
     0
176
     1
 90
       50
176
     1
 40
0.0
176
     1
 40
1.0
176
     1
 90
        0
176
     1
 62
    18
420
        0
176
     1
 90
       50
176
     1
 90
        3
176
     1
 62
     5
420
      255
176
     1
290
     0
176
     1
 90
       50
176
     1
 90
       50
176
     1
 90
       50
176
     1
290
     0
176
     1
 90
       50
176
     1
 62
   256
176
     0
 40
1.0
176
     0
 90
        2
176
     1
  1
strokes_ogs.tif
176
     1
290
     0
176
     1
 40
1.0
176
     1
 40
1.0
176
     1
  0
VISUALSTYLE
  5
37
102
{ACAD_REACTORS
330
2A
102
}
330
2A
100
AcDbVisualStyle
  2
Thicken
 70
    13
177
     3
291
     1
 70
    58
 90
        2
176
     1
 90
        2
176
     1
 90
        0
176
     1
 90
        0
176
     1
 40
0.6
176
     1
 40
30.0
176
     1
 62
     7
420
 16777215
176
     1
 90
        1
176
     1
 90
        4
176
     1
 62
     7
176
     1
 62
   257
176
     1
 90
        1
176
     1
 90
        1
176
     1
 40
1.0
176
     1
 90
       12
176
     1
 62
     7
176
     1
 40
1.0
176
     1
 90
        1
176
     1
 90
        6
176
     1
 90
        2
176
     1
 62
     7
176
     1
 90
        5
176
     1
 90
        0
176
     1
 90
        0
176
     1
290
     0
176
     1
 90
        1
176
     1
 40
0.0
176
     1
 90
        0
176
     1
290
     0
176
     1
290
     1
176
     1
290
     1
176
     1
290
     0
176
     1
290
     0
176
     1
290
     0
176
     1
290
     0
176
     1
290
     0
176
     1
290
     0
176
     1
 90
       50
176
     1
 40
0.0
176
     1
 40
1.0
176
     1
 90
        0
176
     1
 62
    18
420
        0
176
     1
 90
       50
176
     1
 90
        3
176
     1
 62
     5
420
      255
176
     1
290
     0
176
     1
 90
       50
176
     1
 90
       50
176
     1
 90
       50
176
     1
290
     0
176
     1
 90
       50
176
     1
 62
   256
176
     0
 40
1.0
176
     0
 90
        2
176
     1
  1
strokes_ogs.tif
176
     1
290
     0
176
     1
 40
1.0
176
     1
 40
1.0
176
     1
  0
VISUALSTYLE
  5
30
102
{ACAD_REACTORS
330
2A
102
}
330
2A
100
AcDbVisualStyle
  2
Wireframe
 70
     5
177
     3
291
     0
 70
    58
 90
        0
176
     1
 90
        2
176
     1
 90
        0
176
     1
 90
        0
176
     1
 40
0.6
176
     1
 40
30.0
176
     1
 62
     7
420
 16777215
176
     1
 90
        1
176
     1
 90
        4
176
     1
 62
     7
176
     1
 62
   257
176
     1
 90
        1
176
     1
 90
        1
176
     1
 40
1.0
176
     1
 90
        0
176
     1
 62
   257
176
     1
 40
1.0
176
     1
 90
        1
176
     1
 90
        6
176
     1
 90
        2
176
     1
 62
     7
176
     1
 90
        3
176
     1
 90
        0
176
     1
 90
        0
176
     1
290
     0
176
     1
 90
        1
176
     1
 40
0.0
176
     1
 90
        0
176
     1
290
     0
176
     1
290
     1
176
     1
290
     1
176
     1
290
     0
176
     1
290
     0
176
     1
290
     0
176
     1
290
     0
176
     1
290
     0
176
     1
290
     0
176
     1
 90
       50
176
     1
 40
0.0
176
     1
 40
1.0
176
     1
 90
        0
176
     1
 62
    18
420
        0
176
     1
 90
       50
176
     1
 90
        3
176
     1
 62
     5
420
      255
176
     1
290
     0
176
     1
 90
       50
176
     1
 90
       50
176
     1
 90
       50
176
     1
290
     0
176
     1
 90
       50
176
     1
 62
   256
176
     0
 40
1.0
176
     0
 90
        2
176
     1
  1
strokes_ogs.tif
176
     1
290
     0
176
     1
 40
1.0
176
     1
 40
1.0
176
     1
  0
VISUALSTYLE
  5
40
102
{ACAD_REACTORS
330
2A
102
}
330
2A
100
AcDbVisualStyle
  2
X-Ray
 70
    25
177
     3
291
     0
 70
    58
 90
        2
176
     1
 90
        2
176
     1
 90
        1
176
     1
 90
        1
176
     1
 40
0.5
176
     1
 40
30.0
176
     1
 62
     7
420
 16777215
176
     1
 90
        1
176
     1
 90
        0
176
     1
 62
     7
176
     1
 62
   257
176
     1
 90
        1
176
     1
 90
        1
176
     1
 40
1.0
176
     1
 90
        8
176
     1
 62
     7
176
     1
 40
1.0
176
     1
 90
        1
176
     1
 90
        6
176
     1
 90
        2
176
     1
 62
     7
176
     1
 90
        3
176
     1
 90
        0
176
     1
 90
        0
176
     1
290
     0
176
     1
 90
       13
176
     1
 40
0.0
176
     1
 90
        0
176
     1
290
     0
176
     1
290
     1
176
     1
290
     1
176
     1
290
     0
176
     1
290
     0
176
     1
290
     0
176
     1
290
     0
176
     1
290
     0
176
     1
290
     0
176
     1
 90
       50
176
     1
 40
0.0
176
     1
 40
1.0
176
     1
 90
        0
176
     1
 62
    18
420
        0
176
     1
 90
       50
176
     1
 90
        3
176
     1
 62
     5
420
      255
176
     1
290
     0
176
     1
 90
       50
176
     1
 90
       50
176
     1
 90
       50
176
     1
290
     0
176
     1
 90
       50
176
     1
 62
   256
176
     0
 40
1.0
176
     0
 90
        2
176
     1
  1
strokes_ogs.tif
176
     1
290
     0
176
     1
 40
1.0
176
     1
 40
1.0
176
     1
  0
DICTIONARYVAR
  5
403
102
{ACAD_REACTORS
330
402
102
}
330
402
100
DictionaryVariables
280
     0
  1
1:1
  0
DICTIONARYVAR
  5
408
102
{ACAD_REACTORS
330
402
102
}
330
402
100
DictionaryVariables
280
     0
  1
Standard
  0
DICTIONARYVAR
  5
407
102
{ACAD_REACTORS
330
402
102
}
330
402
100
DictionaryVariables
280
     0
  1
Standard
  0
DICTIONARY
  5
404
330
6A
100
AcDbDictionary
280
     1
281
     1
  3
ACAD_ROUNDTRIP_2008_TABLESTYLE_CELLSTYLEMAP
360
405
  0
CELLSTYLEMAP
  5
405
102
{ACAD_REACTORS
330
404
102
}
330
404
100
AcDbCellStyleMap
 90
        3
300
CELLSTYLE
  1
TABLEFORMAT_BEGIN
 90
        5
170
     1
 91
        0
 92
    32768
 62
   257
 93
        1
300
CONTENTFORMAT
  1
CONTENTFORMAT_BEGIN
 90
        0
 91
        0
 92
        4
 93
        0
300

 40
0.0
140
1.0
 94
        5
 62
     0
340
11
144
6.0
309
CONTENTFORMAT_END
171
     1
301
MARGIN
  1
CELLMARGIN_BEGIN
 40
1.5
 40
1.5
 40
1.5
 40
1.5
 40
1.5
 40
1.5
309
CELLMARGIN_END
 94
        6
 95
        1
302
GRIDFORMAT
  1
GRIDFORMAT_BEGIN
 90
        0
 91
        1
 62
     0
 92
       -2
340
14
 93
        0
 40
0.045
309
GRIDFORMAT_END
 95
        2
302
GRIDFORMAT
  1
GRIDFORMAT_BEGIN
 90
        0
 91
        1
 62
     0
 92
       -2
340
14
 93
        0
 40
0.045
309
GRIDFORMAT_END
 95
        4
302
GRIDFORMAT
  1
GRIDFORMAT_BEGIN
 90
        0
 91
        1
 62
     0
 92
       -2
340
14
 93
        0
 40
0.045
309
GRIDFORMAT_END
 95
        8
302
GRIDFORMAT
  1
GRIDFORMAT_BEGIN
 90
        0
 91
        1
 62
     0
 92
       -2
340
14
 93
        0
 40
0.045
309
GRIDFORMAT_END
 95
       16
302
GRIDFORMAT
  1
GRIDFORMAT_BEGIN
 90
        0
 91
        1
 62
     0
 92
       -2
340
14
 93
        0
 40
0.045
309
GRIDFORMAT_END
 95
       32
302
GRIDFORMAT
  1
GRIDFORMAT_BEGIN
 90
        0
 91
        1
 62
     0
 92
       -2
340
14
 93
        0
 40
0.045
309
GRIDFORMAT_END
309
TABLEFORMAT_END
  1
CELLSTYLE_BEGIN
 90
        1
 91
        1
300
_TITLE
309
CELLSTYLE_END
300
CELLSTYLE
  1
TABLEFORMAT_BEGIN
 90
        5
170
     1
 91
        0
 92
        0
 62
   257
 93
        1
300
CONTENTFORMAT
  1
CONTENTFORMAT_BEGIN
 90
        0
 91
        0
 92
        4
 93
        0
300

 40
0.0
140
1.0
 94
        5
 62
     0
340
11
144
4.5
309
CONTENTFORMAT_END
171
     1
301
MARGIN
  1
CELLMARGIN_BEGIN
 40
1.5
 40
1.5
 40
1.5
 40
1.5
 40
1.5
 40
1.5
309
CELLMARGIN_END
 94
        6
 95
        1
302
GRIDFORMAT
  1
GRIDFORMAT_BEGIN
 90
        0
 91
        1
 62
     0
 92
       -2
340
14
 93
        0
 40
0.045
309
GRIDFORMAT_END
 95
        2
302
GRIDFORMAT
  1
GRIDFORMAT_BEGIN
 90
        0
 91
        1
 62
     0
 92
       -2
340
14
 93
        0
 40
0.045
309
GRIDFORMAT_END
 95
        4
302
GRIDFORMAT
  1
GRIDFORMAT_BEGIN
 90
        0
 91
        1
 62
     0
 92
       -2
340
14
 93
        0
 40
0.045
309
GRIDFORMAT_END
 95
        8
302
GRIDFORMAT
  1
GRIDFORMAT_BEGIN
 90
        0
 91
        1
 62
     0
 92
       -2
340
14
 93
        0
 40
0.045
309
GRIDFORMAT_END
 95
       16
302
GRIDFORMAT
  1
GRIDFORMAT_BEGIN
 90
        0
 91
        1
 62
     0
 92
       -2
340
14
 93
        0
 40
0.045
309
GRIDFORMAT_END
 95
       32
302
GRIDFORMAT
  1
GRIDFORMAT_BEGIN
 90
        0
 91
        1
 62
     0
 92
       -2
340
14
 93
        0
 40
0.045
309
GRIDFORMAT_END
309
TABLEFORMAT_END
  1
CELLSTYLE_BEGIN
 90
        2
 91
        1
300
_HEADER
309
CELLSTYLE_END
300
CELLSTYLE
  1
TABLEFORMAT_BEGIN
 90
        5
170
     1
 91
        0
 92
        0
 62
   257
 93
        1
300
CONTENTFORMAT
  1
CONTENTFORMAT_BEGIN
 90
        0
 91
        0
 92
        4
 93
        0
300

 40
0.0
140
1.0
 94
        2
 62
     0
340
11
144
4.5
309
CONTENTFORMAT_END
171
     1
301
MARGIN
  1
CELLMARGIN_BEGIN
 40
1.5
 40
1.5
 40
1.5
 40
1.5
 40
1.5
 40
1.5
309
CELLMARGIN_END
 94
        6
 95
        1
302
GRIDFORMAT
  1
GRIDFORMAT_BEGIN
 90
        0
 91
        1
 62
     0
 92
       -2
340
14
 93
        0
 40
0.045
309
GRIDFORMAT_END
 95
        2
302
GRIDFORMAT
  1
GRIDFORMAT_BEGIN
 90
        0
 91
        1
 62
     0
 92
       -2
340
14
 93
        0
 40
0.045
309
GRIDFORMAT_END
 95
        4
302
GRIDFORMAT
  1
GRIDFORMAT_BEGIN
 90
        0
 91
        1
 62
     0
 92
       -2
340
14
 93
        0
 40
0.045
309
GRIDFORMAT_END
 95
        8
302
GRIDFORMAT
  1
GRIDFORMAT_BEGIN
 90
        0
 91
        1
 62
     0
 92
       -2
340
14
 93
        0
 40
0.045
309
GRIDFORMAT_END
 95
       16
302
GRIDFORMAT
  1
GRIDFORMAT_BEGIN
 90
        0
 91
        1
 62
     0
 92
       -2
340
14
 93
        0
 40
0.045
309
GRIDFORMAT_END
 95
       32
302
GRIDFORMAT
  1
GRIDFORMAT_BEGIN
 90
        0
 91
        1
 62
     0
 92
       -2
340
14
 93
        0
 40
0.045
309
GRIDFORMAT_END
309
TABLEFORMAT_END
  1
CELLSTYLE_BEGIN
 90
        3
 91
        2
300
_DATA
309
CELLSTYLE_END
  0
ENDSEC
  0
EOF
