  0
SECTION
  2
HEADER
  9
$ACADVER
  1
AC1027
  9
$ACADMAINTVER
 70
   105
  9
$DWGCODEPAGE
  3
ANSI_1251
  9
$REQUIREDVERSIONS
160
                 0
  9
$INSBASE
 10
0.0
 20
0.0
 30
0.0
  9
$EXTMIN
 10
0.0
 20
0.0
 30
0.0
  9
$EXTMAX
 10
1420.0
 20
1297.0
 30
0.0
  9
$LIMMIN
 10
0.0
 20
0.0
  9
$LIMMAX
 10
1420.0
 20
1297.0
  9
$ORTHOMODE
 70
     0
  9
$REGENMODE
 70
     1
  9
$FILLMODE
 70
     1
  9
$QTEXTMODE
 70
     0
  9
$MIRRTEXT
 70
     1
  9
$LTSCALE
 40
1.0
  9
$ATTMODE
 70
     1
  9
$TEXTSIZE
 40
5.0
  9
$TRACEWID
 40
1.0
  9
$TEXTSTYLE
  7
Standard
  9
$CLAYER
  8
0
  9
$CELTYPE
  6
ByLayer
  9
$CECOLOR
 62
   256
  9
$CELTSCALE
 40
1.0
  9
$DISPSILH
 70
     0
  9
$DIMSCALE
 40
1.0
  9
$DIMASZ
 40
5.0
  9
$DIMEXO
 40
0.0
  9
$DIMDLI
 40
3.75
  9
$DIMRND
 40
0.0
  9
$DIMDLE
 40
0.0
  9
$DIMEXE
 40
1.0
  9
$DIMTP
 40
0.0
  9
$DIMTM
 40
0.0
  9
$DIMTXT
 40
3.5
  9
$DIMCEN
 40
2.5
  9
$DIMTSZ
 40
0.0
  9
$DIMTOL
 70
     0
  9
$DIMLIM
 70
     0
  9
$DIMTIH
 70
     1
  9
$DIMTOH
 70
     1
  9
$DIMSE1
 70
     0
  9
$DIMSE2
 70
     0
  9
$DIMTAD
 70
     1
  9
$DIMZIN
 70
     0
  9
$DIMBLK
  1

  9
$DIMASO
 70
     1
  9
$DIMSHO
 70
     1
  9
$DIMPOST
  1

  9
$DIMAPOST
  1

  9
$DIMALT
 70
     0
  9
$DIMALTD
 70
     3
  9
$DIMALTF
 40
0.0393700787
  9
$DIMLFAC
 40
1.0
  9
$DIMTOFL
 70
     1
  9
$DIMTVP
 40
0.0
  9
$DIMTIX
 70
     0
  9
$DIMSOXD
 70
     0
  9
$DIMSAH
 70
     0
  9
$DIMBLK1
  1

  9
$DIMBLK2
  1

  9
$DIMSTYLE
  2
ISO-25
  9
$DIMCLRD
 70
     0
  9
$DIMCLRE
 70
     0
  9
$DIMCLRT
 70
     0
  9
$DIMTFAC
 40
1.0
  9
$DIMGAP
 40
1.5
  9
$DIMJUST
 70
     0
  9
$DIMSD1
 70
     0
  9
$DIMSD2
 70
     0
  9
$DIMTOLJ
 70
     0
  9
$DIMTZIN
 70
     0
  9
$DIMALTZ
 70
     0
  9
$DIMALTTZ
 70
     0
  9
$DIMUPT
 70
     0
  9
$DIMDEC
 70
     1
  9
$DIMTDEC
 70
     1
  9
$DIMALTU
 70
     2
  9
$DIMALTTD
 70
     3
  9
$DIMTXSTY
  7
Standard
  9
$DIMAUNIT
 70
     0
  9
$DIMADEC
 70
     2
  9
$DIMALTRND
 40
0.0
  9
$DIMAZIN
 70
     0
  9
$DIMDSEP
 70
    44
  9
$DIMATFIT
 70
     3
  9
$DIMFRAC
 70
     0
  9
$DIMLDRBLK
  1

  9
$DIMLUNIT
 70
     2
  9
$DIMLWD
 70
    -2
  9
$DIMLWE
 70
    -2
  9
$DIMTMOVE
 70
     0
  9
$DIMFXL
 40
1.0
  9
$DIMFXLON
 70
     0
  9
$DIMJOGANG
 40
0.7853981634
  9
$DIMTFILL
 70
     0
  9
$DIMTFILLCLR
 70
     0
  9
$DIMARCSYM
 70
     0
  9
$DIMLTYPE
  6

  9
$DIMLTEX1
  6

  9
$DIMLTEX2
  6

  9
$DIMTXTDIRECTION
 70
     0
  9
$LUNITS
 70
     2
  9
$LUPREC
 70
     1
  9
$SKETCHINC
 40
1.0
  9
$FILLETRAD
 40
10.0
  9
$AUNITS
 70
     0
  9
$AUPREC
 70
     2
  9
$MENU
  1
.
  9
$ELEVATION
 40
0.0
  9
$PELEVATION
 40
0.0
  9
$THICKNESS
 40
0.0
  9
$LIMCHECK
 70
     0
  9
$CHAMFERA
 40
0.0
  9
$CHAMFERB
 40
0.0
  9
$CHAMFERC
 40
0.0
  9
$CHAMFERD
 40
0.0
  9
$SKPOLY
 70
     0
  9
$TDCREATE
 40
2459607.523271354
  9
$TDUCREATE
 40
2459607.398271354
  9
$TDUPDATE
 40
2459607.523271678
  9
$TDUUPDATE
 40
2459607.398271678
  9
$TDINDWG
 40
0.0000000116
  9
$TDUSRTIMER
 40
0.0000000116
  9
$USRTIMER
 70
     1
  9
$ANGBASE
 50
0.0
  9
$ANGDIR
 70
     0
  9
$PDMODE
 70
     0
  9
$PDSIZE
 40
-1.0
  9
$PLINEWID
 40
0.0
  9
$SPLFRAME
 70
     0
  9
$SPLINETYPE
 70
     6
  9
$SPLINESEGS
 70
     8
  9
$HANDSEED
  5
1E1
  9
$SURFTAB1
 70
     6
  9
$SURFTAB2
 70
     6
  9
$SURFTYPE
 70
     6
  9
$SURFU
 70
     6
  9
$SURFV
 70
     6
  9
$UCSBASE
  2

  9
$UCSNAME
  2

  9
$UCSORG
 10
0.0
 20
0.0
 30
0.0
  9
$UCSXDIR
 10
1.0
 20
0.0
 30
0.0
  9
$UCSYDIR
 10
0.0
 20
1.0
 30
0.0
  9
$UCSORTHOREF
  2

  9
$UCSORTHOVIEW
 70
     0
  9
$UCSORGTOP
 10
0.0
 20
0.0
 30
0.0
  9
$UCSORGBOTTOM
 10
0.0
 20
0.0
 30
0.0
  9
$UCSORGLEFT
 10
0.0
 20
0.0
 30
0.0
  9
$UCSORGRIGHT
 10
0.0
 20
0.0
 30
0.0
  9
$UCSORGFRONT
 10
0.0
 20
0.0
 30
0.0
  9
$UCSORGBACK
 10
0.0
 20
0.0
 30
0.0
  9
$PUCSBASE
  2

  9
$PUCSNAME
  2

  9
$PUCSORG
 10
0.0
 20
0.0
 30
0.0
  9
$PUCSXDIR
 10
1.0
 20
0.0
 30
0.0
  9
$PUCSYDIR
 10
0.0
 20
1.0
 30
0.0
  9
$PUCSORTHOREF
  2

  9
$PUCSORTHOVIEW
 70
     0
  9
$PUCSORGTOP
 10
0.0
 20
0.0
 30
0.0
  9
$PUCSORGBOTTOM
 10
0.0
 20
0.0
 30
0.0
  9
$PUCSORGLEFT
 10
0.0
 20
0.0
 30
0.0
  9
$PUCSORGRIGHT
 10
0.0
 20
0.0
 30
0.0
  9
$PUCSORGFRONT
 10
0.0
 20
0.0
 30
0.0
  9
$PUCSORGBACK
 10
0.0
 20
0.0
 30
0.0
  9
$USERI1
 70
     0
  9
$USERI2
 70
     0
  9
$USERI3
 70
     0
  9
$USERI4
 70
     0
  9
$USERI5
 70
     0
  9
$USERR1
 40
0.0
  9
$USERR2
 40
0.0
  9
$USERR3
 40
0.0
  9
$USERR4
 40
0.0
  9
$USERR5
 40
0.0
  9
$WORLDVIEW
 70
     1
  9
$SHADEDGE
 70
     3
  9
$SHADEDIF
 70
    70
  9
$TILEMODE
 70
     1
  9
$MAXACTVP
 70
    64
  9
$PINSBASE
 10
0.0
 20
0.0
 30
0.0
  9
$PLIMCHECK
 70
     0
  9
$PEXTMIN
 10
1.0000000000E+20
 20
1.0000000000E+20
 30
1.0000000000E+20
  9
$PEXTMAX
 10
-1.0000000000E+20
 20
-1.0000000000E+20
 30
-1.0000000000E+20
  9
$PLIMMIN
 10
0.0
 20
0.0
  9
$PLIMMAX
 10
420.0
 20
297.0
  9
$UNITMODE
 70
     0
  9
$VISRETAIN
 70
     1
  9
$PLINEGEN
 70
     0
  9
$PSLTSCALE
 70
     1
  9
$TREEDEPTH
 70
  3020
  9
$CMLSTYLE
  2
Standard
  9
$CMLJUST
 70
     0
  9
$CMLSCALE
 40
20.0
  9
$PROXYGRAPHICS
 70
     1
  9
$MEASUREMENT
 70
     1
  9
$CELWEIGHT
370
    -1
  9
$ENDCAPS
280
     0
  9
$JOINSTYLE
280
     0
  9
$LWDISPLAY
290
     1
  9
$INSUNITS
 70
     4
  9
$HYPERLINKBASE
  1

  9
$STYLESHEET
  1

  9
$XEDIT
290
     1
  9
$CEPSNTYPE
380
     0
  9
$PSTYLEMODE
290
     1
  9
$FINGERPRINTGUID
  2
{3174F9C8-A931-48CF-A865-02377C9A17F4}
  9
$VERSIONGUID
  2
{FAEB1C32-E019-11D5-929B-00C0DF256EC4}
  9
$EXTNAMES
290
     1
  9
$PSVPSCALE
 40
0.0
  9
$OLESTARTUP
290
     0
  9
$SORTENTS
280
   127
  9
$INDEXCTL
280
     0
  9
$HIDETEXT
280
     1
  9
$XCLIPFRAME
280
     2
  9
$HALOGAP
280
     0
  9
$OBSCOLOR
 70
   257
  9
$OBSLTYPE
280
     0
  9
$INTERSECTIONDISPLAY
280
     0
  9
$INTERSECTIONCOLOR
 70
   257
  9
$DIMASSOC
280
     2
  9
$PROJECTNAME
  1

  9
$CAMERADISPLAY
290
     0
  9
$LENSLENGTH
 40
50.0
  9
$CAMERAHEIGHT
 40
0.0
  9
$STEPSPERSEC
 40
2.0
  9
$STEPSIZE
 40
6.0
  9
$3DDWFPREC
 40
2.0
  9
$PSOLWIDTH
 40
5.0
  9
$PSOLHEIGHT
 40
80.0
  9
$LOFTANG1
 40
1.5707963268
  9
$LOFTANG2
 40
1.5707963268
  9
$LOFTMAG1
 40
0.0
  9
$LOFTMAG2
 40
0.0
  9
$LOFTPARAM
 70
     7
  9
$LOFTNORMALS
280
     1
  9
$LATITUDE
 40
37.795
  9
$LONGITUDE
 40
-122.394
  9
$NORTHDIRECTION
 40
0.0
  9
$TIMEZONE
 70
 -8000
  9
$LIGHTGLYPHDISPLAY
280
     1
  9
$TILEMODELIGHTSYNCH
280
     1
  9
$CMATERIAL
347
44
  9
$SOLIDHIST
280
     0
  9
$SHOWHIST
280
     1
  9
$DWFFRAME
280
     2
  9
$DGNFRAME
280
     2
  9
$REALWORLDSCALE
290
     1
  9
$INTERFERECOLOR
 62
   256
  9
$CSHADOW
280
     0
  9
$SHADOWPLANELOCATION
 40
0.0
  0
ENDSEC
  0
SECTION
  2
CLASSES
  0
CLASS
  1
ACDBDICTIONARYWDFLT
  2
AcDbDictionaryWithDefault
  3
ObjectDBX Classes
 90
        0
 91
        4
280
     0
281
     0
  0
CLASS
  1
VISUALSTYLE
  2
AcDbVisualStyle
  3
ObjectDBX Classes
 90
     4095
 91
        4
280
     0
281
     0
  0
CLASS
  1
MATERIAL
  2
AcDbMaterial
  3
ObjectDBX Classes
 90
     1153
 91
        4
280
     0
281
     0
  0
CLASS
  1
SCALE
  2
AcDbScale
  3
ObjectDBX Classes
 90
     1153
 91
        4
280
     0
281
     0
  0
CLASS
  1
TABLESTYLE
  2
AcDbTableStyle
  3
ObjectDBX Classes
 90
     4095
 91
        4
280
     0
281
     0
  0
CLASS
  1
MLEADERSTYLE
  2
AcDbMLeaderStyle
  3
ACDB_MLEADERSTYLE_CLASS
 90
     4095
 91
        4
280
     0
281
     0
  0
CLASS
  1
SUN
  2
AcDbSun
  3
SCENEOE
 90
     1153
 91
        4
280
     0
281
     0
  0
CLASS
  1
DICTIONARYVAR
  2
AcDbDictionaryVar
  3
ObjectDBX Classes
 90
        0
 91
        4
280
     0
281
     0
  0
CLASS
  1
CELLSTYLEMAP
  2
AcDbCellStyleMap
  3
ObjectDBX Classes
 90
     1152
 91
        4
280
     0
281
     0
  0
ENDSEC
  0
SECTION
  2
TABLES
  0
TABLE
  2
VPORT
  5
8
330
0
100
AcDbSymbolTable
 70
     1
  0
VPORT
  5
29
330
8
100
AcDbSymbolTableRecord
100
AcDbViewportTableRecord
  2
*Active
 70
     0
 10
0.0
 20
0.0
 11
1.0
 21
1.0
 12
710.0
 22
648.5
 13
0.0
 23
0.0
 14
10.0
 24
10.0
 15
10.0
 25
10.0
 16
0.0
 26
0.0
 36
1.0
 17
0.0
 27
0.0
 37
0.0
 40
1297.0
 41
1.0948342328
 42
50.0
 43
0.0
 44
0.0
 50
0.0
 51
0.0
 71
     0
 72
  2000
 73
     1
 74
     3
 75
     0
 76
     0
 77
     0
 78
     0
281
     0
 65
     1
110
0.0
120
0.0
130
0.0
111
1.0
121
0.0
131
0.0
112
0.0
122
1.0
132
0.0
 79
     0
146
0.0
348
2F
 60
     3
 61
     5
292
     1
282
     1
141
0.0
142
0.0
 63
   250
361
6D
  0
ENDTAB
  0
TABLE
  2
LTYPE
  5
5
330
0
100
AcDbSymbolTable
 70
     8
  0
LTYPE
  5
14
330
5
100
AcDbSymbolTableRecord
100
AcDbLinetypeTableRecord
  2
ByBlock
 70
     0
  3

 72
    65
 73
     0
 40
0.0
  0
LTYPE
  5
15
330
5
100
AcDbSymbolTableRecord
100
AcDbLinetypeTableRecord
  2
ByLayer
 70
     0
  3

 72
    65
 73
     0
 40
0.0
  0
LTYPE
  5
16
330
5
100
AcDbSymbolTableRecord
100
AcDbLinetypeTableRecord
  2
Continuous
 70
     0
  3
Solid line
 72
    65
 73
     0
 40
0.0
  0
LTYPE
  5
6E
330
5
100
AcDbSymbolTableRecord
100
AcDbLinetypeTableRecord
  2
SLD-Сплошная
 70
     0
  3
SolidWorks Line Style
 72
    65
 73
     0
 40
0.0
  0
LTYPE
  5
6F
330
5
100
AcDbSymbolTableRecord
100
AcDbLinetypeTableRecord
  2
SLD-Штриховая
 70
     0
  3
SolidWorks Line Style
 72
    65
 73
     2
 40
1.905
 49
1.27
 74
     0
 49
-0.635
 74
     0
  0
LTYPE
  5
70
330
5
100
AcDbSymbolTableRecord
100
AcDbLinetypeTableRecord
  2
SLD-Штрихпункт.-с-двумя-точками
 70
     0
  3
SolidWorks Line Style
 72
    65
 73
     6
 40
12.7
 49
6.35
 74
     0
 49
-1.27
 74
     0
 49
1.27
 74
     0
 49
-1.27
 74
     0
 49
1.27
 74
     0
 49
-1.27
 74
     0
  0
LTYPE
  5
71
330
5
100
AcDbSymbolTableRecord
100
AcDbLinetypeTableRecord
  2
SLD-Штрихпункт.-утолщ.
 70
     0
  3
SolidWorks Line Style
 72
    65
 73
     4
 40
10.16
 49
6.35
 74
     0
 49
-1.27
 74
     0
 49
1.27
 74
     0
 49
-1.27
 74
     0
  0
LTYPE
  5
72
330
5
100
AcDbSymbolTableRecord
100
AcDbLinetypeTableRecord
  2
SLD-Осевая
 70
     0
  3
SolidWorks Line Style
 72
    65
 73
     4
 40
19.05
 49
15.24
 74
     0
 49
-1.27
 74
     0
 49
1.27
 74
     0
 49
-1.27
 74
     0
  0
LTYPE
  5
73
330
5
100
AcDbSymbolTableRecord
100
AcDbLinetypeTableRecord
  2
SLD-Сшитая
 70
     0
  3
SolidWorks Line Style
 72
    65
 73
     2
 40
0.635
 49
0.0
 74
     0
 49
-0.635
 74
     0
  0
LTYPE
  5
74
330
5
100
AcDbSymbolTableRecord
100
AcDbLinetypeTableRecord
  2
SLD-Тонкая-Толстая
 70
     0
  3
SolidWorks Line Style
 72
    65
 73
     2
 40
5.080508
 49
0.000508
 74
     0
 49
-5.08
 74
     0
  0
ENDTAB
  0
TABLE
  2
LAYER
  5
2
330
0
100
AcDbSymbolTable
 70
     5
  0
LAYER
  5
10
330
2
100
AcDbSymbolTableRecord
100
AcDbLayerTableRecord
  2
0
 70
     0
 62
     7
  6
Continuous
370
    -3
390
F
347
46
348
0
  0
LAYER
  5
75
330
2
100
AcDbSymbolTableRecord
100
AcDbLayerTableRecord
  2
ОСНОВНОЙ
 70
     0
 62
   236
  6
SLD-Сплошная
370
    35
390
F
347
46
348
0
  0
LAYER
  5
76
330
2
100
AcDbSymbolTableRecord
100
AcDbLayerTableRecord
  2
HELP
 70
     0
 62
   -57
  6
SLD-Сплошная
290
     0
370
    -3
390
F
347
46
348
0
  0
LAYER
  5
77
330
2
100
AcDbSymbolTableRecord
100
AcDbLayerTableRecord
  2
ТЕКСТ
 70
     0
 62
   150
  6
SLD-Сплошная
370
    -3
390
F
347
46
348
0
  0
LAYER
  5
78
330
2
100
AcDbSymbolTableRecord
100
AcDbLayerTableRecord
  2
ТОНКИЙ
 70
     0
 62
   174
  6
SLD-Сплошная
370
    -3
390
F
347
46
348
0
  0
ENDTAB
  0
TABLE
  2
STYLE
  5
3
330
0
100
AcDbSymbolTable
 70
     1
  0
STYLE
  5
11
330
3
100
AcDbSymbolTableRecord
100
AcDbTextStyleTableRecord
  2
Standard
 70
     0
 40
0.0
 41
1.0
 50
0.0
 71
     0
 42
5.0
  3
txt
  4

  0
ENDTAB
  0
TABLE
  2
VIEW
  5
6
330
0
100
AcDbSymbolTable
 70
     0
  0
ENDTAB
  0
TABLE
  2
UCS
  5
7
330
0
100
AcDbSymbolTable
 70
     0
  0
ENDTAB
  0
TABLE
  2
APPID
  5
9
330
0
100
AcDbSymbolTable
 70
     1
  0
APPID
  5
12
330
9
100
AcDbSymbolTableRecord
100
AcDbRegAppTableRecord
  2
ACAD
 70
     0
  0
ENDTAB
  0
TABLE
  2
DIMSTYLE
  5
A
330
0
100
AcDbSymbolTable
 70
     1
100
AcDbDimStyleTable
  0
DIMSTYLE
105
27
330
A
100
AcDbSymbolTableRecord
100
AcDbDimStyleTableRecord
  2
ISO-25
 70
     0
 41
2.5
 42
0.625
 43
3.75
 44
1.25
 73
     0
 74
     0
 77
     1
 78
     8
140
2.5
141
2.5
143
0.0393700787
147
0.625
171
     3
172
     1
178
     0
271
     2
272
     2
274
     3
278
    44
283
     0
284
     8
340
11
  0
ENDTAB
  0
TABLE
  2
BLOCK_RECORD
  5
1
330
0
100
AcDbSymbolTable
 70
     1
  0
BLOCK_RECORD
  5
1F
330
1
100
AcDbSymbolTableRecord
100
AcDbBlockTableRecord
  2
*Model_Space
340
22
 70
     0
280
     1
281
     0
  0
BLOCK_RECORD
  5
1B
330
1
100
AcDbSymbolTableRecord
100
AcDbBlockTableRecord
  2
*Paper_Space
340
1E
 70
     0
280
     1
281
     0
  0
BLOCK_RECORD
  5
23
330
1
100
AcDbSymbolTableRecord
100
AcDbBlockTableRecord
  2
*Paper_Space0
340
26
 70
     0
280
     1
281
     0
  0
ENDTAB
  0
ENDSEC
  0
SECTION
  2
BLOCKS
  0
BLOCK
  5
20
330
1F
100
AcDbEntity
  8
0
100
AcDbBlockBegin
  2
*Model_Space
 70
     0
 10
0.0
 20
0.0
 30
0.0
  3
*Model_Space
  1

  0
ENDBLK
  5
21
330
1F
100
AcDbEntity
  8
0
100
AcDbBlockEnd
  0
BLOCK
  5
1C
330
1B
100
AcDbEntity
 67
     1
  8
0
100
AcDbBlockBegin
  2
*Paper_Space
 70
     0
 10
0.0
 20
0.0
 30
0.0
  3
*Paper_Space
  1

  0
ENDBLK
  5
1D
330
1B
100
AcDbEntity
 67
     1
  8
0
100
AcDbBlockEnd
  0
BLOCK
  5
24
330
23
100
AcDbEntity
  8
0
100
AcDbBlockBegin
  2
*Paper_Space0
 70
     0
 10
0.0
 20
0.0
 30
0.0
  3
*Paper_Space0
  1

  0
ENDBLK
  5
25
330
23
100
AcDbEntity
  8
0
100
AcDbBlockEnd
  0
ENDSEC
  0
SECTION
  2
ENTITIES
  0
CIRCLE
  5
79
330
1F
100
AcDbEntity
  8
0
  6
SLD-Сплошная
 62
     7
370
    35
100
AcDbCircle
 10
-157.0740369815
 20
282.0695885154
 30
0.0
 40
2.050000000000011
  0
CIRCLE
  5
7A
330
1F
100
AcDbEntity
  8
0
  6
SLD-Сплошная
 62
     7
370
    35
100
AcDbCircle
 10
117.5634812842
 20
-380.9640328182
 30
0.0
 40
2.050000000000011
  0
SPLINE
  5
7B
330
1F
100
AcDbEntity
  8
0
  6
SLD-Сплошная
 62
     7
370
    35
100
AcDbSpline
210
0.0
220
0.0
230
1.0
 70
    24
 71
     3
 72
    10
 73
     6
 74
     0
 42
0.000000001
 43
0.00000001
 40
0.0
 40
0.0
 40
0.0
 40
0.0
 40
0.5
 40
0.5
 40
1.0
 40
1.0
 40
1.0
 40
1.0
 10
-254.0433363346091
 20
163.8870857267482
 30
0.0
 10
-254.2701118430679
 20
163.6603102182893
 30
0.0
 10
-254.4704621559514
 20
163.4599599054058
 30
0.0
 10
-254.7731223471998
 20
163.1572997141576
 30
0.0
 10
-254.8751603511105
 20
163.0552617102469
 30
0.0
 10
-254.9163986650523
 20
163.0140233963051
 30
0.0
  0
LINE
  5
7C
330
1F
100
AcDbEntity
  8
0
  6
SLD-Сплошная
 62
     7
370
    35
100
AcDbLine
 10
-253.7638663749
 20
164.1665556864
 30
0.0
 11
-254.0433363346
 21
163.8870857268
 31
0.0
  0
SPLINE
  5
7D
330
1F
100
AcDbEntity
  8
0
  6
SLD-Сплошная
 62
     7
370
    35
100
AcDbSpline
210
0.0
220
0.0
230
1.0
 70
    24
 71
     3
 72
     8
 73
     4
 74
     0
 42
0.000000001
 43
0.00000001
 40
0.0
 40
0.0
 40
0.0
 40
0.0
 40
1.0
 40
1.0
 40
1.0
 40
1.0
 10
-253.3819805791107
 20
164.5484414822467
 30
0.0
 10
-253.5105903483719
 20
164.4198317129855
 30
0.0
 10
-253.639192030391
 20
164.2912300309663
 30
0.0
 10
-253.7638663749153
 20
164.1665556864421
 30
0.0
  0
LINE
  5
7E
330
1F
100
AcDbEntity
  8
0
  6
SLD-Сплошная
 62
     7
370
    35
100
AcDbLine
 10
-121.1530124972
 20
32.3194734004
 30
0.0
 11
-122.7086474158
 21
30.7638384818
 31
0.0
  0
LINE
  5
7F
330
1F
100
AcDbEntity
  8
0
  6
SLD-Сплошная
 62
     7
370
    35
100
AcDbLine
 10
-254.9376154977
 20
162.9928065636
 30
0.0
 11
-122.7086474158
 21
30.7638384818
 31
0.0
  0
SPLINE
  5
80
330
1F
100
AcDbEntity
  8
0
  6
SLD-Сплошная
 62
     7
370
    35
100
AcDbSpline
210
0.0
220
0.0
230
1.0
 70
    24
 71
     3
 72
     8
 73
     4
 74
     0
 42
0.000000001
 43
0.00000001
 40
0.0
 40
0.0
 40
0.0
 40
0.0
 40
1.0
 40
1.0
 40
1.0
 40
1.0
 10
-254.9323022157773
 20
162.9981198455799
 30
0.0
 10
-254.9358423859665
 20
162.9945796753909
 30
0.0
 10
-254.9376154977211
 20
162.9928065636363
 30
0.0
 10
-254.9376154977211
 20
162.9928065636363
 30
0.0
  0
LINE
  5
81
330
1F
100
AcDbEntity
  8
0
  6
SLD-Сплошная
 62
     7
370
    35
100
AcDbLine
 10
-254.916398665
 20
163.0140233963
 30
0.0
 11
-254.9323022158
 21
162.9981198456
 31
0.0
  0
LINE
  5
82
330
1F
100
AcDbEntity
  8
0
  6
SLD-Сплошная
 62
     7
370
    35
100
AcDbLine
 10
-35.8365187158
 20
-365.9640328182
 30
0.0
 11
-35.8365187158
 21
-178.9640328182
 31
0.0
  0
LINE
  5
83
330
1F
100
AcDbEntity
  8
0
  6
SLD-Сплошная
 62
     7
370
    35
100
AcDbLine
 10
-33.6365187158
 20
-178.9640328182
 30
0.0
 11
-35.8365187158
 21
-178.9640328182
 31
0.0
  0
LINE
  5
84
330
1F
100
AcDbEntity
  8
0
  6
SLD-Сплошная
 62
     7
370
    35
100
AcDbLine
 10
-33.6365187158
 20
-365.9640328182
 30
0.0
 11
-35.8365187158
 21
-365.9640328182
 31
0.0
  0
LINE
  5
85
330
1F
100
AcDbEntity
  8
0
  6
SLD-Сплошная
 62
     7
370
    35
100
AcDbLine
 10
268.7634812842
 20
-178.9640328182
 30
0.0
 11
270.9634812842
 21
-178.9640328182
 31
0.0
  0
LINE
  5
86
330
1F
100
AcDbEntity
  8
0
  6
SLD-Сплошная
 62
     7
370
    35
100
AcDbLine
 10
270.9634812842
 20
-365.9640328182
 30
0.0
 11
270.9634812842
 21
-178.9640328182
 31
0.0
  0
LINE
  5
87
330
1F
100
AcDbEntity
  8
0
  6
SLD-Сплошная
 62
     7
370
    35
100
AcDbLine
 10
270.9634812842
 20
-365.9640328182
 30
0.0
 11
268.7634812842
 21
-365.9640328182
 31
0.0
  0
ARC
  5
88
330
1F
100
AcDbEntity
  8
0
  6
SLD-Сплошная
 62
     7
370
    35
100
AcDbCircle
 10
-26.4365187158
 20
-390.9640328182
 30
0.0
 40
5.00000000000006
100
AcDbArc
 50
180.0
 51
270.0
  0
LINE
  5
89
330
1F
100
AcDbEntity
  8
0
  6
SLD-Сплошная
 62
     7
370
    35
100
AcDbLine
 10
-31.4365187158
 20
-390.9640328182
 30
0.0
 11
-31.4365187158
 21
-365.9640328182
 31
0.0
  0
LINE
  5
8A
330
1F
100
AcDbEntity
  8
0
  6
SLD-Сплошная
 62
     7
370
    35
100
AcDbLine
 10
-31.4365187158
 20
-178.9640328182
 30
0.0
 11
-33.6365187158
 21
-178.9640328182
 31
0.0
  0
ARC
  5
8B
330
1F
100
AcDbEntity
  8
0
  6
SLD-Сплошная
 62
     7
370
    35
100
AcDbCircle
 10
-31.4490810081
 20
-176.2140615113
 30
0.0
 40
2.749999999999987
100
AcDbArc
 50
270.2617341224
 51
90.7852023671
  0
ARC
  5
8C
330
1F
100
AcDbEntity
  8
0
  6
SLD-Сплошная
 62
     7
370
    35
100
AcDbCircle
 10
-332.4365187158
 20
-178.9640328182
 30
0.0
 40
301.0000000000001
100
AcDbArc
 50
1.0469364894
 51
43.9530635106
  0
ARC
  5
8D
330
1F
100
AcDbEntity
  8
0
  6
SLD-Сплошная
 62
     7
370
    35
100
AcDbCircle
 10
-117.6617371015
 20
31.9217020777
 30
0.0
 40
2.750000000000008
100
AcDbArc
 50
314.2147976329
 51
134.7382658775
  0
LINE
  5
8E
330
1F
100
AcDbEntity
  8
0
  6
SLD-Сплошная
 62
     7
370
    35
100
AcDbLine
 10
-121.1530124972
 20
32.3194734004
 30
0.0
 11
-119.5973775786
 21
33.875108319
 31
0.0
  0
LINE
  5
8F
330
1F
100
AcDbEntity
  8
0
  6
SLD-Сплошная
 62
     7
370
    35
100
AcDbLine
 10
-251.8263456605
 20
166.1040764009
 30
0.0
 11
-269.5040151902
 21
183.7817459305
 31
0.0
  0
ARC
  5
90
330
1F
100
AcDbEntity
  8
0
  6
SLD-Сплошная
 62
     7
370
    35
100
AcDbCircle
 10
-265.9684812842
 20
187.3172798365
 30
0.0
 40
5.00000000000002
100
AcDbArc
 50
135.0
 51
225.0
  0
LINE
  5
91
330
1F
100
AcDbEntity
  8
0
  6
SLD-Сплошная
 62
     7
370
    35
100
AcDbLine
 10
-65.8572622084
 20
394.4995667241
 30
0.0
 11
-269.5040151902
 21
190.8528137424
 31
0.0
  0
ARC
  5
92
330
1F
100
AcDbEntity
  8
0
  6
SLD-Сплошная
 62
     7
370
    35
100
AcDbCircle
 10
-62.3217283025
 20
390.9640328182
 30
0.0
 40
5.00000000000007
100
AcDbArc
 50
45.0
 51
135.0
  0
LINE
  5
93
330
1F
100
AcDbEntity
  8
0
  6
SLD-Сплошная
 62
     7
370
    35
100
AcDbLine
 10
-58.7861943966
 20
394.4995667241
 30
0.0
 11
-41.1085248669
 21
376.8218971944
 31
0.0
  0
LINE
  5
94
330
1F
100
AcDbEntity
  8
0
  6
SLD-Сплошная
 62
     7
370
    35
100
AcDbLine
 10
91.120443215
 20
244.5929291126
 30
0.0
 11
92.6760781336
 21
246.1485640312
 31
0.0
  0
ARC
  5
95
330
1F
100
AcDbEntity
  8
0
  6
SLD-Сплошная
 62
     7
370
    35
100
AcDbCircle
 10
93.0605180547
 20
242.6439269021
 30
0.0
 40
2.750000000003281
100
AcDbArc
 50
134.8684778531
 51
314.6054335592
  0
ARC
  5
96
330
1F
100
AcDbEntity
  8
0
  6
SLD-Сплошная
 62
     7
370
    35
100
AcDbCircle
 10
-332.4365187158
 20
-178.9640328182
 30
0.0
 40
598.9999999999999
100
AcDbArc
 50
0.5260885878
 51
44.4739114122
  0
ARC
  5
97
330
1F
100
AcDbEntity
  8
0
  6
SLD-Сплошная
 62
     7
370
    35
100
AcDbCircle
 10
266.5571686799
 20
-176.2140400635
 30
0.0
 40
2.750000000003362
100
AcDbArc
 50
90.3945664408
 51
270.1315221469
  0
LINE
  5
98
330
1F
100
AcDbEntity
  8
0
  6
SLD-Сплошная
 62
     7
370
    35
100
AcDbLine
 10
268.7634812842
 20
-178.9640328182
 30
0.0
 11
266.5634812842
 21
-178.9640328182
 31
0.0
  0
LINE
  5
99
330
1F
100
AcDbEntity
  8
0
  6
SLD-Сплошная
 62
     7
370
    35
100
AcDbLine
 10
266.5634812842
 20
-365.9640328182
 30
0.0
 11
266.5634812842
 21
-390.9640328182
 31
0.0
  0
ARC
  5
9A
330
1F
100
AcDbEntity
  8
0
  6
SLD-Сплошная
 62
     7
370
    35
100
AcDbCircle
 10
261.5634812842
 20
-390.9640328182
 30
0.0
 40
5.0
100
AcDbArc
 50
270.0
 51
0.0
  0
LINE
  5
9B
330
1F
100
AcDbEntity
  8
0
  6
SLD-Сплошная
 62
     7
370
    35
100
AcDbLine
 10
-26.4365187158
 20
-395.9640328182
 30
0.0
 11
261.5634812842
 21
-395.9640328182
 31
0.0
  0
LINE
  5
9C
330
1F
100
AcDbEntity
  8
0
  6
SLD-Сплошная
 62
     7
370
    35
100
AcDbLine
 10
-41.1085248669
 20
376.8218971944
 30
0.0
 11
-39.5528899483
 21
378.3775321131
 31
0.0
  0
LINE
  5
9D
330
1F
100
AcDbEntity
  8
0
  6
SLD-Сплошная
 62
     7
370
    35
100
AcDbLine
 10
268.7634812842
 20
-365.9640328182
 30
0.0
 11
266.5634812842
 21
-365.9640328182
 31
0.0
  0
LINE
  5
9E
330
1F
100
AcDbEntity
  8
0
  6
SLD-Сплошная
 62
     7
370
    35
100
AcDbLine
 10
-253.3819805791
 20
164.5484414822
 30
0.0
 11
-251.8263456605
 21
166.1040764009
 31
0.0
  0
LINE
  5
9F
330
1F
100
AcDbEntity
  8
0
  6
SLD-Сплошная
 62
     7
370
    35
100
AcDbLine
 10
-31.4365187158
 20
-365.9640328182
 30
0.0
 11
-33.6365187158
 21
-365.9640328182
 31
0.0
  0
LINE
  5
A0
330
1F
100
AcDbEntity
  8
0
  6
SLD-Сплошная
 62
     7
370
    35
100
AcDbLine
 10
92.6760781336
 20
246.1485640312
 30
0.0
 11
94.2317130522
 21
247.7041989498
 31
0.0
  0
LINE
  5
A1
330
1F
100
AcDbEntity
  8
0
  6
SLD-Сплошная
 62
     7
370
    35
100
AcDbLine
 10
-37.9972550297
 20
379.9331670317
 30
0.0
 11
94.2317130522
 21
247.7041989498
 31
0.0
  0
LINE
  5
A2
330
1F
100
AcDbEntity
  8
0
  6
SLD-Сплошная
 62
     7
370
    35
100
AcDbLine
 10
-37.9972550297
 20
379.9331670317
 30
0.0
 11
-39.5528899483
 21
378.3775321131
 31
0.0
  0
ARC
  5
A3
330
1F
100
AcDbEntity
  8
0
  6
SLD-Сплошная
 62
     7
370
    18
100
AcDbCircle
 10
117.5634812842
 20
-380.9640328182
 30
0.0
 40
2.256500000000018
100
AcDbArc
 50
255.0
 51
195.0
  0
ARC
  5
A4
330
1F
100
AcDbEntity
  8
0
  6
SLD-Сплошная
 62
     7
370
    35
100
AcDbCircle
 10
591.8866486348
 20
273.3240041032
 30
0.0
 40
0.3000000000001819
100
AcDbArc
 50
0.0
 51
45.0
  0
ARC
  5
A5
330
1F
100
AcDbEntity
  8
0
  6
SLD-Сплошная
 62
     7
370
    35
100
AcDbCircle
 10
591.8866486348
 20
290.8151729277
 30
0.0
 40
0.3000000000001819
100
AcDbArc
 50
315.0
 51
0.0
  0
LINE
  5
A6
330
1F
100
AcDbEntity
  8
0
  6
SLD-Сплошная
 62
     7
370
    35
100
AcDbLine
 10
592.0987806691
 20
273.5361361375
 30
0.0
 11
591.625988463
 21
274.0089283437
 31
0.0
  0
LINE
  5
A7
330
1F
100
AcDbEntity
  8
0
  6
SLD-Сплошная
 62
     7
370
    35
100
AcDbLine
 10
591.625988463
 20
290.1302486872
 30
0.0
 11
592.0987806691
 21
290.6030408934
 31
0.0
  0
ARC
  5
A8
330
1F
100
AcDbEntity
  8
0
  6
SLD-Сплошная
 62
     7
370
    35
100
AcDbCircle
 10
592.6866486348
 20
289.0695885154
 30
0.0
 40
1.500000000000012
100
AcDbArc
 50
135.0
 51
180.0
  0
ARC
  5
A9
330
1F
100
AcDbEntity
  8
0
  6
SLD-Сплошная
 62
     7
370
    35
100
AcDbCircle
 10
592.6866486348
 20
275.0695885154
 30
0.0
 40
1.499999999999972
100
AcDbArc
 50
180.0
 51
225.0
  0
LINE
  5
AA
330
1F
100
AcDbEntity
  8
0
  6
SLD-Сплошная
 62
     7
370
    35
100
AcDbLine
 10
593.9866486347
 20
278.8195885154
 30
0.0
 11
593.3866486348
 21
278.8195885154
 31
0.0
  0
LINE
  5
AB
330
1F
100
AcDbEntity
  8
0
  6
SLD-Сплошная
 62
     7
370
    35
100
AcDbLine
 10
593.3866486348
 20
285.3195885154
 30
0.0
 11
593.9866486347
 21
285.3195885154
 31
0.0
  0
LINE
  5
AC
330
1F
100
AcDbEntity
  8
0
  6
SLD-Сплошная
 62
     7
370
    35
100
AcDbLine
 10
608.1645688053
 20
33.5654176205
 30
0.0
 11
607.3160406679
 21
32.9654176205
 31
0.0
  0
LINE
  5
AD
330
1F
100
AcDbEntity
  8
0
  6
SLD-Сплошная
 62
     7
370
    35
100
AcDbLine
 10
592.1866486348
 20
395.9640328182
 30
0.0
 11
593.3866486348
 21
395.9640328182
 31
0.0
  0
LINE
  5
AE
330
1F
100
AcDbEntity
  8
0
  6
SLD-Сплошная
 62
     7
370
    35
100
AcDbLine
 10
607.3160406679
 20
377.731587893
 30
0.0
 11
608.1645688053
 21
377.131587893
 31
0.0
  0
LINE
  5
AF
330
1F
100
AcDbEntity
  8
0
  6
SLD-Сплошная
 62
     7
370
    35
100
AcDbLine
 10
604.053362353
 20
362.3281882115
 30
0.0
 11
604.0984911043
 21
362.3313980443
 31
0.0
  0
ARC
  5
B0
330
1F
100
AcDbEntity
  8
0
  6
SLD-Сплошная
 62
     7
370
    35
100
AcDbCircle
 10
591.8866486347
 20
-389.7096172304
 30
0.0
 40
0.3000000000001819
100
AcDbArc
 50
0.0
 51
45.0
  0
ARC
  5
B1
330
1F
100
AcDbEntity
  8
0
  6
SLD-Сплошная
 62
     7
370
    35
100
AcDbCircle
 10
591.8866486347
 20
-372.2184484059
 30
0.0
 40
0.3000000000001819
100
AcDbArc
 50
315.0
 51
0.0
  0
LINE
  5
B2
330
1F
100
AcDbEntity
  8
0
  6
SLD-Сплошная
 62
     7
370
    35
100
AcDbLine
 10
592.0987806691
 20
-389.4974851961
 30
0.0
 11
591.625988463
 21
-389.02469299
 31
0.0
  0
LINE
  5
B3
330
1F
100
AcDbEntity
  8
0
  6
SLD-Сплошная
 62
     7
370
    35
100
AcDbLine
 10
591.625988463
 20
-372.9033726464
 30
0.0
 11
592.0987806691
 21
-372.4305804403
 31
0.0
  0
ARC
  5
B4
330
1F
100
AcDbEntity
  8
0
  6
SLD-Сплошная
 62
     7
370
    35
100
AcDbCircle
 10
592.6866486347
 20
-373.9640328182
 30
0.0
 40
1.500000000000093
100
AcDbArc
 50
135.0
 51
180.0
  0
ARC
  5
B5
330
1F
100
AcDbEntity
  8
0
  6
SLD-Сплошная
 62
     7
370
    35
100
AcDbCircle
 10
592.6866486347
 20
-387.9640328182
 30
0.0
 40
1.500000000000052
100
AcDbArc
 50
180.0
 51
225.0
  0
LINE
  5
B6
330
1F
100
AcDbEntity
  8
0
  6
SLD-Сплошная
 62
     7
370
    35
100
AcDbLine
 10
593.3866486348
 20
-377.7140328182
 30
0.0
 11
593.9866486349
 21
-377.7140328182
 31
0.0
  0
LINE
  5
B7
330
1F
100
AcDbEntity
  8
0
  6
SLD-Сплошная
 62
     7
370
    35
100
AcDbLine
 10
593.9866486349
 20
-384.2140328182
 30
0.0
 11
593.3866486348
 21
-384.2140328182
 31
0.0
  0
LINE
  5
B8
330
1F
100
AcDbEntity
  8
0
  6
SLD-Сплошная
 62
     7
370
    35
100
AcDbLine
 10
592.1866486348
 20
190.8528137424
 30
0.0
 11
592.1866486348
 21
183.7817459305
 31
0.0
  0
LINE
  5
B9
330
1F
100
AcDbEntity
  8
0
  6
SLD-Сплошная
 62
     7
370
    35
100
AcDbLine
 10
593.3866486348
 20
183.7817459305
 30
0.0
 11
593.3866486348
 21
190.8528137424
 31
0.0
  0
LINE
  5
BA
330
1F
100
AcDbEntity
  8
0
  6
SLD-Сплошная
 62
     7
370
    35
100
AcDbLine
 10
592.1866486348
 20
394.4995667241
 30
0.0
 11
592.1866486348
 21
190.8528137424
 31
0.0
  0
LINE
  5
BB
330
1F
100
AcDbEntity
  8
0
  6
SLD-Сплошная
 62
     7
370
    35
100
AcDbLine
 10
593.3866486348
 20
394.4995667241
 30
0.0
 11
593.3866486348
 21
190.8528137424
 31
0.0
  0
LINE
  5
BC
330
1F
100
AcDbEntity
  8
0
  6
SLD-Сплошная
 62
     7
370
    35
100
AcDbLine
 10
593.3866486348
 20
166.1040764009
 30
0.0
 11
592.1866486348
 21
166.1040764009
 31
0.0
  0
LINE
  5
BD
330
1F
100
AcDbEntity
  8
0
  6
SLD-Сплошная
 62
     7
370
    35
100
AcDbLine
 10
592.1866486348
 20
166.1040764009
 30
0.0
 11
592.1866486348
 21
183.7817459305
 31
0.0
  0
LINE
  5
BE
330
1F
100
AcDbEntity
  8
0
  6
SLD-Сплошная
 62
     7
370
    35
100
AcDbLine
 10
593.3866486348
 20
166.1040764009
 30
0.0
 11
593.3866486348
 21
183.7817459305
 31
0.0
  0
SPLINE
  5
BF
330
1F
100
AcDbEntity
  8
0
  6
SLD-Сплошная
 62
     7
370
    35
100
AcDbSpline
210
0.0
220
0.0
230
1.0
 70
     8
 71
     3
 72
    10
 73
     6
 74
     0
 42
0.000000001
 43
0.00000001
 40
0.0
 40
0.0
 40
0.0
 40
0.0
 40
0.5
 40
0.5
 40
1.0
 40
1.0
 40
1.0
 40
1.0
 10
592.3953633389909
 20
163.8870857267482
 30
0.0
 10
592.5459989993258
 20
163.6603102182893
 30
0.0
 10
592.7754499883357
 20
163.4599599054058
 30
0.0
 10
593.3402287731878
 20
163.1572997141576
 30
0.0
 10
593.6750492379425
 20
163.0552617102469
 30
0.0
 10
594.0245405362097
 20
163.0140233963051
 30
0.0
  0
ARC
  5
C0
330
1F
100
AcDbEntity
  8
0
  6
SLD-Сплошная
 62
     7
370
    35
100
AcDbCircle
 10
593.4711180162
 20
164.6068578521
 30
0.0
 40
1.294341546120407
100
AcDbArc
 50
199.887514254
 51
213.7859165375
  0
SPLINE
  5
C1
330
1F
100
AcDbEntity
  8
0
  6
SLD-Сплошная
 62
     7
370
    35
100
AcDbSpline
210
0.0
220
0.0
230
1.0
 70
     8
 71
     3
 72
     8
 73
     4
 74
     0
 42
0.000000001
 43
0.00000001
 40
0.0
 40
0.0
 40
0.0
 40
0.0
 40
1.0
 40
1.0
 40
1.0
 40
1.0
 10
592.1866486348082
 20
164.5484414822467
 30
0.0
 10
592.1866486348082
 20
164.4198317129855
 30
0.0
 10
592.2093187369379
 20
164.2912300309663
 30
0.0
 10
592.2539680497403
 20
164.1665556864421
 30
0.0
  0
ARC
  5
C2
330
1F
100
AcDbEntity
  8
0
  6
SLD-Сплошная
 62
     7
370
    35
100
AcDbCircle
 10
594.1116486348
 20
32.70838213
 30
0.0
 40
1.963892817849222
100
AcDbArc
 50
191.421753659
 51
278.0494669755
  0
SPLINE
  5
C3
330
1F
100
AcDbEntity
  8
0
  6
SLD-Сплошная
 62
     7
370
    35
100
AcDbSpline
210
0.0
220
0.0
230
1.0
 70
     8
 71
     3
 72
     8
 73
     4
 74
     0
 42
0.000000001
 43
0.00000001
 40
0.0
 40
0.0
 40
0.0
 40
0.0
 40
1.0
 40
1.0
 40
1.0
 40
1.0
 10
594.2049740747676
 20
162.9981198455799
 30
0.0
 10
594.2653942286996
 20
162.9945796753909
 30
0.0
 10
594.3260214081594
 20
162.9928065636363
 30
0.0
 10
594.3866486348081
 20
162.9928065636363
 30
0.0
  0
ARC
  5
C4
330
1F
100
AcDbEntity
  8
0
  6
SLD-Сплошная
 62
     7
370
    35
100
AcDbCircle
 10
594.3846156304
 20
166.0677459166
 30
0.0
 40
3.074878095877474
100
AcDbArc
 50
263.2751064126
 51
266.6507397126
  0
LINE
  5
C5
330
1F
100
AcDbEntity
  8
0
  6
SLD-Сплошная
 62
     7
370
    35
100
AcDbLine
 10
592.1866486348
 20
164.5484414822
 30
0.0
 11
592.1866486348
 21
32.3194734004
 31
0.0
  0
ARC
  5
C6
330
1F
100
AcDbEntity
  8
0
  6
SLD-Сплошная
 62
     7
370
    35
100
AcDbCircle
 10
594.2616486348
 20
164.7252181775
 30
0.0
 40
0.8926785535726701
100
AcDbArc
 50
191.421753659
 51
278.0494669752
  0
LINE
  5
C7
330
1F
100
AcDbEntity
  8
0
  6
SLD-Сплошная
 62
     7
370
    35
100
AcDbLine
 10
599.7724350724
 20
163.8413347011
 30
0.0
 11
594.3866486348
 21
163.8413347011
 31
0.0
  0
LINE
  5
C8
330
1F
100
AcDbEntity
  8
0
  6
SLD-Сплошная
 62
     7
370
    35
100
AcDbLine
 10
599.7724350724
 20
162.9928065636
 30
0.0
 11
594.3866486348
 21
162.9928065636
 31
0.0
  0
LINE
  5
C9
330
1F
100
AcDbEntity
  8
0
  6
SLD-Сплошная
 62
     7
370
    35
100
AcDbLine
 10
594.3866486348
 20
30.7638384818
 30
0.0
 11
599.7724350724
 21
30.7638384818
 31
0.0
  0
LINE
  5
CA
330
1F
100
AcDbEntity
  8
0
  6
SLD-Сплошная
 62
     7
370
    35
100
AcDbLine
 10
599.7724350724
 20
148.9591211271
 30
0.0
 11
599.7724350724
 21
148.7422207527
 31
0.0
  0
ARC
  5
CB
330
1F
100
AcDbEntity
  8
0
  6
SLD-Сплошная
 62
     7
370
    35
100
AcDbCircle
 10
599.7940404853
 20
165.0782293796
 30
0.0
 40
1.237083359902514
100
AcDbArc
 50
268.9992898221
 51
303.6506100472
  0
SPLINE
  5
CC
330
1F
100
AcDbEntity
  8
0
  6
SLD-Сплошная
 62
     7
370
    35
100
AcDbSpline
210
0.0
220
0.0
230
1.0
 70
     8
 71
     3
 72
    19
 73
    15
 74
     0
 42
0.000000001
 43
0.00000001
 40
0.3853654064225231
 40
0.3853654064225231
 40
0.3853654064225231
 40
0.3853654064225231
 40
0.421052631578927
 40
0.4736842105263021
 40
0.5263157894736996
 40
0.57894736842105
 40
0.6315789473684057
 40
0.6842105263157681
 40
0.7368421052631224
 40
0.7894736842104844
 40
0.8421052631578766
 40
0.894736842105269
 40
0.9473684210526248
 40
1.0
 40
1.0
 40
1.0
 40
1.0
 10
600.7936783785581
 20
163.1705695489345
 30
0.0
 10
600.775472765103
 20
163.1638227877012
 30
0.0
 10
600.7300865465984
 20
163.1475723741915
 30
0.0
 10
600.6564167211285
 20
163.1234267474234
 30
0.0
 10
600.5723803890228
 20
163.0988130756157
 30
0.0
 10
600.486977368833
 20
163.0766760849615
 30
0.0
 10
600.4003535637573
 20
163.0570535111393
 30
0.0
 10
600.3126569708363
 20
163.0399792119545
 30
0.0
 10
600.2240374177665
 20
163.0254811116907
 30
0.0
 10
600.134646309691
 20
163.0135886346229
 30
0.0
 10
600.0446363697857
 20
163.0043047276625
 30
0.0
 10
599.9541613785319
 20
162.9977100824397
 30
0.0
 10
599.863375910932
 20
162.9935740160579
 30
0.0
 10
599.8027486852674
 20
162.9930623811103
 30
0.0
 10
599.7724350724352
 20
162.9928065636363
 30
0.0
  0
SPLINE
  5
CD
330
1F
100
AcDbEntity
  8
0
  6
SLD-Сплошная
 62
     7
370
    35
100
AcDbSpline
210
0.0
220
0.0
230
1.0
 70
     8
 71
     3
 72
    16
 73
    12
 74
     0
 42
0.000000001
 43
0.00000001
 40
0.0
 40
0.0
 40
0.0
 40
0.0
 40
0.125
 40
0.125
 40
0.25
 40
0.25
 40
0.5
 40
0.5
 40
0.75
 40
0.75
 40
1.0
 40
1.0
 40
1.0
 40
1.0
 10
599.7724350724352
 20
148.9591211270846
 30
0.0
 10
599.7882111250606
 20
149.0415706993428
 30
0.0
 10
599.8044468422376
 20
149.1239437296268
 30
0.0
 10
599.8670721457423
 20
149.2844645698718
 30
0.0
 10
599.9111700811657
 20
149.3638548568589
 30
0.0
 10
600.0653189436298
 20
149.5976966201742
 30
0.0
 10
600.2003983749504
 20
149.7465661553031
 30
0.0
 10
600.5077402600339
 20
150.0519814456728
 30
0.0
 10
600.6744806199994
 20
150.2038124931221
 30
0.0
 10
601.0124357274544
 20
150.52904508252
 30
0.0
 10
601.1773769226673
 20
150.6955822293092
 30
0.0
 10
601.3280699910454
 20
150.8746589677708
 30
0.0
  0
SPLINE
  5
CE
330
1F
100
AcDbEntity
  8
0
  6
SLD-Сплошная
 62
     7
370
    35
100
AcDbSpline
210
0.0
220
0.0
230
1.0
 70
     8
 71
     3
 72
     8
 73
     4
 74
     0
 42
0.000000001
 43
0.00000001
 40
0.0
 40
0.0
 40
0.0
 40
0.0
 40
1.0
 40
1.0
 40
1.0
 40
1.0
 10
600.7936783785835
 20
163.170569548944
 30
0.0
 10
600.9917851684606
 20
163.2439853825112
 30
0.0
 10
601.1699148943384
 20
163.3359017633165
 30
0.0
 10
601.3280699910476
 20
163.4477343046824
 30
0.0
  0
LINE
  5
CF
330
1F
100
AcDbEntity
  8
0
  6
SLD-Сплошная
 62
     7
370
    35
100
AcDbLine
 10
601.3280699911
 20
163.4477343047
 30
0.0
 11
603.7928932189
 21
165.1906275235
 31
0.0
  0
SPLINE
  5
D0
330
1F
100
AcDbEntity
  8
0
  6
SLD-Сплошная
 62
     7
370
    35
100
AcDbSpline
210
0.0
220
0.0
230
1.0
 70
     8
 71
     3
 72
    14
 73
    10
 74
     0
 42
0.000000001
 43
0.00000001
 40
0.0
 40
0.0
 40
0.0
 40
0.0
 40
0.25
 40
0.25
 40
0.5
 40
0.5
 40
0.75
 40
0.75
 40
1.0
 40
1.0
 40
1.0
 40
1.0
 10
603.7928932188667
 20
165.1906275235393
 30
0.0
 10
603.8867738275896
 20
165.2570111385913
 30
0.0
 10
603.9975083311496
 20
165.3087901910743
 30
0.0
 10
604.2410298632864
 20
165.3771540060145
 30
0.0
 10
604.3727725365273
 20
165.3929060283705
 30
0.0
 10
604.6344728260767
 20
165.3818163282098
 30
0.0
 10
604.7661355104678
 20
165.354547529176
 30
0.0
 10
605.0055062429354
 20
165.2590468774951
 30
0.0
 10
605.1155384814992
 20
165.1901132105484
 30
0.0
 10
605.2071067812318
 20
165.104713667329
 30
0.0
  0
ARC
  5
D1
330
1F
100
AcDbEntity
  8
0
  6
SLD-Сплошная
 62
     7
370
    35
100
AcDbCircle
 10
599.7250405324
 20
158.9007583249
 30
0.0
 40
8.27901638161743
100
AcDbArc
 50
5.5801962512
 51
48.5348819782
  0
ARC
  5
D2
330
1F
100
AcDbEntity
  8
0
  6
SLD-Сплошная
 62
     7
370
    35
100
AcDbCircle
 10
600.5735686699
 20
159.5007583249
 30
0.0
 40
8.279016381577716
100
AcDbArc
 50
5.5801962512
 51
48.5348819784
  0
SPLINE
  5
D3
330
1F
100
AcDbEntity
  8
0
  6
SLD-Сплошная
 62
     7
370
    35
100
AcDbSpline
210
0.0
220
0.0
230
1.0
 70
     8
 71
     3
 72
    10
 73
     6
 74
     0
 42
0.000000001
 43
0.00000001
 40
0.0
 40
0.0
 40
0.0
 40
0.0
 40
0.5
 40
0.5
 40
1.0
 40
1.0
 40
1.0
 40
1.0
 10
606.0556349186527
 20
165.7047136673428
 30
0.0
 10
605.9212024003195
 20
165.8300897603033
 30
0.0
 10
605.7709908109382
 20
165.9338321829806
 30
0.0
 10
605.43831066296
 20
166.0987526246996
 30
0.0
 10
605.2576922093442
 20
166.1582868724036
 30
0.0
 10
605.0694092874556
 20
166.1939612453983
 30
0.0
  0
ARC
  5
D4
330
1F
100
AcDbEntity
  8
0
  6
SLD-Сплошная
 62
     7
370
    35
100
AcDbCircle
 10
603.9905728336
 20
149.4843054351
 30
0.0
 40
3.003665149844441
100
AcDbArc
 50
93.7735231058
 51
152.4265286421
  0
LINE
  5
D5
330
1F
100
AcDbEntity
  8
0
  6
SLD-Сплошная
 62
     7
370
    35
100
AcDbLine
 10
602.9443650814
 20
165.7913347011
 30
0.0
 11
600.4795418536
 21
164.0484414822
 31
0.0
  0
LINE
  5
D6
330
1F
100
AcDbEntity
  8
0
  6
SLD-Сплошная
 62
     7
370
    35
100
AcDbLine
 10
592.1866486348
 20
164.5484414822
 30
0.0
 11
592.1866486348
 21
166.1040764009
 31
0.0
  0
LINE
  5
D7
330
1F
100
AcDbEntity
  8
0
  6
SLD-Сплошная
 62
     7
370
    35
100
AcDbLine
 10
593.3866486348
 20
164.5484414822
 30
0.0
 11
593.3866486348
 21
166.1040764009
 31
0.0
  0
LWPOLYLINE
  5
D8
330
1F
100
AcDbEntity
  8
0
  6
SLD-Сплошная
 62
     7
370
    35
100
AcDbPolyline
 90
        9
 70
   128
 43
0.0
 10
607.9648232279
 20
34.5479005251
 10
607.9146781901
 20
33.9900082401
 10
607.7656655069
 20
33.518857097
 10
607.5220121192
 20
33.1478119184
 10
607.1906295762
 20
32.8873978895
 10
606.7809179803
 20
32.7450019973
 10
606.3044993404
 20
32.7246634887
 10
605.7748878987
 20
32.8269592923
 10
605.2071067812
 20
33.0489876529
  0
LINE
  5
D9
330
1F
100
AcDbEntity
  8
0
  6
SLD-Сплошная
 62
     7
370
    35
100
AcDbLine
 10
607.9648232279
 20
159.7058007951
 30
0.0
 11
607.9648232279
 21
34.5479005251
 31
0.0
  0
SPLINE
  5
DA
330
1F
100
AcDbEntity
  8
0
  6
SLD-Сплошная
 62
     7
370
    35
100
AcDbSpline
210
0.0
220
0.0
230
1.0
 70
     8
 71
     3
 72
     8
 73
     4
 74
     0
 42
0.000000001
 43
0.00000001
 40
0.0
 40
0.0
 40
0.0
 40
0.0
 40
1.0
 40
1.0
 40
1.0
 40
1.0
 10
603.7928932188595
 20
152.4814586014202
 30
0.0
 10
603.8281904021351
 20
152.4571006475223
 30
0.0
 10
603.8662622664315
 20
152.4308776128131
 30
0.0
 10
603.902775190191
 20
152.3986626754322
 30
0.0
  0
SPLINE
  5
DB
330
1F
100
AcDbEntity
  8
0
  6
SLD-Сплошная
 62
     7
370
    35
100
AcDbSpline
210
0.0
220
0.0
230
1.0
 70
     8
 71
     3
 72
     9
 73
     5
 74
     0
 42
0.000000001
 43
0.00000001
 40
0.0
 40
0.0
 40
0.0
 40
0.0
 40
0.5177941431380443
 40
1.0
 40
1.0
 40
1.0
 40
1.0
 10
604.01048584059
 20
152.2832462055279
 30
0.0
 10
603.9926039203659
 20
152.3049813470952
 30
0.0
 10
603.9580691144762
 20
152.3469577615746
 30
0.0
 10
603.920763956067
 20
152.3818415218959
 30
0.0
 10
603.902775190191
 20
152.3986626754322
 30
0.0
  0
SPLINE
  5
DC
330
1F
100
AcDbEntity
  8
0
  6
SLD-Сплошная
 62
     7
370
    35
100
AcDbSpline
210
0.0
220
0.0
230
1.0
 70
     8
 71
     3
 72
    18
 73
    14
 74
     0
 42
0.000000001
 43
0.00000001
 40
0.0
 40
0.0
 40
0.0
 40
0.0
 40
0.2499999999999961
 40
0.2499999999999961
 40
0.4999999999999922
 40
0.4999999999999922
 40
0.6249999999999941
 40
0.6249999999999941
 40
0.7499999999999961
 40
0.7499999999999961
 40
0.874999999999998
 40
0.874999999999998
 40
1.0
 40
1.0
 40
1.0
 40
1.0
 10
604.01048584059
 20
152.2832462055278
 30
0.0
 10
604.1327382628333
 20
152.1295370588143
 30
0.0
 10
604.2254778886071
 20
151.9335481278713
 30
0.0
 10
604.3348599199164
 20
151.5096801794792
 30
0.0
 10
604.3515484903993
 20
151.287580237317
 30
0.0
 10
604.3205442644005
 20
150.9497128572328
 30
0.0
 10
604.3005748425782
 20
150.8354078921255
 30
0.0
 10
604.2424150382163
 20
150.6070550056062
 30
0.0
 10
604.2041831646874
 20
150.4924186136423
 30
0.0
 10
604.1103257807497
 20
150.2574124977423
 30
0.0
 10
604.0540362251455
 20
150.1360446069856
 30
0.0
 10
603.92937358257
 20
149.8844990024907
 30
0.0
 10
603.8603187575492
 20
149.7550194028966
 30
0.0
 10
603.7928932188595
 20
149.6169395532382
 30
0.0
  0
SPLINE
  5
DD
330
1F
100
AcDbEntity
  8
0
  6
SLD-Сплошная
 62
     7
370
    35
100
AcDbSpline
210
0.0
220
0.0
230
1.0
 70
     8
 71
     3
 72
    14
 73
    10
 74
     0
 42
0.000000001
 43
0.00000001
 40
0.0
 40
0.0
 40
0.0
 40
0.0
 40
0.25
 40
0.25
 40
0.5
 40
0.5
 40
0.75
 40
0.75
 40
1.0
 40
1.0
 40
1.0
 40
1.0
 10
605.2071067812288
 20
33.04898765290918
 30
0.0
 10
605.1155502463016
 20
33.09307957534352
 30
0.0
 10
605.0070192271952
 20
33.12822796460122
 30
0.0
 10
604.766290958161
 20
33.17469121056796
 30
0.0
 10
604.63529141967
 20
33.18538868626253
 30
0.0
 10
604.3735069180163
 20
33.17575765527303
 30
0.0
 10
604.2411906674567
 20
33.15511295691742
 30
0.0
 10
603.9990223844716
 20
33.08225659076178
 30
0.0
 10
603.8867743601683
 20
33.02945778832614
 30
0.0
 10
603.7928932188595
 20
32.96307379668117
 30
0.0
  0
ARC
  5
DE
330
1F
100
AcDbEntity
  8
0
  6
SLD-Сплошная
 62
     7
370
    35
100
AcDbCircle
 10
604.4971999423
 20
163.4048000037
 30
0.0
 40
2.84725200272364
100
AcDbArc
 50
78.4063716777
 51
123.0506488579
  0
LINE
  5
DF
330
1F
100
AcDbEntity
  8
0
  6
SLD-Сплошная
 62
     7
370
    35
100
AcDbLine
 10
608.8133513653
 20
160.3058007951
 30
0.0
 11
608.8133513653
 21
35.1479005251
 31
0.0
  0
SPLINE
  5
E0
330
1F
100
AcDbEntity
  8
0
  6
SLD-Сплошная
 62
     7
370
    35
100
AcDbSpline
210
0.0
220
0.0
230
1.0
 70
     8
 71
     3
 72
    10
 73
     6
 74
     0
 42
0.000000001
 43
0.00000001
 40
0.0
 40
0.0
 40
0.0
 40
0.0
 40
0.2565560513089946
 40
0.5898555227488769
 40
1.0
 40
1.0
 40
1.0
 40
1.0
 10
601.05884334394
 20
147.7088789943826
 30
0.0
 10
601.0828031536435
 20
147.7094558486627
 30
0.0
 10
601.137889853043
 20
147.7107821112131
 30
0.0
 10
601.2291042090659
 20
147.7201292074068
 30
0.0
 10
601.2928838986724
 20
147.7316158035251
 30
0.0
 10
601.3280699910454
 20
147.7379527492607
 30
0.0
  0
LINE
  5
E1
330
1F
100
AcDbEntity
  8
0
  6
SLD-Сплошная
 62
     7
370
    35
100
AcDbLine
 10
601.3280699911
 20
147.7379527493
 30
0.0
 11
600.4795418536
 21
148.3379527493
 31
0.0
  0
SPLINE
  5
E2
330
1F
100
AcDbEntity
  8
0
  6
SLD-Сплошная
 62
     7
370
    35
100
AcDbSpline
210
0.0
220
0.0
230
1.0
 70
     8
 71
     3
 72
     9
 73
     5
 74
     0
 42
0.000000001
 43
0.00000001
 40
0.0
 40
0.0
 40
0.0
 40
0.0
 40
0.5099081270942618
 40
1.0
 40
1.0
 40
1.0
 40
1.0
 10
600.4795418536216
 20
148.3379527492608
 30
0.0
 10
600.3648924907906
 20
148.3988898830733
 30
0.0
 10
600.1400493146593
 20
148.5183959873588
 30
0.0
 10
600.016718406242
 20
148.8092781069288
 30
0.0
 10
599.9562749303486
 20
148.9518370697037
 30
0.0
  0
SPLINE
  5
E3
330
1F
100
AcDbEntity
  8
0
  6
SLD-Сплошная
 62
     7
370
    35
100
AcDbSpline
210
0.0
220
0.0
230
1.0
 70
     8
 71
     3
 72
    14
 73
    10
 74
     0
 42
0.000000001
 43
0.00000001
 40
0.0
 40
0.0
 40
0.0
 40
0.0
 40
0.25
 40
0.25
 40
0.5
 40
0.5
 40
0.75
 40
0.75
 40
1.0
 40
1.0
 40
1.0
 40
1.0
 10
599.7724350724352
 20
148.742220752727
 30
0.0
 10
599.7887020552939
 20
148.6220762202083
 30
0.0
 10
599.8256449350165
 20
148.5055893853377
 30
0.0
 10
599.9439951908107
 20
148.2852582049067
 30
0.0
 10
600.0237126295979
 20
148.1827751171257
 30
0.0
 10
600.2096560514084
 20
148.0053066864102
 30
0.0
 10
600.3175758161191
 20
147.9287944186665
 30
0.0
 10
600.5444999302762
 20
147.8098331906649
 30
0.0
 10
600.6642628262698
 20
147.7665536953898
 30
0.0
 10
600.7860571273665
 20
147.7397605017575
 30
0.0
  0
SPLINE
  5
E4
330
1F
100
AcDbEntity
  8
0
  6
SLD-Сплошная
 62
     7
370
    35
100
AcDbSpline
210
0.0
220
0.0
230
1.0
 70
     8
 71
     3
 72
     8
 73
     4
 74
     0
 42
0.000000001
 43
0.00000001
 40
0.0
 40
0.0
 40
0.0
 40
0.0
 40
1.0
 40
1.0
 40
1.0
 40
1.0
 10
601.05884334394
 20
147.7088789943826
 30
0.0
 10
600.9689537523293
 20
147.7089191225675
 30
0.0
 10
600.8777662796375
 20
147.7195856573472
 30
0.0
 10
600.7860571273665
 20
147.7397605017574
 30
0.0
  0
ARC
  5
E5
330
1F
100
AcDbEntity
  8
0
  6
SLD-Сплошная
 62
     7
370
    35
100
AcDbCircle
 10
599.7842114941
 20
33.7185716168
 30
0.0
 40
2.954756603116257
100
AcDbArc
 50
269.7716424283
 51
289.9769026646
  0
SPLINE
  5
E6
330
1F
100
AcDbEntity
  8
0
  6
SLD-Сплошная
 62
     7
370
    35
100
AcDbSpline
210
0.0
220
0.0
230
1.0
 70
     8
 71
     3
 72
     8
 73
     4
 74
     0
 42
0.000000001
 43
0.00000001
 40
0.0
 40
0.0
 40
0.0
 40
0.0
 40
1.0
 40
1.0
 40
1.0
 40
1.0
 10
601.3280699910526
 20
31.22018057786275
 30
0.0
 10
601.1699148975057
 20
31.10834803873655
 30
0.0
 10
600.9917851730477
 20
31.01501730693323
 30
0.0
 10
600.793678388152
 20
30.94160147414659
 30
0.0
  0
LINE
  5
E7
330
1F
100
AcDbEntity
  8
0
  6
SLD-Сплошная
 62
     7
370
    35
100
AcDbLine
 10
603.7928932189
 20
149.6169395532
 30
0.0
 11
602.9443650814
 21
150.2169395532
 31
0.0
  0
SPLINE
  5
E8
330
1F
100
AcDbEntity
  8
0
  6
SLD-Сплошная
 62
     7
370
    35
100
AcDbSpline
210
0.0
220
0.0
230
1.0
 70
     8
 71
     3
 72
    12
 73
     8
 74
     0
 42
0.000000001
 43
0.00000001
 40
0.0
 40
0.0
 40
0.0
 40
0.0
 40
0.0940368501613144
 40
0.3070743335463434
 40
0.5368812386832127
 40
0.8216162182899907
 40
0.9999999999999999
 40
0.9999999999999999
 40
0.9999999999999999
 40
0.9999999999999999
 10
604.0930310065356
 20
152.3039699541191
 30
0.0
 10
604.1146716114007
 20
152.2446696050744
 30
0.0
 10
604.1853383160495
 20
152.0510262075051
 30
0.0
 10
604.0823977505302
 20
151.6683832451208
 30
0.0
 10
603.7747411511723
 20
151.1746449302283
 30
0.0
 10
603.332249575324
 20
150.6961285334403
 30
0.0
 10
603.0522248298321
 20
150.3501885066078
 30
0.0
 10
602.9443650814358
 20
150.2169395532383
 30
0.0
  0
ARC
  5
E9
330
1F
100
AcDbEntity
  8
0
  6
SLD-Сплошная
 62
     7
370
    35
100
AcDbCircle
 10
600.6666833025
 20
151.1616988532
 30
0.0
 40
3.487043122189318
100
AcDbArc
 50
280.9335133477
 51
333.7045645422
  0
LINE
  5
EA
330
1F
100
AcDbEntity
  8
0
  6
SLD-Сплошная
 62
     7
370
    35
100
AcDbLine
 10
603.7928932189
 20
32.9630737967
 30
0.0
 11
601.3280699911
 21
31.2201805779
 31
0.0
  0
ARC
  5
EB
330
1F
100
AcDbEntity
  8
0
  6
SLD-Сплошная
 62
     7
370
    35
100
AcDbCircle
 10
599.8181551651
 20
151.7616988532
 30
0.0
 40
3.487043122189245
100
AcDbArc
 50
280.9335133477
 51
333.7045645422
  0
LINE
  5
EC
330
1F
100
AcDbEntity
  8
0
  6
SLD-Сплошная
 62
     7
370
    35
100
AcDbLine
 10
591.1866486348
 20
289.0695876723
 30
0.0
 11
591.1866486348
 21
275.0695885154
 31
0.0
  0
LINE
  5
ED
330
1F
100
AcDbEntity
  8
0
  6
SLD-Сплошная
 62
     7
370
    35
100
AcDbLine
 10
593.9866486347
 20
278.8195885154
 30
0.0
 11
593.9866486347
 21
285.3195885154
 31
0.0
  0
ARC
  5
EE
330
1F
100
AcDbEntity
  8
0
  6
SLD-Сплошная
 62
     7
370
    35
100
AcDbCircle
 10
606.994003141
 20
34.9695579487
 30
0.0
 40
1.82806838924905
100
AcDbArc
 50
309.816375375
 51
5.5985627458
  0
LINE
  5
EF
330
1F
100
AcDbEntity
  8
0
  6
SLD-Сплошная
 62
     7
370
    35
100
AcDbLine
 10
592.1866486348
 20
29.9506931237
 30
0.0
 11
593.3866486348
 21
29.9506931237
 31
0.0
  0
LINE
  5
F0
330
1F
100
AcDbEntity
  8
0
  6
SLD-Сплошная
 62
     7
370
    35
100
AcDbLine
 10
592.1866486348
 20
29.9506931237
 30
0.0
 11
592.1866486348
 21
32.3194734004
 31
0.0
  0
LINE
  5
F1
330
1F
100
AcDbEntity
  8
0
  6
SLD-Сплошная
 62
     7
370
    35
100
AcDbLine
 10
593.3866486348
 20
29.9506931237
 30
0.0
 11
593.3866486348
 21
30.9338327543
 31
0.0
  0
LINE
  5
F2
330
1F
100
AcDbEntity
  8
0
  6
SLD-Сплошная
 62
     7
370
    35
100
AcDbLine
 10
592.1866486348
 20
-173.4643197455
 30
0.0
 11
593.3866486348
 21
-173.4643197455
 31
0.0
  0
LINE
  5
F3
330
1F
100
AcDbEntity
  8
0
  6
SLD-Сплошная
 62
     7
370
    35
100
AcDbLine
 10
592.1866486348
 20
29.9506931237
 30
0.0
 11
592.1866486348
 21
-173.4643197455
 31
0.0
  0
LINE
  5
F4
330
1F
100
AcDbEntity
  8
0
  6
SLD-Сплошная
 62
     7
370
    35
100
AcDbLine
 10
593.3866486348
 20
29.9506931237
 30
0.0
 11
593.3866486348
 21
-173.4643197455
 31
0.0
  0
LINE
  5
F5
330
1F
100
AcDbEntity
  8
0
  6
SLD-Сплошная
 62
     7
370
    35
100
AcDbLine
 10
592.1866486348
 20
395.9640328182
 30
0.0
 11
592.1866486348
 21
394.4995667241
 31
0.0
  0
LINE
  5
F6
330
1F
100
AcDbEntity
  8
0
  6
SLD-Сплошная
 62
     7
370
    35
100
AcDbLine
 10
593.3866486348
 20
394.4995667241
 30
0.0
 11
593.3866486348
 21
395.9640328182
 31
0.0
  0
SPLINE
  5
F7
330
1F
100
AcDbEntity
  8
0
  6
SLD-Сплошная
 62
     7
370
    35
100
AcDbSpline
210
0.0
220
0.0
230
1.0
 70
     8
 71
     3
 72
    18
 73
    14
 74
     0
 42
0.000000001
 43
0.00000001
 40
0.0
 40
0.0
 40
0.0
 40
0.0
 40
0.0205701374666884
 40
0.0265544759779683
 40
0.0809508065721948
 40
0.1003441519412944
 40
0.1434010481766542
 40
0.1707617406800244
 40
0.2077190758469964
 40
0.2378795944485959
 40
0.2736373449873166
 40
0.3019469741433497
 40
0.322632519807221
 40
0.322632519807221
 40
0.322632519807221
 40
0.322632519807221
 10
602.9443650814358
 20
364.424762794606
 30
0.0
 10
602.9659003049651
 20
364.3971237202001
 30
0.0
 10
602.9937006333206
 20
364.3614437866771
 30
0.0
 10
603.0794662829013
 20
364.2533418809361
 30
0.0
 10
603.1669266766362
 20
364.1487428584579
 30
0.0
 10
603.2963754273622
 20
363.9984769695533
 30
0.0
 10
603.3958373481515
 20
363.8847738174381
 30
0.0
 10
603.5125835219241
 20
363.7508396801366
 30
0.0
 10
603.6124836539775
 20
363.6343922960236
 30
0.0
 10
603.7160921217658
 20
363.5086791762405
 30
0.0
 10
603.8048999135825
 20
363.3941359697233
 30
0.0
 10
603.8779670048814
 20
363.2912792252762
 30
0.0
 10
603.9166756612141
 20
363.2317676250678
 30
0.0
 10
603.9323247138341
 20
363.2066251729614
 30
0.0
  0
SPLINE
  5
F8
330
1F
100
AcDbEntity
  8
0
  6
SLD-Сплошная
 62
     7
370
    35
100
AcDbSpline
210
0.0
220
0.0
230
1.0
 70
     8
 71
     3
 72
    24
 73
    20
 74
     0
 42
0.000000001
 43
0.00000001
 40
0.322632519807221
 40
0.322632519807221
 40
0.322632519807221
 40
0.322632519807221
 40
0.340835966121075
 40
0.3634031851060601
 40
0.408955528253697
 40
0.4228752463280104
 40
0.4776093759137002
 40
0.4811514453540662
 40
0.5391262538516812
 40
0.5463954727466442
 40
0.5977220700428304
 40
0.6149080216630868
 40
0.6578042743298843
 40
0.6827490245531659
 40
0.7201096726872274
 40
0.7495399669494103
 40
0.7852013938951998
 40
0.8149338077594936
 40
0.8534517169178019
 40
0.8534517169178019
 40
0.8534517169178019
 40
0.8534517169178019
 10
603.9323247138341
 20
363.2066251729614
 30
0.0
 10
603.9460960058204
 20
363.184499613184
 30
0.0
 10
603.975736896974
 20
363.1349151585118
 30
0.0
 10
604.032325869061
 20
363.0297346878771
 30
0.0
 10
604.0753963623284
 20
362.9293499601029
 30
0.0
 10
604.1205701678707
 20
362.7894013459082
 30
0.0
 10
604.1379440422669
 20
362.7008528551846
 30
0.0
 10
604.1495437156292
 20
362.5594098292604
 30
0.0
 10
604.1461346043651
 20
362.476479489708
 30
0.0
 10
604.1221777504805
 20
362.3396533692928
 30
0.0
 10
604.0961196586962
 20
362.253068385745
 30
0.0
 10
604.041370049528
 20
362.1322214910816
 30
0.0
 10
603.9891444319863
 20
362.0447999191642
 30
0.0
 10
603.9119033843888
 20
361.9450814718354
 30
0.0
 10
603.8354977322055
 20
361.8654772555151
 30
0.0
 10
603.741226704409
 20
361.7864244272765
 30
0.0
 10
603.6473562768077
 20
361.7227689274808
 30
0.0
 10
603.5391308331746
 20
361.6643191204305
 30
0.0
 10
603.4652690759845
 20
361.6335431707699
 30
0.0
 10
603.423068849267
 20
361.6185435534737
 30
0.0
  0
SPLINE
  5
F9
330
1F
100
AcDbEntity
  8
0
  6
SLD-Сплошная
 62
     7
370
    35
100
AcDbSpline
210
0.0
220
0.0
230
1.0
 70
     8
 71
     3
 72
     8
 73
     4
 74
     0
 42
0.000000001
 43
0.00000001
 40
0.0
 40
0.0
 40
0.0
 40
0.0
 40
1.0
 40
1.0
 40
1.0
 40
1.0
 10
603.1861054183711
 20
361.5624574076737
 30
0.0
 10
603.2654525294288
 20
361.5717328377777
 30
0.0
 10
603.3447067366235
 20
361.5908479734924
 30
0.0
 10
603.4230688492669
 20
361.6185435534737
 30
0.0
  0
SPLINE
  5
FA
330
1F
100
AcDbEntity
  8
0
  6
SLD-Сплошная
 62
     7
370
    35
100
AcDbSpline
210
0.0
220
0.0
230
1.0
 70
     8
 71
     3
 72
     9
 73
     5
 74
     0
 42
0.000000001
 43
0.00000001
 40
0.925046152447719
 40
0.925046152447719
 40
0.925046152447719
 40
0.925046152447719
 40
0.9403746966207509
 40
1.0
 40
1.0
 40
1.0
 40
1.0
 10
603.1861054183679
 20
361.5624574076734
 30
0.0
 10
603.1693401442121
 20
361.5606352178677
 30
0.0
 10
603.0877901272
 20
361.5542319653829
 30
0.0
 10
603.0079095592143
 20
361.5575802263613
 30
0.0
 10
602.9443650814358
 20
361.5602437464225
 30
0.0
  0
ARC
  5
FB
330
1F
100
AcDbEntity
  8
0
  6
SLD-Сплошная
 62
     7
370
    35
100
AcDbCircle
 10
604.4971995771
 20
247.292204385
 30
0.0
 40
2.847250860790119
100
AcDbArc
 50
236.9493449578
 51
281.593488799
  0
SPLINE
  5
FC
330
1F
100
AcDbEntity
  8
0
  6
SLD-Сплошная
 62
     7
370
    35
100
AcDbSpline
210
0.0
220
0.0
230
1.0
 70
     8
 71
     3
 72
    10
 73
     6
 74
     0
 42
0.000000001
 43
0.00000001
 40
0.0
 40
0.0
 40
0.0
 40
0.0
 40
0.5
 40
0.5
 40
1.0
 40
1.0
 40
1.0
 40
1.0
 10
606.0556349186336
 20
244.9922918461118
 30
0.0
 10
605.9212015095326
 20
244.8669149223923
 30
0.0
 10
605.7709888239187
 20
244.7631719525806
 30
0.0
 10
605.4383060397598
 20
244.598250989725
 30
0.0
 10
605.2576862429773
 20
244.5387168563304
 30
0.0
 10
605.0694018992715
 20
244.5030428681961
 30
0.0
  0
SPLINE
  5
FD
330
1F
100
AcDbEntity
  8
0
  6
SLD-Сплошная
 62
     7
370
    35
100
AcDbSpline
210
0.0
220
0.0
230
1.0
 70
     8
 71
     3
 72
    10
 73
     6
 74
     0
 42
0.000000001
 43
0.00000001
 40
0.0
 40
0.0
 40
0.0
 40
0.0
 40
0.5
 40
0.5
 40
1.0
 40
1.0
 40
1.0
 40
1.0
 10
605.0694182909353
 20
376.7320140558313
 30
0.0
 10
605.2576700241813
 20
376.7676826150192
 30
0.0
 10
605.4349305264594
 20
376.8138933664512
 30
0.0
 10
605.7679590162205
 20
376.9219550297317
 30
0.0
 10
605.9211829141381
 20
376.9832682786445
 30
0.0
 10
606.0556349186517
 20
377.0480178605158
 30
0.0
  0
ARC
  5
FE
330
1F
100
AcDbEntity
  8
0
  6
SLD-Сплошная
 62
     7
370
    35
100
AcDbCircle
 10
604.4972003874
 20
379.5211749627
 30
0.0
 40
2.847253394636453
100
AcDbArc
 50
236.9493586817
 51
281.5937983772
  0
LWPOLYLINE
  5
FF
330
1F
100
AcDbEntity
  8
0
  6
SLD-Сплошная
 62
     7
370
    35
100
AcDbPolyline
 90
        9
 70
   128
 43
0.0
 10
606.0556349187
 20
377.0480178605
 10
606.6234160361
 20
377.2700462211
 10
607.1530274778
 20
377.3723420247
 10
607.6294461177
 20
377.3520035161
 10
608.0391577136
 20
377.2096076239
 10
608.3705402566
 20
376.949193595
 10
608.6141936443
 20
376.5781484165
 10
608.7632063275
 20
376.1069972733
 10
608.8133513653
 20
375.5491049883
  0
ARC
  5
100
330
1F
100
AcDbEntity
  8
0
  6
SLD-Сплошная
 62
     7
370
    35
100
AcDbCircle
 10
606.3325820658
 20
375.8978698976
 30
0.0
 40
2.080796123742134
100
AcDbArc
 50
61.7944758355
 51
122.7440317724
  0
SPLINE
  5
101
330
1F
100
AcDbEntity
  8
0
  6
SLD-Сплошная
 62
     7
370
    35
100
AcDbSpline
210
0.0
220
0.0
230
1.0
 70
     8
 71
     3
 72
    14
 73
    10
 74
     0
 42
0.000000001
 43
0.00000001
 40
0.0
 40
0.0
 40
0.0
 40
0.0
 40
0.25
 40
0.25
 40
0.5
 40
0.5
 40
0.75
 40
0.75
 40
1.0
 40
1.0
 40
1.0
 40
1.0
 10
605.2071067812096
 20
377.6480178605326
 30
0.0
 10
605.115550246285
 20
377.6039259380996
 30
0.0
 10
605.0070192271958
 20
377.5687775488273
 30
0.0
 10
604.7662909581624
 20
377.5223143028601
 30
0.0
 10
604.6352914196717
 20
377.5116168271655
 30
0.0
 10
604.373506918019
 20
377.5212478581543
 30
0.0
 10
604.2411906674596
 20
377.5418925565095
 30
0.0
 10
603.9990223844749
 20
377.614748922664
 30
0.0
 10
603.8867743601749
 20
377.6675477250973
 30
0.0
 10
603.7928932188656
 20
377.7339317167412
 30
0.0
  0
LINE
  5
102
330
1F
100
AcDbEntity
  8
0
  6
SLD-Сплошная
 62
     7
370
    35
100
AcDbLine
 10
603.7928932189
 20
377.7339317168
 30
0.0
 11
601.328069991
 21
379.4768249356
 31
0.0
  0
SPLINE
  5
103
330
1F
100
AcDbEntity
  8
0
  6
SLD-Сплошная
 62
     7
370
    35
100
AcDbSpline
210
0.0
220
0.0
230
1.0
 70
     8
 71
     3
 72
     8
 73
     4
 74
     0
 42
0.000000001
 43
0.00000001
 40
0.0
 40
0.0
 40
0.0
 40
0.0
 40
1.0
 40
1.0
 40
1.0
 40
1.0
 10
601.3280699910457
 20
379.4768249355537
 30
0.0
 10
601.169914893968
 20
379.5886574771763
 30
0.0
 10
600.9917851646244
 20
379.6819882108957
 30
0.0
 10
600.7936783745819
 20
379.7554040443028
 30
0.0
  0
ARC
  5
104
330
1F
100
AcDbEntity
  8
0
  6
SLD-Сплошная
 62
     7
370
    35
100
AcDbCircle
 10
599.8181551651
 20
362.8800034946
 30
0.0
 40
3.487043122188844
100
AcDbArc
 50
26.2954354578
 51
79.0664866524
  0
LINE
  5
105
330
1F
100
AcDbEntity
  8
0
  6
SLD-Сплошная
 62
     7
370
    35
100
AcDbLine
 10
600.4795418536
 20
378.8775321131
 30
0.0
 11
602.9443650814
 21
377.1346388942
 31
0.0
  0
ARC
  5
106
330
1F
100
AcDbEntity
  8
0
  6
SLD-Сплошная
 62
     7
370
    35
100
AcDbCircle
 10
600.5735686701
 20
251.1962471884
 30
0.0
 40
8.279016381382894
100
AcDbArc
 50
311.4651180209
 51
354.4198037491
  0
LINE
  5
107
330
1F
100
AcDbEntity
  8
0
  6
SLD-Сплошная
 62
     7
370
    35
100
AcDbLine
 10
608.8133513653
 20
375.5491049883
 30
0.0
 11
608.8133513653
 21
250.3912047183
 31
0.0
  0
ARC
  5
108
330
1F
100
AcDbEntity
  8
0
  6
SLD-Сплошная
 62
     7
370
    35
100
AcDbCircle
 10
594.3720088386
 20
376.9930136802
 30
0.0
 40
2.940189798904827
100
AcDbArc
 50
89.7147116143
 51
109.5807411341
  0
ARC
  5
109
330
1F
100
AcDbEntity
  8
0
  6
SLD-Сплошная
 62
     7
370
    35
100
AcDbCircle
 10
594.2616486348
 20
378.2007554178
 30
0.0
 40
0.8926785535575047
100
AcDbArc
 50
81.9505330237
 51
168.578246341
  0
ARC
  5
10A
330
1F
100
AcDbEntity
  8
0
  6
SLD-Сплошная
 62
     7
370
    35
100
AcDbCircle
 10
594.2616486348
 20
245.9717873359
 30
0.0
 40
0.8926785535679623
100
AcDbArc
 50
81.9505330245
 51
168.578246341
  0
ARC
  5
10B
330
1F
100
AcDbEntity
  8
0
  6
SLD-Сплошная
 62
     7
370
    35
100
AcDbCircle
 10
599.7940404852
 20
377.8477442156
 30
0.0
 40
1.237083360186893
100
AcDbArc
 50
56.3493899563
 51
91.0007101733
  0
SPLINE
  5
10C
330
1F
100
AcDbEntity
  8
0
  6
SLD-Сплошная
 62
     7
370
    35
100
AcDbSpline
210
0.0
220
0.0
230
1.0
 70
     8
 71
     3
 72
    14
 73
    10
 74
     0
 42
0.000000001
 43
0.00000001
 40
0.0
 40
0.0
 40
0.0
 40
0.0
 40
0.25
 40
0.25
 40
0.5
 40
0.5
 40
0.75
 40
0.75
 40
1.0
 40
1.0
 40
1.0
 40
1.0
 10
599.7724350724352
 20
365.0509534576886
 30
0.0
 10
599.7797465377597
 20
365.1697412823434
 30
0.0
 10
599.7963703321625
 20
365.2878184204451
 30
0.0
 10
599.8530419050727
 20
365.5197057373823
 30
0.0
 10
599.8925362165302
 20
365.6331401510388
 30
0.0
 10
599.9922494079779
 20
365.8447201290983
 30
0.0
 10
600.0525726882496
 20
365.943581708932
 30
0.0
 10
600.1928936304785
 20
366.117016297346
 30
0.0
 10
600.2726260195009
 20
366.1931516625261
 30
0.0
 10
600.3571661049187
 20
366.2444742224609
 30
0.0
  0
SPLINE
  5
10D
330
1F
100
AcDbEntity
  8
0
  6
SLD-Сплошная
 62
     7
370
    35
100
AcDbSpline
210
0.0
220
0.0
230
1.0
 70
     8
 71
     3
 72
     8
 73
     4
 74
     0
 42
0.000000001
 43
0.00000001
 40
0.0
 40
0.0
 40
0.0
 40
0.0
 40
1.0
 40
1.0
 40
1.0
 40
1.0
 10
600.4795418536218
 20
366.3037495985826
 30
0.0
 10
600.4406240562612
 20
366.2877554462866
 30
0.0
 10
600.3984005093232
 20
366.269506787557
 30
0.0
 10
600.3571661049191
 20
366.2444742224612
 30
0.0
  0
SPLINE
  5
10E
330
1F
100
AcDbEntity
  8
0
  6
SLD-Сплошная
 62
     7
370
    35
100
AcDbSpline
210
0.0
220
0.0
230
1.0
 70
     8
 71
     3
 72
    19
 73
    15
 74
     0
 42
0.000000001
 43
0.00000001
 40
0.0
 40
0.0
 40
0.0
 40
0.0
 40
0.0526315789474442
 40
0.1052631578948325
 40
0.1578947368421131
 40
0.2105263157895245
 40
0.2631578947368127
 40
0.3157894736842404
 40
0.3684210526316477
 40
0.4210526315789286
 40
0.4736842105263779
 40
0.5263157894736451
 40
0.5789473684210593
 40
0.6146345931099495
 40
0.6146345931099495
 40
0.6146345931099495
 40
0.6146345931099495
 10
599.7724350724352
 20
379.933167031669
 30
0.0
 10
599.8027486852674
 20
379.932911214195
 30
0.0
 10
599.8633759109321
 20
379.9323995792472
 30
0.0
 10
599.954161378532
 20
379.9282635128654
 30
0.0
 10
600.0446363697858
 20
379.9216688676428
 30
0.0
 10
600.1346463096911
 20
379.9123849606825
 30
0.0
 10
600.2240374177666
 20
379.9004924836144
 30
0.0
 10
600.3126569708364
 20
379.8859943833509
 30
0.0
 10
600.4003535637576
 20
379.8689200841661
 30
0.0
 10
600.4869773688332
 20
379.8492975103438
 30
0.0
 10
600.5723803890229
 20
379.8271605196896
 30
0.0
 10
600.6564167211287
 20
379.8025468478817
 30
0.0
 10
600.7300865463543
 20
379.7784012211937
 30
0.0
 10
600.7754727646227
 20
379.762150807776
 30
0.0
 10
600.7936783778429
 20
379.7554040466358
 30
0.0
  0
LINE
  5
10F
330
1F
100
AcDbEntity
  8
0
  6
SLD-Сплошная
 62
     7
370
    35
100
AcDbLine
 10
594.3866486348
 20
246.8556708124
 30
0.0
 11
599.7724350724
 21
246.8556708124
 31
0.0
  0
LINE
  5
110
330
1F
100
AcDbEntity
  8
0
  6
SLD-Сплошная
 62
     7
370
    35
100
AcDbLine
 10
599.7724350724
 20
365.0509534577
 30
0.0
 11
599.7724350724
 21
364.8340530833
 31
0.0
  0
LINE
  5
111
330
1F
100
AcDbEntity
  8
0
  6
SLD-Сплошная
 62
     7
370
    35
100
AcDbLine
 10
594.3866486348
 20
379.0846388942
 30
0.0
 11
599.7724350724
 21
379.0846388942
 31
0.0
  0
LINE
  5
112
330
1F
100
AcDbEntity
  8
0
  6
SLD-Сплошная
 62
     7
370
    35
100
AcDbLine
 10
594.3866486348
 20
379.9331670317
 30
0.0
 11
599.7724350724
 21
379.9331670317
 31
0.0
  0
SPLINE
  5
113
330
1F
100
AcDbEntity
  8
0
  6
SLD-Сплошная
 62
     7
370
    35
100
AcDbSpline
210
0.0
220
0.0
230
1.0
 70
    24
 71
     3
 72
    19
 73
    15
 74
     0
 42
0.000000001
 43
0.00000001
 40
0.3853654070179406
 40
0.3853654070179406
 40
0.3853654070179406
 40
0.3853654070179406
 40
0.4210526315789303
 40
0.4736842105263119
 40
0.5263157894736592
 40
0.5789473684210253
 40
0.6315789473684204
 40
0.6842105263157978
 40
0.7368421052631278
 40
0.7894736842105051
 40
0.8421052631578846
 40
0.8947368421052674
 40
0.9473684210525971
 40
0.9999999999999999
 40
0.9999999999999999
 40
0.9999999999999999
 40
0.9999999999999999
 10
600.7936783776469
 20
-365.9640328181775
 30
0.0
 10
600.775472764491
 20
-365.9640328181775
 30
0.0
 10
600.7300865462872
 20
-365.9640328181775
 30
0.0
 10
600.6564167211285
 20
-365.9640328181777
 30
0.0
 10
600.5723803890228
 20
-365.9640328181775
 30
0.0
 10
600.486977368833
 20
-365.9640328181775
 30
0.0
 10
600.4003535637573
 20
-365.9640328181776
 30
0.0
 10
600.3126569708362
 20
-365.9640328181775
 30
0.0
 10
600.2240374177663
 20
-365.9640328181775
 30
0.0
 10
600.1346463096909
 20
-365.9640328181776
 30
0.0
 10
600.0446363697856
 20
-365.9640328181775
 30
0.0
 10
599.9541613785318
 20
-365.9640328181776
 30
0.0
 10
599.8633759109318
 20
-365.9640328181775
 30
0.0
 10
599.8027486852673
 20
-365.9640328181775
 30
0.0
 10
599.7724350724351
 20
-365.9640328181775
 30
0.0
  0
SPLINE
  5
114
330
1F
100
AcDbEntity
  8
0
  6
SLD-Сплошная
 62
     7
370
    35
100
AcDbSpline
210
0.0
220
0.0
230
1.0
 70
     8
 71
     3
 72
     8
 73
     4
 74
     0
 42
0.000000001
 43
0.00000001
 40
0.0
 40
0.0
 40
0.0
 40
0.0
 40
1.0
 40
1.0
 40
1.0
 40
1.0
 10
601.3280699910454
 20
-365.9630327181575
 30
0.0
 10
601.1699148939143
 20
-365.9630327181575
 30
0.0
 10
600.9917851645054
 20
-365.9640328182393
 30
0.0
 10
600.7936783743858
 20
-365.9640328181775
 30
0.0
  0
SPLINE
  5
115
330
1F
100
AcDbEntity
  8
0
  6
SLD-Сплошная
 62
     7
370
    35
100
AcDbSpline
210
0.0
220
0.0
230
1.0
 70
     8
 71
     3
 72
    20
 73
    16
 74
     0
 42
0.000000001
 43
0.00000001
 40
0.0
 40
0.0
 40
0.0
 40
0.0
 40
0.062812759113692
 40
0.1303108571532838
 40
0.1844963557928342
 40
0.254537580366099
 40
0.3094421422092811
 40
0.3730100996045906
 40
0.4370728363250578
 40
0.4863974398432191
 40
0.5667266283591725
 40
0.5957158256756345
 40
0.6976810152265995
 40
0.7022984967006566
 40
0.7213092523393831
 40
0.7213092523393831
 40
0.7213092523393831
 40
0.7213092523393831
 10
600.7860571273546
 20
-347.782516997879
 30
0.0
 10
600.743796984499
 20
-347.7474907947742
 30
0.0
 10
600.6563824625955
 20
-347.6725744243127
 30
0.0
 10
600.534748253504
 20
-347.5594217262633
 30
0.0
 10
600.4118436815578
 20
-347.434468371987
 30
0.0
 10
600.3018041704862
 20
-347.3106908911479
 30
0.0
 10
600.1930682979167
 20
-347.1729813127756
 30
0.0
 10
600.0956260889046
 20
-347.032886347745
 30
0.0
 10
600.0109963556142
 20
-346.8901260778935
 30
0.0
 10
599.9295711596503
 20
-346.7275831106703
 30
0.0
 10
599.8745904390354
 20
-346.5889652436263
 30
0.0
 10
599.8159136009905
 20
-346.3993822918881
 30
0.0
 10
599.7898353718757
 20
-346.2742513450768
 30
0.0
 10
599.7762466265235
 20
-346.1572165521908
 30
0.0
 10
599.7741344681924
 20
-346.1351548777607
 30
0.0
 10
599.7724350724351
 20
-346.1174045437189
 30
0.0
  0
SPLINE
  5
116
330
1F
100
AcDbEntity
  8
0
  6
SLD-Сплошная
 62
     7
370
    35
100
AcDbSpline
210
0.0
220
0.0
230
1.0
 70
     8
 71
     3
 72
     8
 73
     4
 74
     0
 42
0.000000001
 43
0.00000001
 40
0.0
 40
0.0
 40
0.0
 40
0.0
 40
1.0
 40
1.0
 40
1.0
 40
1.0
 10
601.0588433439442
 20
-347.9940705656784
 30
0.0
 10
600.9689537523295
 20
-347.9292215705568
 30
0.0
 10
600.8777662796336
 20
-347.8586565212799
 30
0.0
 10
600.7860571273584
 20
-347.7825169978822
 30
0.0
  0
SPLINE
  5
117
330
1F
100
AcDbEntity
  8
0
  6
SLD-Сплошная
 62
     7
370
    35
100
AcDbSpline
210
0.0
220
0.0
230
1.0
 70
     8
 71
     3
 72
     9
 73
     5
 74
     0
 42
0.000000001
 43
0.00000001
 40
0.8577255279202609
 40
0.8577255279202609
 40
0.8577255279202609
 40
0.8577255279202609
 40
0.9673841945286347
 40
1.0
 40
1.0
 40
1.0
 40
1.0
 10
601.3280699910454
 20
-348.1820190558755
 30
0.0
 10
601.2599425762455
 20
-348.1355254017534
 30
0.0
 10
601.1715520069035
 20
-348.0752031281031
 30
0.0
 10
601.0800360756771
 20
-348.0094997025915
 30
0.0
 10
601.0588433439442
 20
-347.9940705656784
 30
0.0
  0
LINE
  5
118
330
1F
100
AcDbEntity
  8
0
  6
SLD-Сплошная
 62
     7
370
    35
100
AcDbLine
 10
599.7724350724
 20
-178.9640328182
 30
0.0
 11
601.328069991
 21
-178.9640328182
 31
0.0
  0
SPLINE
  5
119
330
1F
100
AcDbEntity
  8
0
  6
SLD-Сплошная
 62
     7
370
    35
100
AcDbSpline
210
0.0
220
0.0
230
1.0
 70
     8
 71
     3
 72
     9
 73
     5
 74
     0
 42
0.000000001
 43
0.00000001
 40
0.0
 40
0.0
 40
0.0
 40
0.0
 40
0.0066027594853136
 40
0.026023009485369
 40
0.026023009485369
 40
0.026023009485369
 40
0.026023009485369
 10
601.2807857249742
 20
-343.7779940743272
 30
0.0
 10
601.284815619538
 20
-343.7752592350303
 30
0.0
 10
601.3006521937119
 20
-343.7645298740154
 30
0.0
 10
601.3163529512757
 20
-343.7539454456875
 30
0.0
 10
601.3280699910454
 20
-343.7460465804795
 30
0.0
  0
SPLINE
  5
11A
330
1F
100
AcDbEntity
  8
0
  6
SLD-Сплошная
 62
     7
370
    35
100
AcDbSpline
210
0.0
220
0.0
230
1.0
 70
     8
 71
     3
 72
    16
 73
    12
 74
     0
 42
0.000000001
 43
0.00000001
 40
0.0
 40
0.0
 40
0.0
 40
0.0
 40
0.1250000000000102
 40
0.1250000000000102
 40
0.2500000000000205
 40
0.2500000000000205
 40
0.5000000000000137
 40
0.5000000000000137
 40
0.7500000000000068
 40
0.7500000000000068
 40
1.0
 40
1.0
 40
1.0
 40
1.0
 10
599.7724350724351
 20
-345.8106610926361
 30
0.0
 10
599.7877965784725
 20
-345.6971237162588
 30
0.0
 10
599.8034814781882
 20
-345.5836695304632
 30
0.0
 10
599.8631535346215
 20
-345.3640431796235
 30
0.0
 10
599.9052683143336
 20
-345.2565212532125
 30
0.0
 10
600.0530097096514
 20
-344.9459480130166
 30
0.0
 10
600.1817280090598
 20
-344.7586315531244
 30
0.0
 10
600.4781803937609
 20
-344.4152959867962
 30
0.0
 10
600.6394456905489
 20
-344.2657828302749
 30
0.0
 10
600.9676478184552
 20
-343.9964966214436
 30
0.0
 10
601.1303005728674
 20
-343.8797270889096
 30
0.0
 10
601.2807857249741
 20
-343.7779940743272
 30
0.0
  0
LINE
  5
11B
330
1F
100
AcDbEntity
  8
0
  6
SLD-Сплошная
 62
     7
370
    35
100
AcDbLine
 10
599.7724350724
 20
-346.1174045437
 30
0.0
 11
599.7724350724
 21
-345.8106610926
 31
0.0
  0
LINE
  5
11C
330
1F
100
AcDbEntity
  8
0
  6
SLD-Сплошная
 62
     7
370
    35
100
AcDbLine
 10
594.3866486348
 20
-178.9640328182
 30
0.0
 11
599.7724350724
 21
-178.9640328182
 31
0.0
  0
LINE
  5
11D
330
1F
100
AcDbEntity
  8
0
  6
SLD-Сплошная
 62
     7
370
    35
100
AcDbLine
 10
594.3866486348
 20
-365.9640328182
 30
0.0
 11
599.7724350724
 21
-365.9640328182
 31
0.0
  0
LINE
  5
11E
330
1F
100
AcDbEntity
  8
0
  6
SLD-Сплошная
 62
     7
370
    35
100
AcDbLine
 10
592.1866486348
 20
-178.9640328182
 30
0.0
 11
594.3866486348
 21
-178.9640328182
 31
0.0
  0
LINE
  5
11F
330
1F
100
AcDbEntity
  8
0
  6
SLD-Сплошная
 62
     7
370
    35
100
AcDbLine
 10
592.1866486348
 20
-365.9640328182
 30
0.0
 11
594.3866486348
 21
-365.9640328182
 31
0.0
  0
LINE
  5
120
330
1F
100
AcDbEntity
  8
0
  6
SLD-Сплошная
 62
     7
370
    35
100
AcDbLine
 10
592.1866486348
 20
-365.9640328182
 30
0.0
 11
592.1866486348
 21
-178.9640328182
 31
0.0
  0
ARC
  5
121
330
1F
100
AcDbEntity
  8
0
  6
SLD-Сплошная
 62
     7
370
    35
100
AcDbCircle
 10
603.9071389813
 20
-361.4084321421
 30
0.0
 40
4.92629787125259
100
AcDbArc
 50
295.8570855409
 51
5.1756649097
  0
ARC
  5
122
330
1F
100
AcDbEntity
  8
0
  6
SLD-Сплошная
 62
     7
370
    35
100
AcDbCircle
 10
603.0586108438
 20
-361.4084321421
 30
0.0
 40
4.926297871247644
100
AcDbArc
 50
295.8570855408
 51
5.1756649097
  0
SPLINE
  5
123
330
1F
100
AcDbEntity
  8
0
  6
SLD-Сплошная
 62
     7
370
    35
100
AcDbSpline
210
0.0
220
0.0
230
1.0
 70
     8
 71
     3
 72
    14
 73
    10
 74
     0
 42
0.000000001
 43
0.00000001
 40
0.0
 40
0.0
 40
0.0
 40
0.0
 40
0.25
 40
0.25
 40
0.5
 40
0.5
 40
0.75
 40
0.75
 40
1.0
 40
1.0
 40
1.0
 40
1.0
 10
605.2071067812293
 20
-365.8415321774804
 30
0.0
 10
605.1155502463021
 20
-365.8707333177098
 30
0.0
 10
605.0070192271953
 20
-365.894122773656
 30
0.0
 10
604.7662909581611
 20
-365.9293424143754
 30
0.0
 10
604.6352914196701
 20
-365.9409397059401
 30
0.0
 10
604.3735069180165
 20
-365.9557116859402
 30
0.0
 10
604.2411906674569
 20
-365.9590988980534
 30
0.0
 10
603.9990223844717
 20
-365.9626791508994
 30
0.0
 10
603.8867743601684
 20
-365.9630327181574
 30
0.0
 10
603.7928932188596
 20
-365.9630327181575
 30
0.0
  0
LINE
  5
124
330
1F
100
AcDbEntity
  8
0
  6
SLD-Сплошная
 62
     7
370
    35
100
AcDbLine
 10
603.7928932189
 20
-365.9630327182
 30
0.0
 11
601.328069991
 21
-365.9630327182
 31
0.0
  0
LINE
  5
125
330
1F
100
AcDbEntity
  8
0
  6
SLD-Сплошная
 62
     7
370
    35
100
AcDbLine
 10
601.2573593129
 20
-365.9640328182
 30
0.0
 11
603.7221825407
 21
-365.9640328182
 31
0.0
  0
LINE
  5
126
330
1F
100
AcDbEntity
  8
0
  6
SLD-Сплошная
 62
     7
370
    35
100
AcDbLine
 10
603.7221825407
 20
-365.9640328182
 30
0.0
 11
605.0694258985
 21
-365.9640328182
 31
0.0
  0
SPLINE
  5
127
330
1F
100
AcDbEntity
  8
0
  6
SLD-Сплошная
 62
     7
370
    35
100
AcDbSpline
210
0.0
220
0.0
230
1.0
 70
     8
 71
     3
 72
    10
 73
     6
 74
     0
 42
0.000000001
 43
0.00000001
 40
0.0
 40
0.0
 40
0.0
 40
0.0
 40
0.5
 40
0.5
 40
1.0
 40
1.0
 40
1.0
 40
1.0
 10
605.069418290781
 20
-365.9640328181559
 30
0.0
 10
605.257670024057
 20
-365.9640323220598
 30
0.0
 10
605.4349305263644
 20
-365.955521756244
 30
0.0
 10
605.7679590161813
 20
-365.9157329987544
 30
0.0
 10
605.9211829141236
 20
-365.8844144451591
 30
0.0
 10
606.0556349186558
 20
-365.8415321774806
 30
0.0
  0
LINE
  5
128
330
1F
100
AcDbEntity
  8
0
  6
SLD-Сплошная
 62
     7
370
    35
100
AcDbLine
 10
600.7936783777
 20
-365.9640328182
 30
0.0
 11
601.2573593129
 21
-365.9640328182
 31
0.0
  0
ARC
  5
129
330
1F
100
AcDbEntity
  8
0
  6
SLD-Сплошная
 62
     7
370
    35
100
AcDbCircle
 10
603.0586108438
 20
-183.5196334942
 30
0.0
 40
4.926297871252918
100
AcDbArc
 50
354.8243350903
 51
64.1429144591
  0
LINE
  5
12A
330
1F
100
AcDbEntity
  8
0
  6
SLD-Сплошная
 62
     7
370
    35
100
AcDbLine
 10
607.9648232279
 20
-360.9640328182
 30
0.0
 11
607.9648232279
 21
-183.9640328182
 31
0.0
  0
LINE
  5
12B
330
1F
100
AcDbEntity
  8
0
  6
SLD-Сплошная
 62
     7
370
    35
100
AcDbLine
 10
608.8133513653
 20
-360.9640328182
 30
0.0
 11
608.8133513653
 21
-183.9640328182
 31
0.0
  0
SPLINE
  5
12C
330
1F
100
AcDbEntity
  8
0
  6
SLD-Сплошная
 62
     7
370
    35
100
AcDbSpline
210
0.0
220
0.0
230
1.0
 70
     8
 71
     3
 72
    10
 73
     6
 74
     0
 42
0.000000001
 43
0.00000001
 40
0.0
 40
0.0
 40
0.0
 40
0.0
 40
0.5
 40
0.5
 40
1.0
 40
1.0
 40
1.0
 40
1.0
 10
606.0556349186531
 20
-179.0865334588747
 30
0.0
 10
605.9212015095504
 20
-179.0436571220426
 30
0.0
 10
605.7709888239193
 20
-179.0128598070044
 30
0.0
 10
605.4383060397596
 20
-178.9727851376922
 30
0.0
 10
605.2576862429773
 20
-178.9640328181775
 30
0.0
 10
605.0694018992715
 20
-178.9640328181775
 30
0.0
  0
LINE
  5
12D
330
1F
100
AcDbEntity
  8
0
  6
SLD-Сплошная
 62
     7
370
    35
100
AcDbLine
 10
605.0694018993
 20
-178.9640328182
 30
0.0
 11
603.7928932189
 21
-178.9640328182
 31
0.0
  0
SPLINE
  5
12E
330
1F
100
AcDbEntity
  8
0
  6
SLD-Сплошная
 62
     7
370
    35
100
AcDbSpline
210
0.0
220
0.0
230
1.0
 70
     8
 71
     3
 72
    14
 73
    10
 74
     0
 42
0.000000001
 43
0.00000001
 40
0.0
 40
0.0
 40
0.0
 40
0.0
 40
0.25
 40
0.25
 40
0.5
 40
0.5
 40
0.75
 40
0.75
 40
1.0
 40
1.0
 40
1.0
 40
1.0
 10
603.7928932188598
 20
-178.9650329181976
 30
0.0
 10
603.886773827584
 20
-178.9650329181976
 30
0.0
 10
603.9975083311497
 20
-178.9653708966391
 30
0.0
 10
604.2410298632864
 20
-178.968957612362
 30
0.0
 10
604.3727725365275
 20
-178.9723286016682
 30
0.0
 10
604.6344728260767
 20
-178.9870637430871
 30
0.0
 10
604.7661355104676
 20
-178.9987344439643
 30
0.0
 10
605.0055062429351
 20
-179.0336877775181
 30
0.0
 10
605.1155384814994
 20
-179.0573285663654
 30
0.0
 10
605.2071067812319
 20
-179.0865334588745
 30
0.0
  0
ARC
  5
12F
330
1F
100
AcDbEntity
  8
0
  6
SLD-Сплошная
 62
     7
370
    35
100
AcDbCircle
 10
603.9071389813
 20
-183.5196334942
 30
0.0
 40
4.926297871247279
100
AcDbArc
 50
354.8243350903
 51
64.1429144592
  0
ARC
  5
130
330
1F
100
AcDbEntity
  8
0
  6
SLD-Сплошная
 62
     7
370
    35
100
AcDbCircle
 10
602.4874209307
 20
-347.1501290788
 30
0.0
 40
1.552060413127803
100
AcDbArc
 50
221.6709478884
 51
327.2587992148
  0
LINE
  5
131
330
1F
100
AcDbEntity
  8
0
  6
SLD-Сплошная
 62
     7
370
    35
100
AcDbLine
 10
602.9443650814
 20
-347.989553662
 30
0.0
 11
603.7928932189
 21
-347.989553662
 31
0.0
  0
ARC
  5
132
330
1F
100
AcDbEntity
  8
0
  6
SLD-Сплошная
 62
     7
370
    35
100
AcDbCircle
 10
601.4781136052
 20
-346.9369519089
 30
0.0
 40
1.804955357383958
100
AcDbArc
 50
288.5852032802
 51
324.3259541546
  0
LINE
  5
133
330
1F
100
AcDbEntity
  8
0
  6
SLD-Сплошная
 62
     7
370
    35
100
AcDbLine
 10
601.328069991
 20
-178.9640328182
 30
0.0
 11
603.7928932189
 21
-178.9640328182
 31
0.0
  0
ARC
  5
134
330
1F
100
AcDbEntity
  8
0
  6
SLD-Сплошная
 62
     7
370
    35
100
AcDbCircle
 10
602.4874209307
 20
-344.7779365575
 30
0.0
 40
1.552060413127718
100
AcDbArc
 50
32.7412007852
 51
138.3290521116
  0
ARC
  5
135
330
1F
100
AcDbEntity
  8
0
  6
SLD-Сплошная
 62
     7
370
    35
100
AcDbCircle
 10
601.4781136052
 20
-344.9911137275
 30
0.0
 40
1.804955357376575
100
AcDbArc
 50
35.6740458453
 51
71.4147967196
  0
LINE
  5
136
330
1F
100
AcDbEntity
  8
0
  6
SLD-Сплошная
 62
     7
370
    35
100
AcDbLine
 10
602.9443650814
 20
-343.9385119744
 30
0.0
 11
603.7928932189
 21
-343.9385119744
 31
0.0
  0
SPLINE
  5
137
330
1F
100
AcDbEntity
  8
0
  6
SLD-Сплошная
 62
     7
370
    35
100
AcDbSpline
210
0.0
220
0.0
230
1.0
 70
     8
 71
     3
 72
    24
 73
    20
 74
     0
 42
0.000000001
 43
0.00000001
 40
0.0
 40
0.0
 40
0.0
 40
0.0
 40
0.062500000000003
 40
0.062500000000003
 40
0.1250000000000061
 40
0.1250000000000061
 40
0.250000000000004
 40
0.250000000000004
 40
0.3750000000000019
 40
0.3750000000000019
 40
0.4999999999999998
 40
0.4999999999999998
 40
0.7499999999999956
 40
0.7499999999999956
 40
0.8749999999999934
 40
0.8749999999999934
 40
0.9374999999999968
 40
0.9374999999999968
 40
1.0
 40
1.0
 40
1.0
 40
1.0
 10
603.7928932188595
 20
-343.9385119743695
 30
0.0
 10
603.8302047111205
 20
-344.0122366267519
 30
0.0
 10
603.8704919811372
 20
-344.0856227019191
 30
0.0
 10
603.9464214973889
 20
-344.2382584745835
 30
0.0
 10
603.9823249867477
 20
-344.3171952522806
 30
0.0
 10
604.0849807831117
 20
-344.5594556070679
 30
0.0
 10
604.1459596078795
 20
-344.7298796110745
 30
0.0
 10
604.2420957992048
 20
-345.0738588375269
 30
0.0
 10
604.2783866183611
 20
-345.248583563401
 30
0.0
 10
604.3270212921477
 20
-345.6030768075331
 30
0.0
 10
604.3393863152834
 20
-345.7841442024852
 30
0.0
 10
604.3394073636503
 20
-346.3232672271246
 30
0.0
 10
604.2911115343363
 20
-346.6786564031658
 30
0.0
 10
604.1458189228382
 20
-347.1987607796517
 30
0.0
 10
604.0861392073571
 20
-347.3663405612432
 30
0.0
 10
603.9833751617198
 20
-347.60816983303
 30
0.0
 10
603.9470151091363
 20
-347.6872257833383
 30
0.0
 10
603.8713162215666
 20
-347.8421489619686
 30
0.0
 10
603.8312949349713
 20
-347.9167382922893
 30
0.0
 10
603.7928932188595
 20
-347.9895536619855
 30
0.0
  0
SPLINE
  5
138
330
1F
100
AcDbEntity
  8
0
  6
SLD-Сплошная
 62
     7
370
    35
100
AcDbSpline
210
0.0
220
0.0
230
1.0
 70
     8
 71
     3
 72
    24
 73
    20
 74
     0
 42
0.000000001
 43
0.00000001
 40
0.3226325185847406
 40
0.3226325185847406
 40
0.3226325185847406
 40
0.3226325185847406
 40
0.3408359661209556
 40
0.3634031851059789
 40
0.4089555282536129
 40
0.4228752463279404
 40
0.477609375913605
 40
0.4811514453540191
 40
0.5391262538516391
 40
0.5463954727465588
 40
0.5977220700428024
 40
0.6149080216630324
 40
0.6578042743298614
 40
0.6827490245531165
 40
0.7201096726871993
 40
0.7495399669493868
 40
0.7852013938951833
 40
0.8149338077594342
 40
0.8534517169177935
 40
0.8534517169177935
 40
0.8534517169177935
 40
0.8534517169177935
 10
603.9323247110591
 20
-346.8367133535149
 30
0.0
 10
603.9460960040423
 20
-346.8091010982355
 30
0.0
 10
603.975736896172
 20
-346.7465720691125
 30
0.0
 10
604.0323258690601
 20
-346.6111094997081
 30
0.0
 10
604.0753963623275
 20
-346.4778443430958
 30
0.0
 10
604.12057016787
 20
-346.2883336131184
 30
0.0
 10
604.1379440422664
 20
-346.1659552244978
 30
0.0
 10
604.1495437156286
 20
-345.9678245113178
 30
0.0
 10
604.1461346043645
 20
-345.8500174097967
 30
0.0
 10
604.1221777504801
 20
-345.6524781754306
 30
0.0
 10
604.0961196586958
 20
-345.5254857663976
 30
0.0
 10
604.0413700495277
 20
-345.3436296106182
 30
0.0
 10
603.989144431986
 20
-345.2084415334781
 30
0.0
 10
603.9119033843884
 20
-345.0474868980661
 30
0.0
 10
603.8354977322051
 20
-344.912472195151
 30
0.0
 10
603.7412267044085
 20
-344.7685845618337
 30
0.0
 10
603.6473562768074
 20
-344.6418034957692
 30
0.0
 10
603.5391308331752
 20
-344.5101370509661
 30
0.0
 10
603.4652690759859
 20
-344.4284138435363
 30
0.0
 10
603.4230688492694
 20
-344.3837152001475
 30
0.0
  0
SPLINE
  5
139
330
1F
100
AcDbEntity
  8
0
  6
SLD-Сплошная
 62
     7
370
    35
100
AcDbSpline
210
0.0
220
0.0
230
1.0
 70
     8
 71
     3
 72
    18
 73
    14
 74
     0
 42
0.000000001
 43
0.00000001
 40
0.0
 40
0.0
 40
0.0
 40
0.0
 40
0.0205701374665411
 40
0.0265544759777553
 40
0.0809508065720842
 40
0.1003441519411311
 40
0.1434010481765392
 40
0.1707617406798612
 40
0.2077190758468702
 40
0.2378795944484826
 40
0.2736373449872276
 40
0.3019469741432328
 40
0.3226325185847406
 40
0.3226325185847406
 40
0.3226325185847406
 40
0.3226325185847406
 10
602.9443650814356
 20
-347.9895536619856
 30
0.0
 10
602.9659003049647
 20
-347.9713042067864
 30
0.0
 10
602.99370063332
 20
-347.9477455543232
 30
0.0
 10
603.0794662829005
 20
-347.8741281467836
 30
0.0
 10
603.1669266766353
 20
-347.7963760865642
 30
0.0
 10
603.2963754273613
 20
-347.6739775006761
 30
0.0
 10
603.3958373481506
 20
-347.5745472403783
 30
0.0
 10
603.512583521923
 20
-347.4480077952015
 30
0.0
 10
603.6124836539766
 20
-347.3302777898126
 30
0.0
 10
603.7160921217649
 20
-347.1948567873274
 30
0.0
 10
603.8048999135817
 20
-347.0643411629035
 30
0.0
 10
603.8779670038269
 20
-346.9414741504435
 30
0.0
 10
603.9166756592819
 20
-346.8680906260111
 30
0.0
 10
603.9323247110591
 20
-346.8367133535149
 30
0.0
  0
SPLINE
  5
13A
330
1F
100
AcDbEntity
  8
0
  6
SLD-Сплошная
 62
     7
370
    35
100
AcDbSpline
210
0.0
220
0.0
230
1.0
 70
     8
 71
     3
 72
     9
 73
     5
 74
     0
 42
0.000000001
 43
0.00000001
 40
0.9250461524477263
 40
0.9250461524477263
 40
0.9250461524477263
 40
0.9250461524477263
 40
0.9403746966207454
 40
1.0
 40
1.0
 40
1.0
 40
1.0
 10
603.1861054183751
 20
-344.1505702055523
 30
0.0
 10
603.1693401442167
 20
-344.1351772522862
 30
0.0
 10
603.0877901272023
 20
-344.0613142491973
 30
0.0
 10
603.0079095592141
 20
-343.9929195318657
 30
0.0
 10
602.9443650814356
 20
-343.9385119743695
 30
0.0
  0
SPLINE
  5
13B
330
1F
100
AcDbEntity
  8
0
  6
SLD-Сплошная
 62
     7
370
    35
100
AcDbSpline
210
0.0
220
0.0
230
1.0
 70
     8
 71
     3
 72
     8
 73
     4
 74
     0
 42
0.000000001
 43
0.00000001
 40
0.0
 40
0.0
 40
0.0
 40
0.0
 40
1.0
 40
1.0
 40
1.0
 40
1.0
 10
603.1861054183647
 20
-344.1505702055429
 30
0.0
 10
603.2654525294255
 20
-344.2227695619226
 30
0.0
 10
603.3447067366234
 20
-344.300557404667
 30
0.0
 10
603.4230688492694
 20
-344.3837152001475
 30
0.0
  0
LINE
  5
13C
330
1F
100
AcDbEntity
  8
0
  6
SLD-Сплошная
 62
     7
370
    35
100
AcDbLine
 10
592.1866486348
 20
-178.9640328182
 30
0.0
 11
592.1866486348
 21
-173.4643197455
 31
0.0
  0
LINE
  5
13D
330
1F
100
AcDbEntity
  8
0
  6
SLD-Сплошная
 62
     7
370
    35
100
AcDbLine
 10
593.3866486348
 20
-178.9640328182
 30
0.0
 11
593.3866486348
 21
-173.4643197455
 31
0.0
  0
LINE
  5
13E
330
1F
100
AcDbEntity
  8
0
  6
SLD-Сплошная
 62
     7
370
    35
100
AcDbLine
 10
592.1866486348
 20
-395.9640328182
 30
0.0
 11
593.3866486348
 21
-395.9640328182
 31
0.0
  0
LINE
  5
13F
330
1F
100
AcDbEntity
  8
0
  6
SLD-Сплошная
 62
     7
370
    35
100
AcDbLine
 10
592.1866486348
 20
-390.9640328182
 30
0.0
 11
592.1866486348
 21
-395.9640328182
 31
0.0
  0
LINE
  5
140
330
1F
100
AcDbEntity
  8
0
  6
SLD-Сплошная
 62
     7
370
    35
100
AcDbLine
 10
593.3866486348
 20
-395.9640328182
 30
0.0
 11
593.3866486348
 21
-390.9640328182
 31
0.0
  0
LINE
  5
141
330
1F
100
AcDbEntity
  8
0
  6
SLD-Сплошная
 62
     7
370
    35
100
AcDbLine
 10
592.1866486348
 20
-390.9640328182
 30
0.0
 11
592.1866486348
 21
-365.9640328182
 31
0.0
  0
LINE
  5
142
330
1F
100
AcDbEntity
  8
0
  6
SLD-Сплошная
 62
     7
370
    35
100
AcDbLine
 10
593.3866486348
 20
-390.9640328182
 30
0.0
 11
593.3866486348
 21
-365.9640328182
 31
0.0
  0
LINE
  5
143
330
1F
100
AcDbEntity
  8
0
  6
SLD-Сплошная
 62
     7
370
    35
100
AcDbLine
 10
602.9443650814
 20
361.5602437464
 30
0.0
 11
603.7928932189
 21
362.1602437464
 31
0.0
  0
LINE
  5
144
330
1F
100
AcDbEntity
  8
0
  6
SLD-Сплошная
 62
     7
370
    35
100
AcDbLine
 10
603.7928932189
 20
362.1602437464
 30
0.0
 11
604.071966216
 21
362.4623291968
 31
0.0
  0
LINE
  5
145
330
1F
100
AcDbEntity
  8
0
  6
SLD-Сплошная
 62
     7
370
    35
100
AcDbLine
 10
600.4795418536
 20
246.6485640312
 30
0.0
 11
602.9443650814
 21
244.9056708124
 31
0.0
  0
ARC
  5
146
330
1F
100
AcDbEntity
  8
0
  6
SLD-Сплошная
 62
     7
370
    35
100
AcDbCircle
 10
603.1420446962
 20
364.5573969127
 30
0.0
 40
3.003665149846667
100
AcDbArc
 50
207.5734713579
 51
266.2264768942
  0
ARC
  5
147
330
1F
100
AcDbEntity
  8
0
  6
SLD-Сплошная
 62
     7
370
    35
100
AcDbCircle
 10
603.9905728336
 20
365.1573969127
 30
0.0
 40
3.003665149846659
100
AcDbArc
 50
207.5734713579
 51
266.2264768942
  0
LINE
  5
148
330
1F
100
AcDbEntity
  8
0
  6
SLD-Сплошная
 62
     7
370
    35
100
AcDbLine
 10
600.4795418536
 20
363.1670433801
 30
0.0
 11
601.328069991
 21
363.7670433801
 31
0.0
  0
ARC
  5
149
330
1F
100
AcDbEntity
  8
0
  6
SLD-Сплошная
 62
     7
370
    35
100
AcDbCircle
 10
599.7940404851
 20
245.6187761334
 30
0.0
 40
1.237083360462849
100
AcDbArc
 50
56.3493899598
 51
91.0007101701
  0
SPLINE
  5
14A
330
1F
100
AcDbEntity
  8
0
  6
SLD-Сплошная
 62
     7
370
    35
100
AcDbSpline
210
0.0
220
0.0
230
1.0
 70
     8
 71
     3
 72
    16
 73
    12
 74
     0
 42
0.000000001
 43
0.00000001
 40
0.0
 40
0.0
 40
0.0
 40
0.0
 40
0.1250000000000386
 40
0.1250000000000386
 40
0.2500000000000773
 40
0.2500000000000773
 40
0.5000000000000513
 40
0.5000000000000513
 40
0.7500000000000256
 40
0.7500000000000256
 40
1.0
 40
1.0
 40
1.0
 40
1.0
 10
599.7724350724352
 20
364.8340530833393
 30
0.0
 10
599.7781754586291
 20
364.7675193467578
 30
0.0
 10
599.7839187329562
 20
364.7009738928232
 30
0.0
 10
599.80369538275
 20
364.5683499485164
 30
0.0
 10
599.8179308498769
 20
364.5022655022544
 30
0.0
 10
599.8707592625877
 20
364.3034947571974
 30
0.0
 10
599.9193131576369
 20
364.1714141041609
 30
0.0
 10
600.0428922310515
 20
363.9049205355168
 30
0.0
 10
600.1178233985382
 20
363.7699650696164
 30
0.0
 10
600.2902711808191
 20
363.4812326600544
 30
0.0
 10
600.3870944968446
 20
363.3303063152977
 30
0.0
 10
600.4795418536218
 20
363.1670433800726
 30
0.0
  0
SPLINE
  5
14B
330
1F
100
AcDbEntity
  8
0
  6
SLD-Сплошная
 62
     7
370
    35
100
AcDbSpline
210
0.0
220
0.0
230
1.0
 70
     8
 71
     3
 72
     9
 73
     5
 74
     0
 42
0.000000001
 43
0.00000001
 40
0.0
 40
0.0
 40
0.0
 40
0.0
 40
0.0066027594972778
 40
0.0260230094963967
 40
0.0260230094963967
 40
0.0260230094963967
 40
0.0260230094963967
 10
601.2807857249778
 20
363.8220819706344
 30
0.0
 10
601.284815619541
 20
363.8174421272836
 30
0.0
 10
601.3006521937139
 20
363.7991327827508
 30
0.0
 10
601.3163529512765
 20
363.7807568378969
 30
0.0
 10
601.3280699910457
 20
363.7670433800724
 30
0.0
  0
SPLINE
  5
14C
330
1F
100
AcDbEntity
  8
0
  6
SLD-Сплошная
 62
     7
370
    35
100
AcDbSpline
210
0.0
220
0.0
230
1.0
 70
     8
 71
     3
 72
    10
 73
     6
 74
     0
 42
0.000000001
 43
0.00000001
 40
0.0
 40
0.0
 40
0.0
 40
0.0
 40
0.3420053214072371
 40
0.7051683618051696
 40
1.0
 40
1.0
 40
1.0
 40
1.0
 10
599.9358814758746
 20
365.2465067651558
 30
0.0
 10
600.0541571014336
 20
365.0893394782407
 30
0.0
 10
600.2980253218863
 20
364.7652819525059
 30
0.0
 10
600.824685151552
 20
364.3106838028095
 30
0.0
 10
601.1396551989942
 20
363.9732693130531
 30
0.0
 10
601.2807857249559
 20
363.8220819706596
 30
0.0
  0
LINE
  5
14D
330
1F
100
AcDbEntity
  8
0
  6
SLD-Сплошная
 62
     7
370
    35
100
AcDbLine
 10
591.1866486347
 20
-373.9640336614
 30
0.0
 11
591.1866486347
 21
-387.9640328182
 31
0.0
  0
LINE
  5
14E
330
1F
100
AcDbEntity
  8
0
  6
SLD-Сплошная
 62
     7
370
    35
100
AcDbLine
 10
593.9866486349
 20
-384.2140328182
 30
0.0
 11
593.9866486349
 21
-377.7140328182
 31
0.0
  0
LINE
  5
14F
330
1F
100
AcDbEntity
  8
0
  6
SLD-Сплошная
 62
     7
370
    35
100
AcDbLine
 10
603.8432165151
 20
-346.9634371623
 30
0.0
 11
603.9620922676
 21
-346.7407419012
 31
0.0
  0
SPLINE
  5
150
330
1F
100
AcDbEntity
  8
0
  6
SLD-Сплошная
 62
     7
370
    35
100
AcDbSpline
210
0.0
220
0.0
230
1.0
 70
     8
 71
     3
 72
     9
 73
     5
 74
     0
 42
0.000000001
 43
0.00000001
 40
0.0
 40
0.0
 40
0.0
 40
0.0
 40
0.5456155108567526
 40
1.0
 40
1.0
 40
1.0
 40
1.0
 10
603.6505888480663
 20
-344.6753882756771
 30
0.0
 10
603.5248212862705
 20
-344.5181315636896
 30
0.0
 10
603.2943154459981
 20
-344.2299126460481
 30
0.0
 10
603.053697942735
 20
-344.0295525116726
 30
0.0
 10
602.9443650814358
 20
-343.9385119743697
 30
0.0
  0
ARC
  5
151
330
1F
100
AcDbEntity
  8
0
  6
SLD-Сплошная
 62
     7
370
    35
100
AcDbCircle
 10
-165.8196213938
 20
-591.8866486348
 30
0.0
 40
0.2999999999999545
100
AcDbArc
 50
270.0
 51
315.0
  0
ARC
  5
152
330
1F
100
AcDbEntity
  8
0
  6
SLD-Сплошная
 62
     7
370
    35
100
AcDbCircle
 10
-148.3284525692
 20
-591.8866486348
 30
0.0
 40
0.2999999999999545
100
AcDbArc
 50
225.0
 51
270.0
  0
LINE
  5
153
330
1F
100
AcDbEntity
  8
0
  6
SLD-Сплошная
 62
     7
370
    35
100
AcDbLine
 10
-165.6074893594
 20
-592.0987806691
 30
0.0
 11
-165.1346971533
 21
-591.625988463
 31
0.0
  0
LINE
  5
154
330
1F
100
AcDbEntity
  8
0
  6
SLD-Сплошная
 62
     7
370
    35
100
AcDbLine
 10
-149.0133768097
 20
-591.625988463
 30
0.0
 11
-148.5405846036
 21
-592.0987806691
 31
0.0
  0
ARC
  5
155
330
1F
100
AcDbEntity
  8
0
  6
SLD-Сплошная
 62
     7
370
    35
100
AcDbCircle
 10
-150.0740369815
 20
-592.6866486348
 30
0.0
 40
1.5
100
AcDbArc
 50
45.0
 51
90.0
  0
ARC
  5
156
330
1F
100
AcDbEntity
  8
0
  6
SLD-Сплошная
 62
     7
370
    35
100
AcDbCircle
 10
-164.0740369815
 20
-592.6866486348
 30
0.0
 40
1.5
100
AcDbArc
 50
90.0
 51
135.0
  0
LINE
  5
157
330
1F
100
AcDbEntity
  8
0
  6
SLD-Сплошная
 62
     7
370
    35
100
AcDbLine
 10
-160.3240369815
 20
-593.9866486347
 30
0.0
 11
-160.3240369815
 21
-593.3866486348
 31
0.0
  0
LINE
  5
158
330
1F
100
AcDbEntity
  8
0
  6
SLD-Сплошная
 62
     7
370
    35
100
AcDbLine
 10
-153.8240369815
 20
-593.3866486348
 30
0.0
 11
-153.8240369815
 21
-593.9866486347
 31
0.0
  0
LINE
  5
159
330
1F
100
AcDbEntity
  8
0
  6
SLD-Сплошная
 62
     7
370
    35
100
AcDbLine
 10
92.0301339135
 20
-607.3160406679
 30
0.0
 11
91.4301339135
 21
-608.1645688053
 31
0.0
  0
LINE
  5
15A
330
1F
100
AcDbEntity
  8
0
  6
SLD-Сплошная
 62
     7
370
    35
100
AcDbLine
 10
-270.9684812842
 20
-593.3866486348
 30
0.0
 11
-270.9684812842
 21
-592.1866486348
 31
0.0
  0
LINE
  5
15B
330
1F
100
AcDbEntity
  8
0
  6
SLD-Сплошная
 62
     7
370
    35
100
AcDbLine
 10
-252.136036359
 20
-608.1645688053
 30
0.0
 11
-252.736036359
 21
-607.3160406679
 31
0.0
  0
ARC
  5
15C
330
1F
100
AcDbEntity
  8
0
  6
SLD-Сплошная
 62
     7
370
    35
100
AcDbCircle
 10
108.817896872
 20
-591.8866486347
 30
0.0
 40
0.2999999999999545
100
AcDbArc
 50
270.0
 51
315.0
  0
ARC
  5
15D
330
1F
100
AcDbEntity
  8
0
  6
SLD-Сплошная
 62
     7
370
    35
100
AcDbCircle
 10
126.3090656965
 20
-591.8866486347
 30
0.0
 40
0.2999999999999545
100
AcDbArc
 50
225.0
 51
270.0
  0
LINE
  5
15E
330
1F
100
AcDbEntity
  8
0
  6
SLD-Сплошная
 62
     7
370
    35
100
AcDbLine
 10
109.0300289063
 20
-592.0987806691
 30
0.0
 11
109.5028211125
 21
-591.625988463
 31
0.0
  0
LINE
  5
15F
330
1F
100
AcDbEntity
  8
0
  6
SLD-Сплошная
 62
     7
370
    35
100
AcDbLine
 10
125.624141456
 20
-591.625988463
 30
0.0
 11
126.0969336621
 21
-592.0987806691
 31
0.0
  0
ARC
  5
160
330
1F
100
AcDbEntity
  8
0
  6
SLD-Сплошная
 62
     7
370
    35
100
AcDbCircle
 10
124.5634812842
 20
-592.6866486347
 30
0.0
 40
1.5
100
AcDbArc
 50
45.0
 51
90.0
  0
ARC
  5
161
330
1F
100
AcDbEntity
  8
0
  6
SLD-Сплошная
 62
     7
370
    35
100
AcDbCircle
 10
110.5634812842
 20
-592.6866486347
 30
0.0
 40
1.5
100
AcDbArc
 50
90.0
 51
135.0
  0
LINE
  5
162
330
1F
100
AcDbEntity
  8
0
  6
SLD-Сплошная
 62
     7
370
    35
100
AcDbLine
 10
120.8134812842
 20
-593.3866486348
 30
0.0
 11
120.8134812842
 21
-593.9866486349
 31
0.0
  0
LINE
  5
163
330
1F
100
AcDbEntity
  8
0
  6
SLD-Сплошная
 62
     7
370
    35
100
AcDbLine
 10
114.3134812842
 20
-593.9866486349
 30
0.0
 11
114.3134812842
 21
-593.3866486348
 31
0.0
  0
LINE
  5
164
330
1F
100
AcDbEntity
  8
0
  6
SLD-Сплошная
 62
     7
370
    35
100
AcDbLine
 10
-65.8572622084
 20
-593.3866486348
 30
0.0
 11
-58.7861943966
 21
-593.3866486348
 31
0.0
  0
LINE
  5
165
330
1F
100
AcDbEntity
  8
0
  6
SLD-Сплошная
 62
     7
370
    35
100
AcDbLine
 10
-58.7861943966
 20
-592.1866486348
 30
0.0
 11
-65.8572622084
 21
-592.1866486348
 31
0.0
  0
LINE
  5
166
330
1F
100
AcDbEntity
  8
0
  6
SLD-Сплошная
 62
     7
370
    35
100
AcDbLine
 10
-41.1085248669
 20
-593.3866486348
 30
0.0
 11
-41.1085248669
 21
-592.1866486348
 31
0.0
  0
LINE
  5
167
330
1F
100
AcDbEntity
  8
0
  6
SLD-Сплошная
 62
     7
370
    35
100
AcDbLine
 10
-58.7861943966
 20
-593.3866486348
 30
0.0
 11
-41.1085248669
 21
-593.3866486348
 31
0.0
  0
LINE
  5
168
330
1F
100
AcDbEntity
  8
0
  6
SLD-Сплошная
 62
     7
370
    35
100
AcDbLine
 10
-58.7861943966
 20
-592.1866486348
 30
0.0
 11
-41.1085248669
 21
-592.1866486348
 31
0.0
  0
LINE
  5
169
330
1F
100
AcDbEntity
  8
0
  6
SLD-Сплошная
 62
     7
370
    35
100
AcDbLine
 10
-65.8572622084
 20
-593.3866486348
 30
0.0
 11
-269.5040151902
 21
-593.3866486348
 31
0.0
  0
LINE
  5
16A
330
1F
100
AcDbEntity
  8
0
  6
SLD-Сплошная
 62
     7
370
    35
100
AcDbLine
 10
-65.8572622084
 20
-592.1866486348
 30
0.0
 11
-269.5040151902
 21
-592.1866486348
 31
0.0
  0
ARC
  5
16B
330
1F
100
AcDbEntity
  8
0
  6
SLD-Сплошная
 62
     7
370
    35
100
AcDbCircle
 10
92.2871694039
 20
-594.1116486348
 30
0.0
 40
1.963892817849629
100
AcDbArc
 50
351.9505330245
 51
78.578246341
  0
ARC
  5
16C
330
1F
100
AcDbEntity
  8
0
  6
SLD-Сплошная
 62
     7
370
    35
100
AcDbCircle
 10
-39.941798678
 20
-594.1116486348
 30
0.0
 40
1.963892817872179
100
AcDbArc
 50
351.9505330252
 51
78.578246341
  0
LINE
  5
16D
330
1F
100
AcDbEntity
  8
0
  6
SLD-Сплошная
 62
     7
370
    35
100
AcDbLine
 10
-39.5528899483
 20
-592.1866486348
 30
0.0
 11
92.6760781336
 21
-592.1866486348
 31
0.0
  0
ARC
  5
16E
330
1F
100
AcDbEntity
  8
0
  6
SLD-Сплошная
 62
     7
370
    35
100
AcDbCircle
 10
-39.7296666436
 20
-594.2616486348
 30
0.0
 40
0.8926785535780568
100
AcDbArc
 50
351.9505330252
 51
78.5782463411
  0
LINE
  5
16F
330
1F
100
AcDbEntity
  8
0
  6
SLD-Сплошная
 62
     7
370
    35
100
AcDbLine
 10
-37.9972550297
 20
-594.3866486348
 30
0.0
 11
-37.9972550297
 21
-599.7724350724
 31
0.0
  0
LINE
  5
170
330
1F
100
AcDbEntity
  8
0
  6
SLD-Сплошная
 62
     7
370
    35
100
AcDbLine
 10
-38.8457831671
 20
-594.3866486348
 30
0.0
 11
-38.8457831671
 21
-599.7724350724
 31
0.0
  0
LINE
  5
171
330
1F
100
AcDbEntity
  8
0
  6
SLD-Сплошная
 62
     7
370
    35
100
AcDbLine
 10
-23.9635695931
 20
-599.7724350724
 30
0.0
 11
-23.7466692188
 21
-599.7724350724
 31
0.0
  0
LINE
  5
172
330
1F
100
AcDbEntity
  8
0
  6
SLD-Сплошная
 62
     7
370
    35
100
AcDbLine
 10
94.2317130522
 20
-594.3866486348
 30
0.0
 11
94.2317130522
 21
-599.7724350724
 31
0.0
  0
SPLINE
  5
173
330
1F
100
AcDbEntity
  8
0
  6
SLD-Сплошная
 62
     7
370
    35
100
AcDbSpline
210
0.0
220
0.0
230
1.0
 70
     8
 71
     3
 72
     9
 73
     5
 74
     0
 42
0.000000001
 43
0.00000001
 40
0.8577255279200915
 40
0.8577255279200915
 40
0.8577255279200915
 40
0.8577255279200915
 40
0.967384194528511
 40
1.0
 40
1.0
 40
1.0
 40
1.0
 10
-25.87910743382288
 20
-601.3280699910445
 30
0.0
 10
-25.8024891644712
 20
-601.2599425762447
 30
0.0
 10
-25.70308230351997
 20
-601.1715520069029
 30
0.0
 10
-25.60625556130119
 20
-601.0800360756766
 30
0.0
 10
-25.58423437508117
 20
-601.0588433439439
 30
0.0
  0
SPLINE
  5
174
330
1F
100
AcDbEntity
  8
0
  6
SLD-Сплошная
 62
     7
370
    35
100
AcDbSpline
210
0.0
220
0.0
230
1.0
 70
     8
 71
     3
 72
     8
 73
     4
 74
     0
 42
0.000000001
 43
0.00000001
 40
0.0
 40
0.0
 40
0.0
 40
0.0
 40
1.0
 40
1.0
 40
1.0
 40
1.0
 10
-25.58423437508106
 20
-601.0588433439439
 30
0.0
 10
-25.49256417482737
 20
-600.9689537522986
 30
0.0
 10
-25.40343665986195
 20
-600.8777662795709
 30
0.0
 10
-25.31593395762349
 20
-600.7860571272647
 30
0.0
  0
SPLINE
  5
175
330
1F
100
AcDbEntity
  8
0
  6
SLD-Сплошная
 62
     7
370
    35
100
AcDbSpline
210
0.0
220
0.0
230
1.0
 70
     8
 71
     3
 72
    20
 73
    16
 74
     0
 42
0.000000001
 43
0.00000001
 40
0.0
 40
0.0
 40
0.0
 40
0.0
 40
0.0628127590677212
 40
0.1303108571074875
 40
0.1844963557470077
 40
0.2545375803204358
 40
0.3094421421635133
 40
0.3730100995590326
 40
0.4370728362794347
 40
0.4863974397977696
 40
0.5667266283136286
 40
0.5957158256303063
 40
0.6976810151812214
 40
0.7022984966554555
 40
0.7213092522931444
 40
0.7213092522931444
 40
0.7213092522931444
 40
0.7213092522931444
 10
-25.31593395770765
 20
-600.7860571273536
 30
0.0
 10
-25.27579668767793
 20
-600.7437969844981
 30
0.0
 10
-25.19334488217401
 20
-600.6563824625946
 30
0.0
 10
-25.0786666657184
 20
-600.534748253503
 30
0.0
 10
-24.96113810886752
 20
-600.4118436815567
 30
0.0
 10
-24.85233500454359
 20
-600.3018041704851
 30
0.0
 10
-24.73812937365055
 20
-600.1930682979156
 30
0.0
 10
-24.62726491177492
 20
-600.0956260889036
 30
0.0
 10
-24.5188279095046
 20
-600.0109963556133
 30
0.0
 10
-24.3986758107061
 20
-599.9295711596493
 30
0.0
 10
-24.29855903210348
 20
-599.8745904390343
 30
0.0
 10
-24.16310101035268
 20
-599.8159136009893
 30
0.0
 10
-24.07450032477992
 20
-599.7898353718746
 30
0.0
 10
-23.99172306324726
 20
-599.7762466265224
 30
0.0
 10
-23.97612192390269
 20
-599.7741344681913
 30
0.0
 10
-23.96356959313239
 20
-599.772435072434
 30
0.0
  0
SPLINE
  5
176
330
1F
100
AcDbEntity
  8
0
  6
SLD-Сплошная
 62
     7
370
    35
100
AcDbSpline
210
0.0
220
0.0
230
1.0
 70
     8
 71
     3
 72
    19
 73
    15
 74
     0
 42
0.000000001
 43
0.00000001
 40
0.0
 40
0.0
 40
0.0
 40
0.0
 40
0.0526315789474442
 40
0.1052631578948325
 40
0.1578947368421131
 40
0.2105263157895245
 40
0.2631578947368127
 40
0.3157894736842404
 40
0.3684210526316477
 40
0.4210526315789286
 40
0.4736842105263779
 40
0.5263157894736451
 40
0.5789473684210593
 40
0.6146345931099495
 40
0.6146345931099495
 40
0.6146345931099495
 40
0.6146345931099495
 10
-37.99725502968843
 20
-599.772435072434
 30
0.0
 10
-37.99751084716224
 20
-599.8027486852662
 30
0.0
 10
-37.99802248211004
 20
-599.8633759109309
 30
0.0
 10
-38.00215854849181
 20
-599.9541613785309
 30
0.0
 10
-38.00875319371455
 20
-600.0446363697848
 30
0.0
 10
-38.01803710067486
 20
-600.13464630969
 30
0.0
 10
-38.02992957774281
 20
-600.2240374177653
 30
0.0
 10
-38.04442767800642
 20
-600.3126569708353
 30
0.0
 10
-38.06150197719143
 20
-600.4003535637563
 30
0.0
 10
-38.08112455101353
 20
-600.4869773688321
 30
0.0
 10
-38.10326154166766
 20
-600.5723803890219
 30
0.0
 10
-38.12787521347555
 20
-600.6564167211275
 30
0.0
 10
-38.15202084016328
 20
-600.730086546353
 30
0.0
 10
-38.16827125358119
 20
-600.7754727646216
 30
0.0
 10
-38.17501801472145
 20
-600.7936783778416
 30
0.0
  0
SPLINE
  5
177
330
1F
100
AcDbEntity
  8
0
  6
SLD-Сплошная
 62
     7
370
    35
100
AcDbSpline
210
0.0
220
0.0
230
1.0
 70
     8
 71
     3
 72
     8
 73
     4
 74
     0
 42
0.000000001
 43
0.00000001
 40
0.0
 40
0.0
 40
0.0
 40
0.0
 40
1.0
 40
1.0
 40
1.0
 40
1.0
 10
-38.45218277079421
 20
-601.3280699910446
 30
0.0
 10
-38.34035022917098
 20
-601.1699148939668
 30
0.0
 10
-38.24843385054893
 20
-600.9917851646231
 30
0.0
 10
-38.17501801705509
 20
-600.7936783745807
 30
0.0
  0
ARC
  5
178
330
1F
100
AcDbEntity
  8
0
  6
SLD-Сплошная
 62
     7
370
    35
100
AcDbCircle
 10
-40.0826778457
 20
-599.7940404852
 30
0.0
 40
1.237083359960829
100
AcDbArc
 50
326.3493899493
 51
1.0007101734
  0
ARC
  5
179
330
1F
100
AcDbEntity
  8
0
  6
SLD-Сплошная
 62
     7
370
    35
100
AcDbCircle
 10
-34.505206791
 20
-600.5735686698
 30
0.0
 40
8.27901638161551
100
AcDbArc
 50
221.4651180218
 51
264.4198037488
  0
ARC
  5
17A
330
1F
100
AcDbEntity
  8
0
  6
SLD-Сплошная
 62
     7
370
    35
100
AcDbCircle
 10
-33.9052067911
 20
-599.7250405326
 30
0.0
 40
8.279016381380266
100
AcDbArc
 50
221.4651180209
 51
264.4198037492
  0
SPLINE
  5
17B
330
1F
100
AcDbEntity
  8
0
  6
SLD-Сплошная
 62
     7
370
    35
100
AcDbSpline
210
0.0
220
0.0
230
1.0
 70
     8
 71
     3
 72
    14
 73
    10
 74
     0
 42
0.000000001
 43
0.00000001
 40
0.0
 40
0.0
 40
0.0
 40
0.0
 40
0.25
 40
0.25
 40
0.5
 40
0.5
 40
0.75
 40
0.75
 40
1.0
 40
1.0
 40
1.0
 40
1.0
 10
-40.10916213336729
 20
-605.2071067812084
 30
0.0
 10
-40.19455070434835
 20
-605.115550246284
 30
0.0
 10
-40.26277677943707
 20
-605.0070192271946
 30
0.0
 10
-40.35904811897101
 20
-604.7662909581611
 30
0.0
 10
-40.38614664168333
 20
-604.6352914196707
 30
0.0
 10
-40.39740634515304
 20
-604.3735069180177
 30
0.0
 10
-40.38155188810666
 20
-604.2411906674586
 30
0.0
 10
-40.31375876408316
 20
-603.9990223844736
 30
0.0
 10
-40.26145998126113
 20
-603.8867743601738
 30
0.0
 10
-40.19507598961686
 20
-603.7928932188645
 30
0.0
  0
LINE
  5
17C
330
1F
100
AcDbEntity
  8
0
  6
SLD-Сплошная
 62
     7
370
    35
100
AcDbLine
 10
-40.1950759896
 20
-603.7928932189
 30
0.0
 11
-38.4521827708
 21
-601.328069991
 31
0.0
  0
SPLINE
  5
17D
330
1F
100
AcDbEntity
  8
0
  6
SLD-Сплошная
 62
     7
370
    35
100
AcDbSpline
210
0.0
220
0.0
230
1.0
 70
     8
 71
     3
 72
    10
 73
     6
 74
     0
 42
0.000000001
 43
0.00000001
 40
0.0
 40
0.0
 40
0.0
 40
0.0
 40
0.5
 40
0.5
 40
1.0
 40
1.0
 40
1.0
 40
1.0
 10
-41.198408005514
 20
-605.0694182909342
 30
0.0
 10
-41.16273874473381
 20
-605.25767002418
 30
0.0
 10
-41.10449223569718
 20
-605.4349305264584
 30
0.0
 10
-40.94016077194473
 20
-605.7679590162194
 30
0.0
 10
-40.83455639978833
 20
-605.921182914137
 30
0.0
 10
-40.70916213338965
 20
-606.0556349186504
 30
0.0
  0
ARC
  5
17E
330
1F
100
AcDbEntity
  8
0
  6
SLD-Сплошная
 62
     7
370
    35
100
AcDbCircle
 10
-24.4887539012
 20
-603.9905728336
 30
0.0
 40
3.003665149847228
100
AcDbArc
 50
117.5734713579
 51
176.2264768941
  0
LINE
  5
17F
330
1F
100
AcDbEntity
  8
0
  6
SLD-Сплошная
 62
     7
370
    35
100
AcDbLine
 10
-39.0528899483
 20
-600.4795418536
 30
0.0
 11
-40.7957831671
 21
-602.9443650814
 31
0.0
  0
LINE
  5
180
330
1F
100
AcDbEntity
  8
0
  6
SLD-Сплошная
 62
     7
370
    35
100
AcDbLine
 10
-41.1085248669
 20
-593.3866486348
 30
0.0
 11
-39.5528899483
 21
-593.3866486348
 31
0.0
  0
LINE
  5
181
330
1F
100
AcDbEntity
  8
0
  6
SLD-Сплошная
 62
     7
370
    35
100
AcDbLine
 10
-41.1085248669
 20
-592.1866486348
 30
0.0
 11
-39.5528899483
 21
-592.1866486348
 31
0.0
  0
LWPOLYLINE
  5
182
330
1F
100
AcDbEntity
  8
0
  6
SLD-Сплошная
 62
     7
370
    35
100
AcDbPolyline
 90
        9
 70
   128
 43
0.0
 10
91.946563881
 20
-605.2071067812
 10
92.1685922417
 20
-605.7748878987
 10
92.2708880452
 20
-606.3044993404
 10
92.2505495366
 20
-606.7809179803
 10
92.1081536444
 20
-607.1906295762
 10
91.8477396156
 20
-607.5220121192
 10
91.476694437
 20
-607.7656655069
 10
91.0055432939
 20
-607.9146781901
 10
90.4476510088
 20
-607.9648232279
  0
LINE
  5
183
330
1F
100
AcDbEntity
  8
0
  6
SLD-Сплошная
 62
     7
370
    35
100
AcDbLine
 10
-34.7102492612
 20
-607.9648232279
 30
0.0
 11
90.4476510088
 21
-607.9648232279
 31
0.0
  0
SPLINE
  5
184
330
1F
100
AcDbEntity
  8
0
  6
SLD-Сплошная
 62
     7
370
    35
100
AcDbSpline
210
0.0
220
0.0
230
1.0
 70
     8
 71
     3
 72
    14
 73
    10
 74
     0
 42
0.000000001
 43
0.00000001
 40
0.0
 40
0.0
 40
0.0
 40
0.0
 40
0.25
 40
0.25
 40
0.5
 40
0.5
 40
0.75
 40
0.75
 40
1.0
 40
1.0
 40
1.0
 40
1.0
 10
92.03247773728368
 20
-603.7928932188836
 30
0.0
 10
91.9660941222356
 20
-603.8867738276041
 30
0.0
 10
91.91383709604517
 20
-603.9975083311483
 30
0.0
 10
91.84040089908846
 20
-604.2410298632844
 30
0.0
 10
91.81988157793886
 20
-604.3727725365251
 30
0.0
 10
91.81013264126409
 20
-604.6344728260738
 30
0.0
 10
91.82089657683562
 20
-604.7661355104643
 30
0.0
 10
91.8669657501554
 20
-605.0055062429316
 30
0.0
 10
91.90246629288856
 20
-605.1155384814932
 30
0.0
 10
91.94656388103361
 20
-605.2071067812261
 30
0.0
  0
SPLINE
  5
185
330
1F
100
AcDbEntity
  8
0
  6
SLD-Сплошная
 62
     7
370
    35
100
AcDbSpline
210
0.0
220
0.0
230
1.0
 70
     8
 71
     3
 72
    24
 73
    20
 74
     0
 42
0.000000001
 43
0.00000001
 40
0.0
 40
0.0
 40
0.0
 40
0.0
 40
0.0624999999999727
 40
0.0624999999999727
 40
0.1249999999999453
 40
0.1249999999999453
 40
0.2499999999999591
 40
0.2499999999999591
 40
0.374999999999973
 40
0.374999999999973
 40
0.4999999999999868
 40
0.4999999999999868
 40
0.7500000000000145
 40
0.7500000000000145
 40
0.8750000000000282
 40
0.8750000000000282
 40
0.9375000000000141
 40
0.9375000000000141
 40
1.0
 40
1.0
 40
1.0
 40
1.0
 10
-24.62138801928981
 20
-603.7928932188585
 30
0.0
 10
-24.69990243012388
 20
-603.8302047111194
 30
0.0
 10
-24.77583667157906
 20
-603.8704919811362
 30
0.0
 10
-24.92315772297371
 20
-603.9464214973879
 30
0.0
 10
-24.99477319026816
 20
-603.9823249867467
 30
0.0
 10
-25.20616702539868
 20
-604.0849807831104
 30
0.0
 10
-25.34324000405258
 20
-604.1459596078786
 30
0.0
 10
-25.60831739107944
 20
-604.2420957992035
 30
0.0
 10
-25.73749586598273
 20
-604.2783866183601
 30
0.0
 10
-25.99508147568225
 20
-604.3270212921469
 30
0.0
 10
-26.12437374295101
 20
-604.3393863152825
 30
0.0
 10
-26.5055937113865
 20
-604.3394073636495
 30
0.0
 10
-26.75420201274381
 20
-604.2911115343358
 30
0.0
 10
-27.08897944177991
 20
-604.1458189228375
 30
0.0
 10
-27.19130781540613
 20
-604.0861392073563
 30
0.0
 10
-27.32229231852185
 20
-603.9833751617189
 30
0.0
 10
-27.36221735027472
 20
-603.9470151091354
 30
0.0
 10
-27.43256529456506
 20
-603.8713162215657
 30
0.0
 10
-27.46157293965812
 20
-603.8312949349704
 30
0.0
 10
-27.48590706747289
 20
-603.7928932188585
 30
0.0
  0
ARC
  5
186
330
1F
100
AcDbEntity
  8
0
  6
SLD-Сплошная
 62
     7
370
    35
100
AcDbCircle
 10
-38.4092470988
 20
-604.4972003873
 30
0.0
 40
2.847253394502772
100
AcDbArc
 50
146.9493586816
 51
191.5937983791
  0
LINE
  5
187
330
1F
100
AcDbEntity
  8
0
  6
SLD-Сплошная
 62
     7
370
    35
100
AcDbLine
 10
-35.3102492612
 20
-608.8133513653
 30
0.0
 11
89.8476510088
 21
-608.8133513653
 31
0.0
  0
ARC
  5
188
330
1F
100
AcDbEntity
  8
0
  6
SLD-Сплошная
 62
     7
370
    35
100
AcDbCircle
 10
91.5105447593
 20
-599.8199669805
 30
0.0
 40
2.721583392162464
100
AcDbArc
 50
326.3493899528
 51
1.0007101734
  0
SPLINE
  5
189
330
1F
100
AcDbEntity
  8
0
  6
SLD-Сплошная
 62
     7
370
    35
100
AcDbSpline
210
0.0
220
0.0
230
1.0
 70
     8
 71
     3
 72
    16
 73
    12
 74
     0
 42
0.000000001
 43
0.00000001
 40
0.0
 40
0.0
 40
0.0
 40
0.0
 40
0.1249999999999863
 40
0.1249999999999863
 40
0.2499999999999725
 40
0.2499999999999725
 40
0.4999999999999817
 40
0.4999999999999817
 40
0.7499999999999908
 40
0.7499999999999908
 40
1.0
 40
1.0
 40
1.0
 40
1.0
 10
-23.74666921878327
 20
-599.772435072434
 30
0.0
 10
-23.66638617002964
 20
-599.7877965784713
 30
0.0
 10
-23.58617367884941
 20
-599.8034814781871
 30
0.0
 10
-23.43204252824094
 20
-599.8631535346194
 30
0.0
 10
-23.35727826258738
 20
-599.9052683143308
 30
0.0
 10
-23.1463458314472
 20
-600.0530097096462
 30
0.0
 10
-23.0260952440618
 20
-600.1817280090524
 30
0.0
 10
-22.83823524943601
 20
-600.4781803937491
 30
0.0
 10
-22.77415217640566
 20
-600.6394456905349
 30
0.0
 10
-22.70686969621927
 20
-600.9676478184372
 30
0.0
 10
-22.70426088016297
 20
-601.1303005728488
 30
0.0
 10
-22.73254320382701
 20
-601.2807857249547
 30
0.0
  0
SPLINE
  5
18A
330
1F
100
AcDbEntity
  8
0
  6
SLD-Сплошная
 62
     7
370
    35
100
AcDbSpline
210
0.0
220
0.0
230
1.0
 70
     8
 71
     3
 72
     9
 73
     5
 74
     0
 42
0.000000001
 43
0.00000001
 40
0.0
 40
0.0
 40
0.0
 40
0.0
 40
0.0066027594972778
 40
0.0260230094963967
 40
0.0260230094963967
 40
0.0260230094963967
 40
0.0260230094963967
 10
-22.73254320383128
 20
-601.2807857249766
 30
0.0
 10
-22.73331540035789
 20
-601.2848156195398
 30
0.0
 10
-22.73645113702882
 20
-601.3006521937126
 30
0.0
 10
-22.73985843979237
 20
-601.3163529512753
 30
0.0
 10
-22.74240121531296
 20
-601.3280699910445
 30
0.0
  0
LINE
  5
18B
330
1F
100
AcDbEntity
  8
0
  6
SLD-Сплошная
 62
     7
370
    35
100
AcDbLine
 10
-23.3424012153
 20
-600.4795418536
 30
0.0
 11
-22.7424012153
 21
-601.328069991
 31
0.0
  0
SPLINE
  5
18C
330
1F
100
AcDbEntity
  8
0
  6
SLD-Сплошная
 62
     7
370
    35
100
AcDbSpline
210
0.0
220
0.0
230
1.0
 70
     8
 71
     3
 72
     9
 73
     5
 74
     0
 42
0.000000001
 43
0.00000001
 40
0.0
 40
0.0
 40
0.0
 40
0.0
 40
0.6152343009249089
 40
1.0
 40
1.0
 40
1.0
 40
1.0
 10
-23.94709888677721
 20
-599.9659948335647
 30
0.0
 10
-23.77256101713427
 20
-600.0463251158768
 30
0.0
 10
-23.48886768374786
 20
-600.176893717451
 30
0.0
 10
-23.3830978278563
 20
-600.3954492004268
 30
0.0
 10
-23.34240121531317
 20
-600.4795418536206
 30
0.0
  0
LINE
  5
18D
330
1F
100
AcDbEntity
  8
0
  6
SLD-Сплошная
 62
     7
370
    35
100
AcDbLine
 10
-25.2213880193
 20
-602.9443650814
 30
0.0
 11
-24.6213880193
 21
-603.7928932189
 31
0.0
  0
SPLINE
  5
18E
330
1F
100
AcDbEntity
  8
0
  6
SLD-Сплошная
 62
     7
370
    35
100
AcDbSpline
210
0.0
220
0.0
230
1.0
 70
     8
 71
     3
 72
    11
 73
     7
 74
     0
 42
0.000000001
 43
0.00000001
 40
0.0
 40
0.0
 40
0.0
 40
0.0
 40
0.0446010565932076
 40
0.362686488720487
 40
0.6811641858868689
 40
1.0
 40
1.0
 40
1.0
 40
1.0
 10
-27.30829321008543
 20
-604.1042110551782
 30
0.0
 10
-27.2886324324535
 20
-604.1141649293562
 30
0.0
 10
-27.12875508986323
 20
-604.195107757857
 30
0.0
 10
-26.75937907910536
 20
-604.1169562858414
 30
0.0
 10
-26.28397983877317
 20
-603.8528123409677
 30
0.0
 10
-25.95652171572138
 20
-603.5663703319922
 30
0.0
 10
-25.79270065214223
 20
-603.4230688492656
 30
0.0
  0
SPLINE
  5
18F
330
1F
100
AcDbEntity
  8
0
  6
SLD-Сплошная
 62
     7
370
    35
100
AcDbSpline
210
0.0
220
0.0
230
1.0
 70
     8
 71
     3
 72
     8
 73
     4
 74
     0
 42
0.000000001
 43
0.00000001
 40
0.0
 40
0.0
 40
0.0
 40
0.0
 40
1.0
 40
1.0
 40
1.0
 40
1.0
 10
-25.51906998458503
 20
-603.1861054183698
 30
0.0
 10
-25.61189986346446
 20
-603.2654525294276
 30
0.0
 10
-25.7027933499428
 20
-603.3447067366225
 30
0.0
 10
-25.79270065214218
 20
-603.4230688492657
 30
0.0
  0
SPLINE
  5
190
330
1F
100
AcDbEntity
  8
0
  6
SLD-Сплошная
 62
     7
370
    35
100
AcDbSpline
210
0.0
220
0.0
230
1.0
 70
     8
 71
     3
 72
     9
 73
     5
 74
     0
 42
0.000000001
 43
0.00000001
 40
0.925046152447719
 40
0.925046152447719
 40
0.925046152447719
 40
0.925046152447719
 40
0.9403746966207509
 40
1.0
 40
1.0
 40
1.0
 40
1.0
 10
-25.51906998458153
 20
-603.1861054183668
 30
0.0
 10
-25.49912325111631
 20
-603.1693401442109
 30
0.0
 10
-25.40106844287848
 20
-603.0877901271988
 30
0.0
 10
-25.30099544505787
 20
-603.0079095592131
 30
0.0
 10
-25.22138801928975
 20
-602.9443650814346
 30
0.0
  0
LINE
  5
191
330
1F
100
AcDbEntity
  8
0
  6
SLD-Сплошная
 62
     7
370
    35
100
AcDbLine
 10
93.7760781336
 20
-601.328069991
 30
0.0
 11
92.0331849148
 21
-603.7928932189
 31
0.0
  0
ARC
  5
192
330
1F
100
AcDbEntity
  8
0
  6
SLD-Сплошная
 62
     7
370
    35
100
AcDbCircle
 10
-26.1661473192
 20
-600.6666833025
 30
0.0
 40
3.48704312218856
100
AcDbArc
 50
296.2954354578
 51
349.0664866524
  0
ARC
  5
193
330
1F
100
AcDbEntity
  8
0
  6
SLD-Сплошная
 62
     7
370
    35
100
AcDbCircle
 10
-26.7661473192
 20
-599.8181551651
 30
0.0
 40
3.487043122188151
100
AcDbArc
 50
296.2954354578
 51
349.0664866524
  0
LINE
  5
194
330
1F
100
AcDbEntity
  8
0
  6
SLD-Сплошная
 62
     7
370
    35
100
AcDbLine
 10
-150.0740369815
 20
-591.1866486348
 30
0.0
 11
-164.0740369815
 21
-591.1866486348
 31
0.0
  0
LINE
  5
195
330
1F
100
AcDbEntity
  8
0
  6
SLD-Сплошная
 62
     7
370
    35
100
AcDbLine
 10
-160.3240369815
 20
-593.9866486347
 30
0.0
 11
-153.8240369815
 21
-593.9866486347
 31
0.0
  0
ARC
  5
196
330
1F
100
AcDbEntity
  8
0
  6
SLD-Сплошная
 62
     7
370
    35
100
AcDbCircle
 10
90.0259935853
 20
-606.994003141
 30
0.0
 40
1.82806838924774
100
AcDbArc
 50
264.4014372542
 51
320.183624625
  0
LINE
  5
197
330
1F
100
AcDbEntity
  8
0
  6
SLD-Сплошная
 62
     7
370
    35
100
AcDbLine
 10
94.9916246326
 20
-593.3866486348
 30
0.0
 11
94.9916246326
 21
-592.1866486348
 31
0.0
  0
LINE
  5
198
330
1F
100
AcDbEntity
  8
0
  6
SLD-Сплошная
 62
     7
370
    35
100
AcDbLine
 10
94.0617187796
 20
-593.3866486348
 30
0.0
 11
94.9916246326
 21
-593.3866486348
 31
0.0
  0
LINE
  5
199
330
1F
100
AcDbEntity
  8
0
  6
SLD-Сплошная
 62
     7
370
    35
100
AcDbLine
 10
92.6760781336
 20
-592.1866486348
 30
0.0
 11
94.9916246326
 21
-592.1866486348
 31
0.0
  0
LINE
  5
19A
330
1F
100
AcDbEntity
  8
0
  6
SLD-Сплошная
 62
     7
370
    35
100
AcDbLine
 10
266.5382309999
 20
-593.3866486348
 30
0.0
 11
266.5382309999
 21
-592.1866486348
 31
0.0
  0
LINE
  5
19B
330
1F
100
AcDbEntity
  8
0
  6
SLD-Сплошная
 62
     7
370
    35
100
AcDbLine
 10
266.5382309999
 20
-593.3866486348
 30
0.0
 11
94.9916246326
 21
-593.3866486348
 31
0.0
  0
LINE
  5
19C
330
1F
100
AcDbEntity
  8
0
  6
SLD-Сплошная
 62
     7
370
    35
100
AcDbLine
 10
266.5382309999
 20
-592.1866486348
 30
0.0
 11
94.9916246326
 21
-592.1866486348
 31
0.0
  0
LINE
  5
19D
330
1F
100
AcDbEntity
  8
0
  6
SLD-Сплошная
 62
     7
370
    35
100
AcDbLine
 10
-270.9684812842
 20
-593.3866486348
 30
0.0
 11
-269.5040151902
 21
-593.3866486348
 31
0.0
  0
LINE
  5
19E
330
1F
100
AcDbEntity
  8
0
  6
SLD-Сплошная
 62
     7
370
    35
100
AcDbLine
 10
-269.5040151902
 20
-592.1866486348
 30
0.0
 11
-270.9684812842
 21
-592.1866486348
 31
0.0
  0
SPLINE
  5
19F
330
1F
100
AcDbEntity
  8
0
  6
SLD-Сплошная
 62
     7
370
    35
100
AcDbSpline
210
0.0
220
0.0
230
1.0
 70
     8
 71
     3
 72
     8
 73
     4
 74
     0
 42
0.000000001
 43
0.00000001
 40
0.0
 40
0.0
 40
0.0
 40
0.0
 40
1.0
 40
1.0
 40
1.0
 40
1.0
 10
-254.7598525124135
 20
-600.7936783785824
 30
0.0
 10
-254.6864366788463
 20
-600.9917851684594
 30
0.0
 10
-254.5931059429027
 20
-601.1699148943372
 30
0.0
 10
-254.4812734015433
 20
-601.3280699910465
 30
0.0
  0
LINE
  5
1A0
330
1F
100
AcDbEntity
  8
0
  6
SLD-Сплошная
 62
     7
370
    35
100
AcDbLine
 10
-254.4812734015
 20
-601.3280699911
 30
0.0
 11
-252.7383801828
 21
-603.7928932189
 31
0.0
  0
SPLINE
  5
1A1
330
1F
100
AcDbEntity
  8
0
  6
SLD-Сплошная
 62
     7
370
    35
100
AcDbSpline
210
0.0
220
0.0
230
1.0
 70
     8
 71
     3
 72
    14
 73
    10
 74
     0
 42
0.000000001
 43
0.00000001
 40
0.0
 40
0.0
 40
0.0
 40
0.0
 40
0.25
 40
0.25
 40
0.5
 40
0.5
 40
0.75
 40
0.75
 40
1.0
 40
1.0
 40
1.0
 40
1.0
 10
-252.7383801827862
 20
-603.7928932188654
 30
0.0
 10
-252.6719965677381
 20
-603.8867738275885
 30
0.0
 10
-252.6197395415633
 20
-603.9975083311484
 30
0.0
 10
-252.5463033446102
 20
-604.2410298632852
 30
0.0
 10
-252.5257840234623
 20
-604.3727725365262
 30
0.0
 10
-252.5160350867902
 20
-604.6344728260756
 30
0.0
 10
-252.5267990223631
 20
-604.7661355104666
 30
0.0
 10
-252.5728681956847
 20
-605.0055062429344
 30
0.0
 10
-252.6083687384192
 20
-605.115538481498
 30
0.0
 10
-252.6524663265647
 20
-605.2071067812306
 30
0.0
  0
ARC
  5
1A2
330
1F
100
AcDbEntity
  8
0
  6
SLD-Сплошная
 62
     7
370
    35
100
AcDbCircle
 10
-250.9800485404
 20
-606.3295018776
 30
0.0
 40
2.01413802995441
100
AcDbArc
 50
146.1335991326
 51
209.3278932581
  0
LWPOLYLINE
  5
1A3
330
1F
100
AcDbEntity
  8
0
  6
SLD-Сплошная
 62
     7
370
    35
100
AcDbPolyline
 90
        9
 70
   128
 43
0.0
 10
-250.5535534544
 20
-608.8133513653
 10
-251.1114457394
 20
-608.7632063275
 10
-251.5825968825
 20
-608.6141936443
 10
-251.9536420611
 20
-608.3705402566
 10
-252.2140560899
 20
-608.0391577136
 10
-252.3564519822
 20
-607.6294461177
 10
-252.3767904908
 20
-607.1530274778
 10
-252.2744946872
 20
-606.6234160361
 10
-252.0524663266
 20
-606.0556349187
  0
SPLINE
  5
1A4
330
1F
100
AcDbEntity
  8
0
  6
SLD-Сплошная
 62
     7
370
    35
100
AcDbSpline
210
0.0
220
0.0
230
1.0
 70
     8
 71
     3
 72
    10
 73
     6
 74
     0
 42
0.000000001
 43
0.00000001
 40
0.0
 40
0.0
 40
0.0
 40
0.0
 40
0.5
 40
0.5
 40
1.0
 40
1.0
 40
1.0
 40
1.0
 10
-252.0524663265851
 20
-606.0556349186514
 30
0.0
 10
-251.987726128895
 20
-605.9212024003184
 30
0.0
 10
-251.9275375108289
 20
-605.7709908109371
 30
0.0
 10
-251.8192912394323
 20
-605.438310662959
 30
0.0
 10
-251.7721348727073
 20
-605.2576922093431
 30
0.0
 10
-251.7364608159881
 20
-605.0694092874546
 30
0.0
  0
SPLINE
  5
1A5
330
1F
100
AcDbEntity
  8
0
  6
SLD-Сплошная
 62
     7
370
    35
100
AcDbSpline
210
0.0
220
0.0
230
1.0
 70
     8
 71
     3
 72
    10
 73
     6
 74
     0
 42
0.000000001
 43
0.00000001
 40
0.0
 40
0.0
 40
0.0
 40
0.0
 40
0.5
 40
0.5
 40
1.0
 40
1.0
 40
1.0
 40
1.0
 10
-119.5074913342506
 20
-605.0694018992705
 30
0.0
 10
-119.5431597412515
 20
-605.2576567862185
 30
0.0
 10
-119.6014060431037
 20
-605.4349203352876
 30
0.0
 10
-119.7657386667674
 20
-605.7679546696296
 30
0.0
 10
-119.8713442036545
 20
-605.9211809389835
 30
0.0
 10
-119.9967403121493
 20
-606.0556349186544
 30
0.0
  0
ARC
  5
1A6
330
1F
100
AcDbEntity
  8
0
  6
SLD-Сплошная
 62
     7
370
    35
100
AcDbCircle
 10
-122.2966528511
 20
-604.4971995771
 30
0.0
 40
2.84725086083662
100
AcDbArc
 50
348.4065112016
 51
33.0506550419
  0
SPLINE
  5
1A7
330
1F
100
AcDbEntity
  8
0
  6
SLD-Сплошная
 62
     7
370
    35
100
AcDbSpline
210
0.0
220
0.0
230
1.0
 70
     8
 71
     3
 72
    26
 73
    22
 74
     0
 42
0.000000001
 43
0.00000001
 40
0.0
 40
0.0
 40
0.0
 40
0.0
 40
0.0625000000000009
 40
0.0625000000000009
 40
0.1250000000000019
 40
0.1250000000000019
 40
0.2500000000000016
 40
0.2500000000000016
 40
0.3750000000000014
 40
0.3750000000000014
 40
0.5000000000000011
 40
0.5000000000000011
 40
0.6250000000000009
 40
0.6250000000000009
 40
0.7500000000000007
 40
0.7500000000000007
 40
0.8750000000000004
 40
0.8750000000000004
 40
0.9375000000000002
 40
0.9375000000000002
 40
1.0
 40
1.0
 40
1.0
 40
1.0
 10
-236.5646922124753
 20
-602.9443650814346
 30
0.0
 10
-236.5584292094894
 20
-603.0082540304359
 30
0.0
 10
-236.5564077817231
 20
-603.0755072605036
 30
0.0
 10
-236.5681424961276
 20
-603.2118992525785
 30
0.0
 10
-236.5809455022831
 20
-603.2820382012766
 30
0.0
 10
-236.6389979258381
 20
-603.4890631784344
 30
0.0
 10
-236.7038667109645
 20
-603.6230295415405
 30
0.0
 10
-236.8852913408381
 20
-603.8625613840491
 30
0.0
 10
-236.9994137195388
 20
-603.9643775266219
 30
0.0
 10
-237.2623492020259
 20
-604.1072546844957
 30
0.0
 10
-237.4079905353655
 20
-604.1463643403565
 30
0.0
 10
-237.7113589430873
 20
-604.1469442338847
 30
0.0
 10
-237.8644454958185
 20
-604.1086718772957
 30
0.0
 10
-238.1719676700663
 20
-603.9662867598956
 30
0.0
 10
-238.3220640258237
 20
-603.864944417499
 30
0.0
 10
-238.6286101701612
 20
-603.625061761937
 30
0.0
 10
-238.780521601873
 20
-603.4903344231116
 30
0.0
 10
-239.018488590962
 20
-603.283224414344
 30
0.0
 10
-239.0994559345786
 20
-603.2130567044431
 30
0.0
 10
-239.2618617711351
 20
-603.0755169948268
 30
0.0
 10
-239.3440192891161
 20
-603.0079767136596
 30
0.0
 10
-239.4292112606573
 20
-602.9443650814346
 30
0.0
  0
ARC
  5
1A8
330
1F
100
AcDbEntity
  8
0
  6
SLD-Сплошная
 62
     7
370
    35
100
AcDbCircle
 10
-254.5256220578
 20
-604.4971999423
 30
0.0
 40
2.847252002766274
100
AcDbArc
 50
348.4063716768
 51
33.0506488561
  0
LINE
  5
1A9
330
1F
100
AcDbEntity
  8
0
  6
SLD-Сплошная
 62
     7
370
    35
100
AcDbLine
 10
-252.1390873603
 20
-602.9443650814
 30
0.0
 11
-253.8819805791
 21
-600.4795418536
 31
0.0
  0
ARC
  5
1AA
330
1F
100
AcDbEntity
  8
0
  6
SLD-Сплошная
 62
     7
370
    35
100
AcDbCircle
 10
-237.8844519607
 20
-599.8181551651
 30
0.0
 40
3.487043122189152
100
AcDbArc
 50
190.9335133477
 51
243.7045645422
  0
ARC
  5
1AB
330
1F
100
AcDbEntity
  8
0
  6
SLD-Сплошная
 62
     7
370
    35
100
AcDbCircle
 10
-126.2006956546
 20
-600.5735686698
 30
0.0
 40
8.27901638161721
100
AcDbArc
 50
275.5801962512
 51
318.5348819782
  0
LINE
  5
1AC
330
1F
100
AcDbEntity
  8
0
  6
SLD-Сплошная
 62
     7
370
    35
100
AcDbLine
 10
-250.5535534544
 20
-608.8133513653
 30
0.0
 11
-125.3956531843
 21
-608.8133513653
 31
0.0
  0
ARC
  5
1AD
330
1F
100
AcDbEntity
  8
0
  6
SLD-Сплошная
 62
     7
370
    35
100
AcDbCircle
 10
-120.9762358019
 20
-594.2616486348
 30
0.0
 40
0.8926785535678424
100
AcDbArc
 50
101.421753659
 51
188.0494669755
  0
ARC
  5
1AE
330
1F
100
AcDbEntity
  8
0
  6
SLD-Сплошная
 62
     7
370
    35
100
AcDbCircle
 10
-253.2052038838
 20
-594.2616486348
 30
0.0
 40
0.8926785535630682
100
AcDbArc
 50
101.421753659
 51
188.0494669759
  0
SPLINE
  5
1AF
330
1F
100
AcDbEntity
  8
0
  6
SLD-Сплошная
 62
     7
370
    35
100
AcDbSpline
210
0.0
220
0.0
230
1.0
 70
     8
 71
     3
 72
     9
 73
     5
 74
     0
 42
0.000000001
 43
0.00000001
 40
0.0
 40
0.0
 40
0.0
 40
0.0
 40
0.220076224369942
 40
1.0
 40
1.0
 40
1.0
 40
1.0
 10
-254.757309843445
 20
-593.3866486348069
 30
0.0
 10
-254.775925950642
 20
-593.4292102073871
 30
0.0
 10
-254.8605153116707
 20
-593.6226048946232
 30
0.0
 10
-254.8919117985016
 20
-593.848421104895
 30
0.0
 10
-254.9163986650523
 20
-594.0245405362085
 30
0.0
  0
SPLINE
  5
1B0
330
1F
100
AcDbEntity
  8
0
  6
SLD-Сплошная
 62
     7
370
    35
100
AcDbSpline
210
0.0
220
0.0
230
1.0
 70
     8
 71
     3
 72
     8
 73
     4
 74
     0
 42
0.000000001
 43
0.00000001
 40
0.0
 40
0.0
 40
0.0
 40
0.0
 40
1.0
 40
1.0
 40
1.0
 40
1.0
 10
-254.9323022157773
 20
-594.2049740747664
 30
0.0
 10
-254.9358423859665
 20
-594.2653942286985
 30
0.0
 10
-254.9376154977211
 20
-594.3260214081582
 30
0.0
 10
-254.9376154977211
 20
-594.386648634807
 30
0.0
  0
ARC
  5
1B1
330
1F
100
AcDbEntity
  8
0
  6
SLD-Сплошная
 62
     7
370
    35
100
AcDbCircle
 10
-251.8626761448
 20
-594.3846156303
 30
0.0
 40
3.074878095763745
100
AcDbArc
 50
173.2751064131
 51
176.6507397132
  0
SPLINE
  5
1B2
330
1F
100
AcDbEntity
  8
0
  6
SLD-Сплошная
 62
     7
370
    35
100
AcDbSpline
210
0.0
220
0.0
230
1.0
 70
     8
 71
     3
 72
    16
 73
    12
 74
     0
 42
0.000000001
 43
0.00000001
 40
0.0
 40
0.0
 40
0.0
 40
0.0
 40
0.1249999999999953
 40
0.1249999999999953
 40
0.2499999999999905
 40
0.2499999999999905
 40
0.4999999999999937
 40
0.4999999999999937
 40
0.7499999999999968
 40
0.7499999999999968
 40
1.0
 40
1.0
 40
1.0
 40
1.0
 10
-240.0554019237448
 20
-599.772435072434
 30
0.0
 10
-240.1219356603262
 20
-599.7781754586279
 30
0.0
 10
-240.1884570364989
 20
-599.7839187329553
 30
0.0
 10
-240.3204831038729
 20
-599.803695382749
 30
0.0
 10
-240.3859454874319
 20
-599.817930849876
 30
0.0
 10
-240.5799921822672
 20
-599.8707592625872
 30
0.0
 10
-240.7055538364845
 20
-599.9193131576363
 30
0.0
 10
-240.9347582891917
 20
-600.0428922310508
 30
0.0
 10
-241.0393254855645
 20
-600.1178233985376
 30
0.0
 10
-241.211368530364
 20
-600.2902711808181
 30
0.0
 10
-241.2756754351703
 20
-600.3870944968429
 30
0.0
 10
-241.3081980646348
 20
-600.4795418536204
 30
0.0
  0
ARC
  5
1B3
330
1F
100
AcDbEntity
  8
0
  6
SLD-Сплошная
 62
     7
370
    35
100
AcDbCircle
 10
-252.8521926817
 20
-599.7940404851
 30
0.0
 40
1.237083360243494
100
AcDbArc
 50
178.9992898311
 51
213.6506100471
  0
SPLINE
  5
1B4
330
1F
100
AcDbEntity
  8
0
  6
SLD-Сплошная
 62
     7
370
    35
100
AcDbSpline
210
0.0
220
0.0
230
1.0
 70
     8
 71
     3
 72
    19
 73
    15
 74
     0
 42
0.000000001
 43
0.00000001
 40
0.3853654064225231
 40
0.3853654064225231
 40
0.3853654064225231
 40
0.3853654064225231
 40
0.421052631578927
 40
0.4736842105263021
 40
0.5263157894736996
 40
0.57894736842105
 40
0.6315789473684057
 40
0.6842105263157681
 40
0.7368421052631224
 40
0.7894736842104844
 40
0.8421052631578766
 40
0.894736842105269
 40
0.9473684210526248
 40
1.0
 40
1.0
 40
1.0
 40
1.0
 10
-254.7598525124229
 20
-600.7936783785569
 30
0.0
 10
-254.7665992736562
 20
-600.7754727651018
 30
0.0
 10
-254.782849687166
 20
-600.7300865465974
 30
0.0
 10
-254.8069953139342
 20
-600.6564167211274
 30
0.0
 10
-254.8316089857418
 20
-600.5723803890218
 30
0.0
 10
-254.853745976396
 20
-600.4869773688318
 30
0.0
 10
-254.8733685502183
 20
-600.4003535637562
 30
0.0
 10
-254.8904428494029
 20
-600.3126569708353
 30
0.0
 10
-254.9049409496669
 20
-600.2240374177653
 30
0.0
 10
-254.9168334267346
 20
-600.13464630969
 30
0.0
 10
-254.9261173336951
 20
-600.0446363697847
 30
0.0
 10
-254.9327119789176
 20
-599.9541613785308
 30
0.0
 10
-254.9368480452995
 20
-599.8633759109308
 30
0.0
 10
-254.9373596802472
 20
-599.8027486852662
 30
0.0
 10
-254.9376154977211
 20
-599.772435072434
 30
0.0
  0
LINE
  5
1B5
330
1F
100
AcDbEntity
  8
0
  6
SLD-Сплошная
 62
     7
370
    35
100
AcDbLine
 10
-240.0554019237
 20
-599.7724350724
 30
0.0
 11
-239.8385015494
 21
-599.7724350724
 31
0.0
  0
LINE
  5
1B6
330
1F
100
AcDbEntity
  8
0
  6
SLD-Сплошная
 62
     7
370
    35
100
AcDbLine
 10
-121.8601192784
 20
-594.3866486348
 30
0.0
 11
-121.8601192784
 21
-599.7724350724
 31
0.0
  0
LINE
  5
1B7
330
1F
100
AcDbEntity
  8
0
  6
SLD-Сплошная
 62
     7
370
    35
100
AcDbLine
 10
-254.0890873603
 20
-599.7724350724
 30
0.0
 11
-254.0890873603
 21
-594.3866486348
 31
0.0
  0
LINE
  5
1B8
330
1F
100
AcDbEntity
  8
0
  6
SLD-Сплошная
 62
     7
370
    35
100
AcDbLine
 10
-254.9376154977
 20
-599.7724350724
 30
0.0
 11
-254.9376154977
 21
-594.3866486348
 31
0.0
  0
LINE
  5
1B9
330
1F
100
AcDbEntity
  8
0
  6
SLD-Сплошная
 62
     7
370
    35
100
AcDbLine
 10
-237.1646922125
 20
-603.7928932189
 30
0.0
 11
-236.5646922125
 21
-602.9443650814
 31
0.0
  0
SPLINE
  5
1BA
330
1F
100
AcDbEntity
  8
0
  6
SLD-Сплошная
 62
     7
370
    35
100
AcDbSpline
210
0.0
220
0.0
230
1.0
 70
     8
 71
     3
 72
     9
 73
     5
 74
     0
 42
0.000000001
 43
0.00000001
 40
0.0
 40
0.0
 40
0.0
 40
0.0
 40
0.2088673298089373
 40
1.0
 40
1.0
 40
1.0
 40
1.0
 10
-237.4957321386756
 20
-604.0773139883422
 30
0.0
 10
-237.4621021534661
 20
-604.06504464267
 30
0.0
 10
-237.3010909257155
 20
-604.0063023506927
 30
0.0
 10
-237.2249387145978
 20
-603.8871547658231
 30
0.0
 10
-237.1646922124754
 20
-603.7928932188585
 30
0.0
  0
ARC
  5
1BB
330
1F
100
AcDbEntity
  8
0
  6
SLD-Сплошная
 62
     7
370
    35
100
AcDbCircle
 10
-239.5618453788
 20
-603.1420446962
 30
0.0
 40
3.003665149844796
100
AcDbArc
 50
3.7735231058
 51
62.4265286421
  0
LINE
  5
1BC
330
1F
100
AcDbEntity
  8
0
  6
SLD-Сплошная
 62
     7
370
    35
100
AcDbLine
 10
-238.7714918461
 20
-601.3280699911
 30
0.0
 11
-238.1714918461
 21
-600.4795418536
 31
0.0
  0
ARC
  5
1BD
330
1F
100
AcDbEntity
  8
0
  6
SLD-Сплошная
 62
     7
370
    35
100
AcDbCircle
 10
-240.1618453788
 20
-603.9905728336
 30
0.0
 40
3.003665149844938
100
AcDbArc
 50
3.7735231058
 51
62.4265286421
  0
LINE
  5
1BE
330
1F
100
AcDbEntity
  8
0
  6
SLD-Сплошная
 62
     7
370
    35
100
AcDbLine
 10
-121.6530124972
 20
-600.4795418536
 30
0.0
 11
-119.9101192784
 21
-602.9443650814
 31
0.0
  0
SPLINE
  5
1BF
330
1F
100
AcDbEntity
  8
0
  6
SLD-Сплошная
 62
     7
370
    35
100
AcDbSpline
210
0.0
220
0.0
230
1.0
 70
     8
 71
     3
 72
    10
 73
     6
 74
     0
 42
0.000000001
 43
0.00000001
 40
0.0
 40
0.0
 40
0.0
 40
0.0
 40
0.2565560513089946
 40
0.5898555227488769
 40
1.0
 40
1.0
 40
1.0
 40
1.0
 10
-239.0663649048717
 20
-601.0588433439387
 30
0.0
 10
-239.0418705165946
 20
-601.0828031536423
 30
0.0
 10
-238.985554751958
 20
-601.137889853042
 30
0.0
 10
-238.8882744454861
 20
-601.2291042090648
 30
0.0
 10
-238.8130124934285
 20
-601.2928838986712
 30
0.0
 10
-238.7714918461249
 20
-601.3280699910442
 30
0.0
  0
SPLINE
  5
1C0
330
1F
100
AcDbEntity
  8
0
  6
SLD-Сплошная
 62
     7
370
    35
100
AcDbSpline
210
0.0
220
0.0
230
1.0
 70
     8
 71
     3
 72
    16
 73
    12
 74
     0
 42
0.000000001
 43
0.00000001
 40
0.0
 40
0.0
 40
0.0
 40
0.0
 40
0.1250000000000177
 40
0.1250000000000177
 40
0.2500000000000354
 40
0.2500000000000354
 40
0.5000000000000233
 40
0.5000000000000233
 40
0.7500000000000117
 40
0.7500000000000117
 40
1.0
 40
1.0
 40
1.0
 40
1.0
 10
-238.1714918461249
 20
-600.4795418536204
 30
0.0
 10
-238.2530725267986
 20
-600.4348446726733
 30
0.0
 10
-238.3308593920462
 20
-600.3860860347602
 30
0.0
 10
-238.4818033100511
 20
-600.2934595511266
 30
0.0
 10
-238.5551076415615
 20
-600.2488425318184
 30
0.0
 10
-238.7713669287678
 20
-600.1197512898998
 30
0.0
 10
-238.9086085894033
 20
-600.0432449430206
 30
0.0
 10
-239.1759155127423
 20
-599.9193050229889
 30
0.0
 10
-239.3075805935725
 20
-599.8705327331072
 30
0.0
 10
-239.572919340804
 20
-599.8007635404529
 30
0.0
 10
-239.7051333620495
 20
-599.780643968253
 30
0.0
 10
-239.8385015493871
 20
-599.772435072434
 30
0.0
  0
SPLINE
  5
1C1
330
1F
100
AcDbEntity
  8
0
  6
SLD-Сплошная
 62
     7
370
    35
100
AcDbSpline
210
0.0
220
0.0
230
1.0
 70
     8
 71
     3
 72
     9
 73
     5
 74
     0
 42
0.000000001
 43
0.00000001
 40
0.0
 40
0.0
 40
0.0
 40
0.0
 40
0.5441314721405478
 40
1.0
 40
1.0
 40
1.0
 40
1.0
 10
-239.3346653222289
 20
-600.7860571273652
 30
0.0
 10
-239.5016200246846
 20
-600.6021864035291
 30
0.0
 10
-239.8084478981007
 20
-600.2642704158492
 30
0.0
 10
-240.1111608423494
 20
-600.0391795838519
 30
0.0
 10
-240.2491581466081
 20
-599.9365677576346
 30
0.0
  0
SPLINE
  5
1C2
330
1F
100
AcDbEntity
  8
0
  6
SLD-Сплошная
 62
     7
370
    35
100
AcDbSpline
210
0.0
220
0.0
230
1.0
 70
     8
 71
     3
 72
     8
 73
     4
 74
     0
 42
0.000000001
 43
0.00000001
 40
0.0
 40
0.0
 40
0.0
 40
0.0
 40
1.0
 40
1.0
 40
1.0
 40
1.0
 10
-239.0663649048716
 20
-601.0588433439387
 30
0.0
 10
-239.1580351050898
 20
-600.968953752328
 30
0.0
 10
-239.2471626200227
 20
-600.8777662796363
 30
0.0
 10
-239.3346653222289
 20
-600.7860571273653
 30
0.0
  0
ARC
  5
1C3
330
1F
100
AcDbEntity
  8
0
  6
SLD-Сплошная
 62
     7
370
    35
100
AcDbCircle
 10
-120.6232245997
 20
-599.7940404852
 30
0.0
 40
1.237083360187359
100
AcDbArc
 50
178.9992898276
 51
213.6506100451
  0
LINE
  5
1C4
330
1F
100
AcDbEntity
  8
0
  6
SLD-Сплошная
 62
     7
370
    35
100
AcDbLine
 10
266.5634812842
 20
-593.3866486348
 30
0.0
 11
266.5634812842
 21
-592.1866486348
 31
0.0
  0
LINE
  5
1C5
330
1F
100
AcDbEntity
  8
0
  6
SLD-Сплошная
 62
     7
370
    35
100
AcDbLine
 10
267.0057648376
 20
-606.0556349187
 30
0.0
 11
269.7634812842
 21
-608.8133513653
 31
0.0
  0
LINE
  5
1C6
330
1F
100
AcDbEntity
  8
0
  6
SLD-Сплошная
 62
     7
370
    35
100
AcDbLine
 10
269.7634812842
 20
-608.8133513653
 30
0.0
 11
270.6120094217
 21
-607.9648232279
 31
0.0
  0
LINE
  5
1C7
330
1F
100
AcDbEntity
  8
0
  6
SLD-Сплошная
 62
     7
370
    35
100
AcDbLine
 10
270.6120094217
 20
-607.9648232279
 30
0.0
 11
267.854292975
 21
-605.2071067813
 31
0.0
  0
SPLINE
  5
1C8
330
1F
100
AcDbEntity
  8
0
  6
SLD-Сплошная
 62
     7
370
    35
100
AcDbSpline
210
0.0
220
0.0
230
1.0
 70
     8
 71
     3
 72
    14
 73
    10
 74
     0
 42
0.000000001
 43
0.00000001
 40
0.0
 40
0.0
 40
0.0
 40
0.0
 40
0.25
 40
0.25
 40
0.5
 40
0.5
 40
0.75
 40
0.75
 40
1.0
 40
1.0
 40
1.0
 40
1.0
 10
267.8542929749826
 20
-605.207106781277
 30
0.0
 10
267.7627364400491
 20
-605.1155502463438
 30
0.0
 10
267.6896396553747
 20
-605.0070192271942
 30
0.0
 10
267.5887110620571
 20
-604.7662909581599
 30
0.0
 10
267.5619852552819
 20
-604.6352914196689
 30
0.0
 10
267.5608336099269
 20
-604.3735069180153
 30
0.0
 10
267.5866424102194
 20
-604.2411906674556
 30
0.0
 10
267.6860966184959
 20
-603.9990223844704
 30
0.0
 10
267.7604118337194
 20
-603.886774360167
 30
0.0
 10
267.854292975028
 20
-603.7928932188584
 30
0.0
  0
LINE
  5
1C9
330
1F
100
AcDbEntity
  8
0
  6
SLD-Сплошная
 62
     7
370
    35
100
AcDbLine
 10
267.854292975
 20
-603.7928932189
 30
0.0
 11
270.3191162028
 21
-601.328069991
 31
0.0
  0
SPLINE
  5
1CA
330
1F
100
AcDbEntity
  8
0
  6
SLD-Сплошная
 62
     7
370
    35
100
AcDbSpline
210
0.0
220
0.0
230
1.0
 70
     8
 71
     3
 72
     8
 73
     4
 74
     0
 42
0.000000001
 43
0.00000001
 40
0.0
 40
0.0
 40
0.0
 40
0.0
 40
1.0
 40
1.0
 40
1.0
 40
1.0
 10
270.3191162028098
 20
-601.328069991012
 30
0.0
 10
270.4772712963522
 20
-601.1699148974695
 30
0.0
 10
270.6082607830777
 20
-600.9917851730476
 30
0.0
 10
270.7120864494973
 20
-600.7936783881524
 30
0.0
  0
SPLINE
  5
1CB
330
1F
100
AcDbEntity
  8
0
  6
SLD-Сплошная
 62
     7
370
    35
100
AcDbSpline
210
0.0
220
0.0
230
1.0
 70
     8
 71
     3
 72
    10
 73
     6
 74
     0
 42
0.000000001
 43
0.00000001
 40
0.0
 40
0.0
 40
0.0
 40
0.0
 40
0.5
 40
0.5
 40
1.0
 40
1.0
 40
1.0
 40
1.0
 10
266.4363629383786
 20
-605.0694018992704
 30
0.0
 10
266.4868056833076
 20
-605.2576567862184
 30
0.0
 10
266.5606681780555
 20
-605.4349203352875
 30
0.0
 10
266.7532808892778
 20
-605.7679546696296
 30
0.0
 10
266.871310857942
 20
-605.9211809389946
 30
0.0
 10
267.0057648376135
 20
-606.0556349186646
 30
0.0
  0
LINE
  5
1CC
330
1F
100
AcDbEntity
  8
0
  6
SLD-Сплошная
 62
     7
370
    35
100
AcDbLine
 10
268.7634812842
 20
-593.3866486348
 30
0.0
 11
266.5634812842
 21
-593.3866486348
 31
0.0
  0
LINE
  5
1CD
330
1F
100
AcDbEntity
  8
0
  6
SLD-Сплошная
 62
     7
370
    35
100
AcDbLine
 10
268.7634812842
 20
-592.1866486348
 30
0.0
 11
266.5634812842
 21
-592.1866486348
 31
0.0
  0
ARC
  5
1CE
330
1F
100
AcDbEntity
  8
0
  6
SLD-Сплошная
 62
     7
370
    35
100
AcDbCircle
 10
268.5613997562
 20
-604.5
 30
0.0
 40
2.20000000004629
100
AcDbArc
 50
135.0
 51
195.0
  0
LINE
  5
1CF
330
1F
100
AcDbEntity
  8
0
  6
SLD-Сплошная
 62
     7
370
    35
100
AcDbLine
 10
269.4705880654
 20
-600.4795418536
 30
0.0
 11
267.0057648376
 21
-602.9443650814
 31
0.0
  0
ARC
  5
1D0
330
1F
100
AcDbEntity
  8
0
  6
SLD-Сплошная
 62
     7
370
    35
100
AcDbCircle
 10
268.7634812842
 20
-599.7724350724
 30
0.0
 40
1.0
100
AcDbArc
 50
315.0
 51
360.0
  0
ARC
  5
1D1
330
1F
100
AcDbEntity
  8
0
  6
SLD-Сплошная
 62
     7
370
    35
100
AcDbCircle
 10
268.7634812842
 20
-599.7724350724
 30
0.0
 40
2.200000000000011
100
AcDbArc
 50
332.3414428027
 51
360.0
  0
LINE
  5
1D2
330
1F
100
AcDbEntity
  8
0
  6
SLD-Сплошная
 62
     7
370
    35
100
AcDbLine
 10
270.9634812842
 20
-594.3866486348
 30
0.0
 11
270.9634812842
 21
-599.7724350724
 31
0.0
  0
LINE
  5
1D3
330
1F
100
AcDbEntity
  8
0
  6
SLD-Сплошная
 62
     7
370
    35
100
AcDbLine
 10
269.7634812842
 20
-594.3866486348
 30
0.0
 11
269.7634812842
 21
-599.7724350724
 31
0.0
  0
ARC
  5
1D4
330
1F
100
AcDbEntity
  8
0
  6
SLD-Сплошная
 62
     7
370
    35
100
AcDbCircle
 10
268.7634812842
 20
-594.3866486348
 30
0.0
 40
1.0
100
AcDbArc
 50
360.0
 51
90.0
  0
ARC
  5
1D5
330
1F
100
AcDbEntity
  8
0
  6
SLD-Сплошная
 62
     7
370
    35
100
AcDbCircle
 10
268.7634812842
 20
-594.3866486348
 30
0.0
 40
2.200000000000045
100
AcDbArc
 50
0.0
 51
90.0
  0
LINE
  5
1D6
330
1F
100
AcDbEntity
  8
0
  6
SLD-Сплошная
 62
     7
370
    35
100
AcDbLine
 10
124.5634812842
 20
-591.1866486347
 30
0.0
 11
110.5634812842
 21
-591.1866486347
 31
0.0
  0
LINE
  5
1D7
330
1F
100
AcDbEntity
  8
0
  6
SLD-Сплошная
 62
     7
370
    35
100
AcDbLine
 10
114.3134812842
 20
-593.9866486349
 30
0.0
 11
120.8134812842
 21
-593.9866486349
 31
0.0
  0
ENDSEC
  0
SECTION
  2
OBJECTS
  0
DICTIONARY
  5
C
330
0
100
AcDbDictionary
281
     1
  3
ACAD_DETAILVIEWSTYLE
350
1DF
  3
ACAD_GROUP
350
D
  3
ACAD_LAYOUT
350
1A
  3
ACAD_MATERIAL
350
43
  3
ACAD_MLEADERSTYLE
350
6B
  3
ACAD_MLINESTYLE
350
17
  3
ACAD_PLOTSETTINGS
350
19
  3
ACAD_PLOTSTYLENAME
350
E
  3
ACAD_SCALELIST
350
47
  3
ACAD_SECTIONVIEWSTYLE
350
1E0
  3
ACAD_TABLESTYLE
350
69
  3
ACAD_VISUALSTYLE
350
2A
  3
ACDB_RECOMPOSE_DATA
350
1DC
  3
AcDbVariableDictionary
350
1D8
  0
SUN
  5
6D
330
29
100
AcDbSun
 90
        1
290
     0
 63
     7
421
 16777215
 40
1.0
291
     1
 91
  2455826
 92
 54000000
292
     0
 70
     2
 71
   256
280
     1
  0
DICTIONARY
  5
1DF
102
{ACAD_REACTORS
330
C
102
}
330
C
100
AcDbDictionary
281
     1
  0
DICTIONARY
  5
D
102
{ACAD_REACTORS
330
C
102
}
330
C
100
AcDbDictionary
281
     1
  0
DICTIONARY
  5
1A
102
{ACAD_REACTORS
330
C
102
}
330
C
100
AcDbDictionary
281
     1
  3
Layout1
350
1E
  3
Layout2
350
26
  3
Model
350
22
  0
DICTIONARY
  5
43
102
{ACAD_REACTORS
330
C
102
}
330
C
100
AcDbDictionary
281
     1
  3
ByBlock
350
45
  3
ByLayer
350
44
  3
Global
350
46
  0
DICTIONARY
  5
6B
102
{ACAD_REACTORS
330
C
102
}
330
C
100
AcDbDictionary
281
     1
  3
Standard
350
6C
  0
DICTIONARY
  5
17
102
{ACAD_REACTORS
330
C
102
}
330
C
100
AcDbDictionary
281
     1
  3
Standard
350
18
  0
DICTIONARY
  5
19
102
{ACAD_REACTORS
330
C
102
}
330
C
100
AcDbDictionary
281
     1
  0
ACDBDICTIONARYWDFLT
  5
E
102
{ACAD_REACTORS
330
C
102
}
330
C
100
AcDbDictionary
281
     1
  3
Normal
350
F
100
AcDbDictionaryWithDefault
340
F
  0
DICTIONARY
  5
47
102
{ACAD_REACTORS
330
C
102
}
330
C
100
AcDbDictionary
281
     1
  3
A0
350
48
  3
A1
350
49
  3
A2
350
4A
  3
A3
350
4B
  3
A4
350
4C
  3
A5
350
4D
  3
A6
350
4E
  3
A7
350
4F
  3
A8
350
50
  3
A9
350
51
  3
B0
350
52
  3
B1
350
53
  3
B2
350
54
  3
B3
350
55
  3
B4
350
56
  3
B5
350
57
  3
B6
350
58
  3
B7
350
59
  3
B8
350
5A
  3
B9
350
5B
  3
C0
350
5C
  3
C1
350
5D
  3
C2
350
5E
  3
C3
350
5F
  3
C4
350
60
  3
C5
350
61
  3
C6
350
62
  3
C7
350
63
  3
C8
350
64
  3
C9
350
65
  3
D0
350
66
  3
D1
350
67
  3
D2
350
68
  0
DICTIONARY
  5
1E0
102
{ACAD_REACTORS
330
C
102
}
330
C
100
AcDbDictionary
281
     1
  0
DICTIONARY
  5
69
102
{ACAD_REACTORS
330
C
102
}
330
C
100
AcDbDictionary
281
     1
  3
Standard
350
6A
  0
DICTIONARY
  5
2A
102
{ACAD_REACTORS
330
C
102
}
330
C
100
AcDbDictionary
281
     1
  3
2dWireframe
350
2F
  3
Basic
350
32
  3
Brighten
350
36
  3
ColorChange
350
3A
  3
Conceptual
350
34
  3
Dim
350
35
  3
EdgeColorOff
350
3D
  3
Facepattern
350
39
  3
Flat
350
2B
  3
FlatWithEdges
350
2C
  3
Gouraud
350
2D
  3
GouraudWithEdges
350
2E
  3
Hidden
350
31
  3
JitterOff
350
3B
  3
Linepattern
350
38
  3
OverhangOff
350
3C
  3
Realistic
350
33
  3
Shaded
350
42
  3
Shaded with edges
350
41
  3
Shades of Gray
350
3E
  3
Sketchy
350
3F
  3
Thicken
350
37
  3
Wireframe
350
30
  3
X-Ray
350
40
  0
XRECORD
  5
1DC
102
{ACAD_REACTORS
330
C
102
}
330
C
100
AcDbXrecord
280
     1
 90
        1
330
6A
  0
DICTIONARY
  5
1D8
102
{ACAD_REACTORS
330
C
102
}
330
C
100
AcDbDictionary
281
     1
  3
CANNOSCALE
350
1D9
  3
CMLEADERSTYLE
350
1DE
  3
CTABLESTYLE
350
1DD
  0
LAYOUT
  5
1E
102
{ACAD_REACTORS
330
1A
102
}
330
1A
100
AcDbPlotSettings
  1

  2
none_device
  4

  6

 40
0.0
 41
0.0
 42
0.0
 43
0.0
 44
0.0
 45
0.0
 46
0.0
 47
0.0
 48
0.0
 49
0.0
140
0.0
141
0.0
142
1.0
143
1.0
 70
   688
 72
     1
 73
     0
 74
     5
  7

 75
    16
 76
     0
 77
     2
 78
   300
147
1.0
148
0.0
149
0.0
100
AcDbLayout
  1
Layout1
 70
     1
 71
     1
 10
0.0
 20
0.0
 11
420.0
 21
297.0
 12
0.0
 22
0.0
 32
0.0
 14
1.0000000000E+20
 24
1.0000000000E+20
 34
1.0000000000E+20
 15
-1.0000000000E+20
 25
-1.0000000000E+20
 35
-1.0000000000E+20
146
0.0
 13
0.0
 23
0.0
 33
0.0
 16
1.0
 26
0.0
 36
0.0
 17
0.0
 27
1.0
 37
0.0
 76
     0
330
1B
  0
LAYOUT
  5
26
102
{ACAD_REACTORS
330
1A
102
}
330
1A
100
AcDbPlotSettings
  1

  2
none_device
  4

  6

 40
0.0
 41
0.0
 42
0.0
 43
0.0
 44
0.0
 45
0.0
 46
0.0
 47
0.0
 48
0.0
 49
0.0
140
0.0
141
0.0
142
1.0
143
1.0
 70
   688
 72
     1
 73
     0
 74
     5
  7

 75
    16
 76
     0
 77
     2
 78
   300
147
1.0
148
0.0
149
0.0
100
AcDbLayout
  1
Layout2
 70
     1
 71
     2
 10
0.0
 20
0.0
 11
0.0
 21
0.0
 12
0.0
 22
0.0
 32
0.0
 14
0.0
 24
0.0
 34
0.0
 15
0.0
 25
0.0
 35
0.0
146
0.0
 13
0.0
 23
0.0
 33
0.0
 16
1.0
 26
0.0
 36
0.0
 17
0.0
 27
1.0
 37
0.0
 76
     0
330
23
  0
LAYOUT
  5
22
102
{ACAD_REACTORS
330
1A
102
}
330
1A
100
AcDbPlotSettings
  1

  2
none_device
  4
Letter_(8.50_x_11.00_Inches)
  6

 40
6.35
 41
6.35
 42
6.35000508
 43
6.35000508
 44
215.9
 45
279.4
 46
0.0
 47
0.0
 48
0.0
 49
0.0
140
0.0
141
0.0
142
1.0
143
1.0
 70
  1712
 72
     1
 73
     0
 74
     0
  7

 75
     0
 76
     0
 77
     2
 78
   300
147
1.0
148
0.0
149
0.0
100
AcDbLayout
  1
Model
 70
     1
 71
     0
 10
0.0
 20
0.0
 11
1420.0
 21
1297.0
 12
0.0
 22
0.0
 32
0.0
 14
0.0
 24
0.0
 34
0.0
 15
1420.0
 25
1297.0
 35
0.0
146
0.0
 13
0.0
 23
0.0
 33
0.0
 16
1.0
 26
0.0
 36
0.0
 17
0.0
 27
1.0
 37
0.0
 76
     0
330
1F
331
29
  0
MATERIAL
  5
45
102
{ACAD_REACTORS
330
43
102
}
330
43
100
AcDbMaterial
  1
ByBlock
 72
     1
 94
      127
  0
MATERIAL
  5
44
102
{ACAD_REACTORS
330
43
102
}
330
43
100
AcDbMaterial
  1
ByLayer
 72
     1
 94
      127
  0
MATERIAL
  5
46
102
{ACAD_REACTORS
330
43
102
}
330
43
100
AcDbMaterial
  1
Global
 72
     1
 94
      127
  0
MLEADERSTYLE
  5
6C
102
{ACAD_REACTORS
330
6B
102
}
330
6B
100
AcDbMLeaderStyle
179
     2
170
     2
171
     1
172
     0
 90
        2
 40
0.0
 41
0.0
173
     1
 91
-1056964608
340
14
 92
       -2
290
     1
 42
2.0
291
     1
 43
8.0
  3
Standard
341
0
 44
4.0
300

342
11
174
     1
178
     6
175
     1
176
     0
 93
-1056964608
 45
4.0
292
     0
297
     0
 46
4.0
343
0
 94
-1056964608
 47
1.0
 49
1.0
140
1.0
293
     1
141
0.0
294
     1
177
     0
142
1.0
295
     0
296
     0
143
3.75
271
     0
272
     9
273
     9
298
     0
  0
MLINESTYLE
  5
18
102
{ACAD_REACTORS
330
17
102
}
330
17
100
AcDbMlineStyle
  2
Standard
 70
     0
  3

 62
   256
 51
90.0
 52
90.0
 71
     2
 49
0.5
 62
   256
  6
BYLAYER
 49
-0.5
 62
   256
  6
BYLAYER
  0
ACDBPLACEHOLDER
  5
F
102
{ACAD_REACTORS
330
E
102
}
330
E
  0
SCALE
  5
48
102
{ACAD_REACTORS
330
47
102
}
330
47
100
AcDbScale
 70
     0
300
1:1
140
1.0
141
1.0
290
     1
  0
SCALE
  5
49
102
{ACAD_REACTORS
330
47
102
}
330
47
100
AcDbScale
 70
     0
300
1:2
140
1.0
141
2.0
290
     0
  0
SCALE
  5
4A
102
{ACAD_REACTORS
330
47
102
}
330
47
100
AcDbScale
 70
     0
300
1:4
140
1.0
141
4.0
290
     0
  0
SCALE
  5
4B
102
{ACAD_REACTORS
330
47
102
}
330
47
100
AcDbScale
 70
     0
300
1:5
140
1.0
141
5.0
290
     0
  0
SCALE
  5
4C
102
{ACAD_REACTORS
330
47
102
}
330
47
100
AcDbScale
 70
     0
300
1:8
140
1.0
141
8.0
290
     0
  0
SCALE
  5
4D
102
{ACAD_REACTORS
330
47
102
}
330
47
100
AcDbScale
 70
     0
300
1:10
140
1.0
141
10.0
290
     0
  0
SCALE
  5
4E
102
{ACAD_REACTORS
330
47
102
}
330
47
100
AcDbScale
 70
     0
300
1:16
140
1.0
141
16.0
290
     0
  0
SCALE
  5
4F
102
{ACAD_REACTORS
330
47
102
}
330
47
100
AcDbScale
 70
     0
300
1:20
140
1.0
141
20.0
290
     0
  0
SCALE
  5
50
102
{ACAD_REACTORS
330
47
102
}
330
47
100
AcDbScale
 70
     0
300
1:30
140
1.0
141
30.0
290
     0
  0
SCALE
  5
51
102
{ACAD_REACTORS
330
47
102
}
330
47
100
AcDbScale
 70
     0
300
1:40
140
1.0
141
40.0
290
     0
  0
SCALE
  5
52
102
{ACAD_REACTORS
330
47
102
}
330
47
100
AcDbScale
 70
     0
300
1:50
140
1.0
141
50.0
290
     0
  0
SCALE
  5
53
102
{ACAD_REACTORS
330
47
102
}
330
47
100
AcDbScale
 70
     0
300
1:100
140
1.0
141
100.0
290
     0
  0
SCALE
  5
54
102
{ACAD_REACTORS
330
47
102
}
330
47
100
AcDbScale
 70
     0
300
2:1
140
2.0
141
1.0
290
     0
  0
SCALE
  5
55
102
{ACAD_REACTORS
330
47
102
}
330
47
100
AcDbScale
 70
     0
300
4:1
140
4.0
141
1.0
290
     0
  0
SCALE
  5
56
102
{ACAD_REACTORS
330
47
102
}
330
47
100
AcDbScale
 70
     0
300
8:1
140
8.0
141
1.0
290
     0
  0
SCALE
  5
57
102
{ACAD_REACTORS
330
47
102
}
330
47
100
AcDbScale
 70
     0
300
10:1
140
10.0
141
1.0
290
     0
  0
SCALE
  5
58
102
{ACAD_REACTORS
330
47
102
}
330
47
100
AcDbScale
 70
     0
300
100:1
140
100.0
141
1.0
290
     0
  0
SCALE
  5
59
102
{ACAD_REACTORS
330
47
102
}
330
47
100
AcDbScale
 70
     0
300
1/128" = 1'-0"
140
0.0078125
141
12.0
290
     0
  0
SCALE
  5
5A
102
{ACAD_REACTORS
330
47
102
}
330
47
100
AcDbScale
 70
     0
300
1/64" = 1'-0"
140
0.015625
141
12.0
290
     0
  0
SCALE
  5
5B
102
{ACAD_REACTORS
330
47
102
}
330
47
100
AcDbScale
 70
     0
300
1/32" = 1'-0"
140
0.03125
141
12.0
290
     0
  0
SCALE
  5
5C
102
{ACAD_REACTORS
330
47
102
}
330
47
100
AcDbScale
 70
     0
300
1/16" = 1'-0"
140
0.0625
141
12.0
290
     0
  0
SCALE
  5
5D
102
{ACAD_REACTORS
330
47
102
}
330
47
100
AcDbScale
 70
     0
300
3/32" = 1'-0"
140
0.09375
141
12.0
290
     0
  0
SCALE
  5
5E
102
{ACAD_REACTORS
330
47
102
}
330
47
100
AcDbScale
 70
     0
300
1/8" = 1'-0"
140
0.125
141
12.0
290
     0
  0
SCALE
  5
5F
102
{ACAD_REACTORS
330
47
102
}
330
47
100
AcDbScale
 70
     0
300
3/16" = 1'-0"
140
0.1875
141
12.0
290
     0
  0
SCALE
  5
60
102
{ACAD_REACTORS
330
47
102
}
330
47
100
AcDbScale
 70
     0
300
1/4" = 1'-0"
140
0.25
141
12.0
290
     0
  0
SCALE
  5
61
102
{ACAD_REACTORS
330
47
102
}
330
47
100
AcDbScale
 70
     0
300
3/8" = 1'-0"
140
0.375
141
12.0
290
     0
  0
SCALE
  5
62
102
{ACAD_REACTORS
330
47
102
}
330
47
100
AcDbScale
 70
     0
300
1/2" = 1'-0"
140
0.5
141
12.0
290
     0
  0
SCALE
  5
63
102
{ACAD_REACTORS
330
47
102
}
330
47
100
AcDbScale
 70
     0
300
3/4" = 1'-0"
140
0.75
141
12.0
290
     0
  0
SCALE
  5
64
102
{ACAD_REACTORS
330
47
102
}
330
47
100
AcDbScale
 70
     0
300
1" = 1'-0"
140
1.0
141
12.0
290
     0
  0
SCALE
  5
65
102
{ACAD_REACTORS
330
47
102
}
330
47
100
AcDbScale
 70
     0
300
1-1/2" = 1'-0"
140
1.5
141
12.0
290
     0
  0
SCALE
  5
66
102
{ACAD_REACTORS
330
47
102
}
330
47
100
AcDbScale
 70
     0
300
3" = 1'-0"
140
3.0
141
12.0
290
     0
  0
SCALE
  5
67
102
{ACAD_REACTORS
330
47
102
}
330
47
100
AcDbScale
 70
     0
300
6" = 1'-0"
140
6.0
141
12.0
290
     0
  0
SCALE
  5
68
102
{ACAD_REACTORS
330
47
102
}
330
47
100
AcDbScale
 70
     0
300
1'-0" = 1'-0"
140
12.0
141
12.0
290
     0
  0
TABLESTYLE
  5
6A
102
{ACAD_REACTORS
330
69
102
}
102
{ACAD_XDICTIONARY
360
1DA
102
}
330
69
100
AcDbTableStyle
  3
Standard
 70
     0
 71
     0
 40
0.06
 41
0.06
280
     0
281
     0
  7
Standard
140
4.5
170
     2
 62
     0
 63
   257
283
     0
 90
        4
 91
        0
  1

274
    -2
284
     1
 64
     0
275
    -2
285
     1
 65
     0
276
    -2
286
     1
 66
     0
277
    -2
287
     1
 67
     0
278
    -2
288
     1
 68
     0
279
    -2
289
     1
 69
     0
  7
Standard
140
6.0
170
     5
 62
     0
 63
   257
283
     0
 90
        4
 91
        0
  1

274
    -2
284
     1
 64
     0
275
    -2
285
     1
 65
     0
276
    -2
286
     1
 66
     0
277
    -2
287
     1
 67
     0
278
    -2
288
     1
 68
     0
279
    -2
289
     1
 69
     0
  7
Standard
140
4.5
170
     5
 62
     0
 63
   257
283
     0
 90
        4
 91
        0
  1

274
    -2
284
     1
 64
     0
275
    -2
285
     1
 65
     0
276
    -2
286
     1
 66
     0
277
    -2
287
     1
 67
     0
278
    -2
288
     1
 68
     0
279
    -2
289
     1
 69
     0
  0
VISUALSTYLE
  5
2F
102
{ACAD_REACTORS
330
2A
102
}
330
2A
100
AcDbVisualStyle
  2
2dWireframe
 70
     4
177
     3
291
     0
 70
    58
 90
        0
176
     1
 90
        2
176
     1
 90
        0
176
     1
 90
        0
176
     1
 40
0.6
176
     1
 40
30.0
176
     1
 62
     7
420
 16777215
176
     1
 90
        1
176
     1
 90
        4
176
     1
 62
     7
176
     1
 62
   257
176
     1
 90
        1
176
     1
 90
        1
176
     1
 40
1.0
176
     1
 90
        0
176
     1
 62
   257
176
     1
 40
1.0
176
     1
 90
        1
176
     1
 90
        6
176
     1
 90
        2
176
     1
 62
     7
176
     1
 90
        5
176
     1
 90
        0
176
     1
 90
        0
176
     1
290
     0
176
     1
 90
        1
176
     1
 40
0.0
176
     1
 90
        0
176
     1
290
     1
176
     1
290
     1
176
     1
290
     0
176
     1
290
     0
176
     1
290
     0
176
     1
290
     0
176
     1
290
     0
176
     1
290
     0
176
     1
290
     0
176
     1
 90
       50
176
     1
 40
0.0
176
     1
 40
1.0
176
     1
 90
        0
176
     1
 62
    18
420
        0
176
     1
 90
       50
176
     1
 90
        3
176
     1
 62
     5
420
      255
176
     1
290
     0
176
     1
 90
       50
176
     1
 90
       50
176
     1
 90
       50
176
     1
290
     0
176
     1
 90
       50
176
     1
 62
   256
176
     0
 40
1.0
176
     0
 90
        2
176
     1
  1
strokes_ogs.tif
176
     1
290
     0
176
     1
 40
1.0
176
     1
 40
1.0
176
     1
  0
VISUALSTYLE
  5
32
102
{ACAD_REACTORS
330
2A
102
}
330
2A
100
AcDbVisualStyle
  2
Basic
 70
     7
177
     3
291
     1
 70
    58
 90
        1
176
     1
 90
        0
176
     1
 90
        1
176
     1
 90
        0
176
     1
 40
0.6
176
     1
 40
30.0
176
     1
 62
     7
420
 16777215
176
     1
 90
        0
176
     1
 90
        4
176
     1
 62
     7
176
     1
 62
   257
176
     1
 90
        1
176
     1
 90
        1
176
     1
 40
1.0
176
     1
 90
        8
176
     1
 62
     7
176
     1
 40
1.0
176
     1
 90
        1
176
     1
 90
        6
176
     1
 90
        2
176
     1
 62
     7
176
     1
 90
        5
176
     1
 90
        0
176
     1
 90
        0
176
     1
290
     0
176
     1
 90
        1
176
     1
 40
0.0
176
     1
 90
        0
176
     1
290
     0
176
     1
290
     1
176
     1
290
     1
176
     1
290
     0
176
     1
290
     0
176
     1
290
     0
176
     1
290
     0
176
     1
290
     0
176
     1
290
     0
176
     1
 90
       50
176
     1
 40
0.0
176
     1
 40
1.0
176
     1
 90
        0
176
     1
 62
    18
420
        0
176
     1
 90
       50
176
     1
 90
        3
176
     1
 62
     5
420
      255
176
     1
290
     0
176
     1
 90
       50
176
     1
 90
       50
176
     1
 90
       50
176
     1
290
     0
176
     1
 90
       50
176
     1
 62
   256
176
     0
 40
1.0
176
     0
 90
        2
176
     1
  1
strokes_ogs.tif
176
     1
290
     0
176
     1
 40
1.0
176
     1
 40
1.0
176
     1
  0
VISUALSTYLE
  5
36
102
{ACAD_REACTORS
330
2A
102
}
330
2A
100
AcDbVisualStyle
  2
Brighten
 70
    12
177
     3
291
     1
 70
    58
 90
        2
176
     1
 90
        2
176
     1
 90
        0
176
     1
 90
        0
176
     1
 40
0.6
176
     1
 40
30.0
176
     1
 62
     7
420
 16777215
176
     1
 90
        1
176
     1
 90
        4
176
     1
 62
     7
176
     1
 62
   257
176
     1
 90
        1
176
     1
 90
        1
176
     1
 40
1.0
176
     1
 90
        8
176
     1
 62
     7
176
     1
 40
1.0
176
     1
 90
        1
176
     1
 90
        6
176
     1
 90
        2
176
     1
 62
     7
176
     1
 90
        5
176
     1
 90
        0
176
     1
 90
        0
176
     1
290
     0
176
     1
 90
        1
176
     1
 40
50.0
176
     1
 90
        0
176
     1
290
     0
176
     1
290
     1
176
     1
290
     1
176
     1
290
     0
176
     1
290
     0
176
     1
290
     0
176
     1
290
     0
176
     1
290
     0
176
     1
290
     0
176
     1
 90
       50
176
     1
 40
0.0
176
     1
 40
1.0
176
     1
 90
        0
176
     1
 62
    18
420
        0
176
     1
 90
       50
176
     1
 90
        3
176
     1
 62
     5
420
      255
176
     1
290
     0
176
     1
 90
       50
176
     1
 90
       50
176
     1
 90
       50
176
     1
290
     0
176
     1
 90
       50
176
     1
 62
   256
176
     0
 40
1.0
176
     0
 90
        2
176
     1
  1
strokes_ogs.tif
176
     1
290
     0
176
     1
 40
1.0
176
     1
 40
1.0
176
     1
  0
VISUALSTYLE
  5
3A
102
{ACAD_REACTORS
330
2A
102
}
330
2A
100
AcDbVisualStyle
  2
ColorChange
 70
    16
177
     3
291
     1
 70
    58
 90
        2
176
     1
 90
        2
176
     1
 90
        3
176
     1
 90
        0
176
     1
 40
0.6
176
     1
 40
30.0
176
     1
 62
     8
420
  8421504
176
     1
 90
        1
176
     1
 90
        4
176
     1
 62
     7
176
     1
 62
   257
176
     1
 90
        1
176
     1
 90
        1
176
     1
 40
1.0
176
     1
 90
        8
176
     1
 62
     8
420
  8421504
176
     1
 40
1.0
176
     1
 90
        1
176
     1
 90
        6
176
     1
 90
        2
176
     1
 62
     7
176
     1
 90
        5
176
     1
 90
        0
176
     1
 90
        0
176
     1
290
     0
176
     1
 90
        1
176
     1
 40
0.0
176
     1
 90
        0
176
     1
290
     0
176
     1
290
     1
176
     1
290
     1
176
     1
290
     0
176
     1
290
     0
176
     1
290
     0
176
     1
290
     0
176
     1
290
     0
176
     1
290
     0
176
     1
 90
       50
176
     1
 40
0.0
176
     1
 40
1.0
176
     1
 90
        0
176
     1
 62
    18
420
        0
176
     1
 90
       50
176
     1
 90
        3
176
     1
 62
     5
420
      255
176
     1
290
     0
176
     1
 90
       50
176
     1
 90
       50
176
     1
 90
       50
176
     1
290
     0
176
     1
 90
       50
176
     1
 62
   256
176
     0
 40
1.0
176
     0
 90
        2
176
     1
  1
strokes_ogs.tif
176
     1
290
     0
176
     1
 40
1.0
176
     1
 40
1.0
176
     1
  0
VISUALSTYLE
  5
34
102
{ACAD_REACTORS
330
2A
102
}
330
2A
100
AcDbVisualStyle
  2
Conceptual
 70
     9
177
     3
291
     0
 70
    58
 90
        3
176
     1
 90
        2
176
     1
 90
        0
176
     1
 90
        0
176
     1
 40
0.6
176
     1
 40
30.0
176
     1
 62
     7
420
 16777215
176
     1
 90
        2
176
     1
 90
        2
176
     1
 62
     7
176
     1
 62
   257
176
     1
 90
        1
176
     1
 90
        1
176
     1
 40
179.0
176
     1
 90
        8
176
     1
 62
     7
176
     1
 40
1.0
176
     1
 90
        1
176
     1
 90
        6
176
     1
 90
        2
176
     1
 62
     7
176
     1
 90
        3
176
     1
 90
        0
176
     1
 90
        0
176
     1
290
     0
176
     1
 90
        1
176
     1
 40
0.0
176
     1
 90
        0
176
     1
290
     0
176
     1
290
     1
176
     1
290
     1
176
     1
290
     0
176
     1
290
     0
176
     1
290
     0
176
     1
290
     0
176
     1
290
     0
176
     1
290
     0
176
     1
 90
       50
176
     1
 40
0.0
176
     1
 40
1.0
176
     1
 90
        0
176
     1
 62
    18
420
        0
176
     1
 90
       50
176
     1
 90
        3
176
     1
 62
     5
420
      255
176
     1
290
     0
176
     1
 90
       50
176
     1
 90
       50
176
     1
 90
       50
176
     1
290
     0
176
     1
 90
       50
176
     1
 62
   256
176
     0
 40
1.0
176
     0
 90
        2
176
     1
  1
strokes_ogs.tif
176
     1
290
     0
176
     1
 40
1.0
176
     1
 40
1.0
176
     1
  0
VISUALSTYLE
  5
35
102
{ACAD_REACTORS
330
2A
102
}
330
2A
100
AcDbVisualStyle
  2
Dim
 70
    11
177
     3
291
     1
 70
    58
 90
        2
176
     1
 90
        2
176
     1
 90
        0
176
     1
 90
        0
176
     1
 40
0.6
176
     1
 40
30.0
176
     1
 62
     7
420
 16777215
176
     1
 90
        1
176
     1
 90
        4
176
     1
 62
     7
176
     1
 62
   257
176
     1
 90
        1
176
     1
 90
        1
176
     1
 40
1.0
176
     1
 90
        8
176
     1
 62
     7
176
     1
 40
1.0
176
     1
 90
        1
176
     1
 90
        6
176
     1
 90
        2
176
     1
 62
     7
176
     1
 90
        5
176
     1
 90
        0
176
     1
 90
        0
176
     1
290
     0
176
     1
 90
        1
176
     1
 40
-50.0
176
     1
 90
        0
176
     1
290
     0
176
     1
290
     1
176
     1
290
     1
176
     1
290
     0
176
     1
290
     0
176
     1
290
     0
176
     1
290
     0
176
     1
290
     0
176
     1
290
     0
176
     1
 90
       50
176
     1
 40
0.0
176
     1
 40
1.0
176
     1
 90
        0
176
     1
 62
    18
420
        0
176
     1
 90
       50
176
     1
 90
        3
176
     1
 62
     5
420
      255
176
     1
290
     0
176
     1
 90
       50
176
     1
 90
       50
176
     1
 90
       50
176
     1
290
     0
176
     1
 90
       50
176
     1
 62
   256
176
     0
 40
1.0
176
     0
 90
        2
176
     1
  1
strokes_ogs.tif
176
     1
290
     0
176
     1
 40
1.0
176
     1
 40
1.0
176
     1
  0
VISUALSTYLE
  5
3D
102
{ACAD_REACTORS
330
2A
102
}
330
2A
100
AcDbVisualStyle
  2
EdgeColorOff
 70
    22
177
     3
291
     1
 70
    58
 90
        2
176
     0
 90
        2
176
     0
 90
        0
176
     0
 90
        0
176
     0
 40
0.6
176
     0
 40
30.0
176
     0
 62
     7
420
 16777215
176
     0
 90
        1
176
     0
 90
        4
176
     0
 62
     7
176
     0
 62
   257
176
     0
 90
        1
176
     0
 90
        1
176
     0
 40
1.0
176
     0
 90
        8
176
     2
 62
     7
176
     0
 40
1.0
176
     0
 90
        1
176
     0
 90
        6
176
     0
 90
        2
176
     0
 62
     7
176
     0
 90
        5
176
     0
 90
        0
176
     0
 90
        0
176
     0
290
     0
176
     0
 90
        1
176
     0
 40
0.0
176
     0
 90
        0
176
     0
290
     0
176
     0
290
     1
176
     0
290
     1
176
     0
290
     0
176
     0
290
     0
176
     0
290
     0
176
     0
290
     0
176
     0
290
     0
176
     0
290
     0
176
     0
 90
       50
176
     0
 40
0.0
176
     0
 40
1.0
176
     0
 90
        0
176
     0
 62
    18
420
        0
176
     0
 90
       50
176
     0
 90
        3
176
     0
 62
     5
420
      255
176
     0
290
     0
176
     0
 90
       50
176
     0
 90
       50
176
     0
 90
       50
176
     0
290
     0
176
     0
 90
       50
176
     0
 62
   256
176
     0
 40
1.0
176
     0
 90
        2
176
     0
  1
strokes_ogs.tif
176
     0
290
     0
176
     0
 40
1.0
176
     0
 40
1.0
176
     0
  0
VISUALSTYLE
  5
39
102
{ACAD_REACTORS
330
2A
102
}
330
2A
100
AcDbVisualStyle
  2
Facepattern
 70
    15
177
     3
291
     1
 70
    58
 90
        2
176
     1
 90
        2
176
     1
 90
        0
176
     1
 90
        0
176
     1
 40
0.6
176
     1
 40
30.0
176
     1
 62
     7
420
 16777215
176
     1
 90
        1
176
     1
 90
        4
176
     1
 62
     7
176
     1
 62
   257
176
     1
 90
        1
176
     1
 90
        1
176
     1
 40
1.0
176
     1
 90
        8
176
     1
 62
     7
176
     1
 40
1.0
176
     1
 90
        1
176
     1
 90
        6
176
     1
 90
        2
176
     1
 62
     7
176
     1
 90
        5
176
     1
 90
        0
176
     1
 90
        0
176
     1
290
     0
176
     1
 90
        1
176
     1
 40
0.0
176
     1
 90
        0
176
     1
290
     0
176
     1
290
     1
176
     1
290
     1
176
     1
290
     0
176
     1
290
     0
176
     1
290
     0
176
     1
290
     0
176
     1
290
     0
176
     1
290
     0
176
     1
 90
       50
176
     1
 40
0.0
176
     1
 40
1.0
176
     1
 90
        0
176
     1
 62
    18
420
        0
176
     1
 90
       50
176
     1
 90
        3
176
     1
 62
     5
420
      255
176
     1
290
     0
176
     1
 90
       50
176
     1
 90
       50
176
     1
 90
       50
176
     1
290
     0
176
     1
 90
       50
176
     1
 62
   256
176
     0
 40
1.0
176
     0
 90
        2
176
     1
  1
strokes_ogs.tif
176
     1
290
     0
176
     1
 40
1.0
176
     1
 40
1.0
176
     1
  0
VISUALSTYLE
  5
2B
102
{ACAD_REACTORS
330
2A
102
}
330
2A
100
AcDbVisualStyle
  2
Flat
 70
     0
177
     3
291
     1
 70
    58
 90
        2
176
     1
 90
        1
176
     1
 90
        1
176
     1
 90
        2
176
     1
 40
0.6
176
     1
 40
30.0
176
     1
 62
     7
420
 16777215
176
     1
 90
        0
176
     1
 90
        0
176
     1
 62
     7
176
     1
 62
   257
176
     1
 90
        1
176
     1
 90
        1
176
     1
 40
1.0
176
     1
 90
        8
176
     1
 62
     7
176
     1
 40
1.0
176
     1
 90
        1
176
     1
 90
        6
176
     1
 90
        2
176
     1
 62
     7
176
     1
 90
        5
176
     1
 90
        0
176
     1
 90
        0
176
     1
290
     0
176
     1
 90
       13
176
     1
 40
0.0
176
     1
 90
        0
176
     1
290
     0
176
     1
290
     1
176
     1
290
     1
176
     1
290
     0
176
     1
290
     0
176
     1
290
     0
176
     1
290
     0
176
     1
290
     0
176
     1
290
     0
176
     1
 90
       50
176
     1
 40
0.0
176
     1
 40
1.0
176
     1
 90
        0
176
     1
 62
    18
420
        0
176
     1
 90
       50
176
     1
 90
        3
176
     1
 62
     5
420
      255
176
     1
290
     0
176
     1
 90
       50
176
     1
 90
       50
176
     1
 90
       50
176
     1
290
     0
176
     1
 90
       50
176
     1
 62
   256
176
     0
 40
1.0
176
     0
 90
        2
176
     1
  1
strokes_ogs.tif
176
     1
290
     0
176
     1
 40
1.0
176
     1
 40
1.0
176
     1
  0
VISUALSTYLE
  5
2C
102
{ACAD_REACTORS
330
2A
102
}
330
2A
100
AcDbVisualStyle
  2
FlatWithEdges
 70
     1
177
     3
291
     1
 70
    58
 90
        2
176
     1
 90
        1
176
     1
 90
        1
176
     1
 90
        2
176
     1
 40
0.6
176
     1
 40
30.0
176
     1
 62
     7
420
 16777215
176
     1
 90
        1
176
     1
 90
        0
176
     1
 62
     7
176
     1
 62
   257
176
     1
 90
        1
176
     1
 90
        1
176
     1
 40
1.0
176
     1
 90
        0
176
     1
 62
   257
176
     1
 40
1.0
176
     1
 90
        1
176
     1
 90
        6
176
     1
 90
        2
176
     1
 62
     7
176
     1
 90
        5
176
     1
 90
        0
176
     1
 90
        0
176
     1
290
     0
176
     1
 90
       13
176
     1
 40
0.0
176
     1
 90
        0
176
     1
290
     0
176
     1
290
     1
176
     1
290
     1
176
     1
290
     0
176
     1
290
     0
176
     1
290
     0
176
     1
290
     0
176
     1
290
     0
176
     1
290
     0
176
     1
 90
       50
176
     1
 40
0.0
176
     1
 40
1.0
176
     1
 90
        0
176
     1
 62
    18
420
        0
176
     1
 90
       50
176
     1
 90
        3
176
     1
 62
     5
420
      255
176
     1
290
     0
176
     1
 90
       50
176
     1
 90
       50
176
     1
 90
       50
176
     1
290
     0
176
     1
 90
       50
176
     1
 62
   256
176
     0
 40
1.0
176
     0
 90
        2
176
     1
  1
strokes_ogs.tif
176
     1
290
     0
176
     1
 40
1.0
176
     1
 40
1.0
176
     1
  0
VISUALSTYLE
  5
2D
102
{ACAD_REACTORS
330
2A
102
}
330
2A
100
AcDbVisualStyle
  2
Gouraud
 70
     2
177
     3
291
     1
 70
    58
 90
        2
176
     1
 90
        2
176
     1
 90
        1
176
     1
 90
        2
176
     1
 40
0.6
176
     1
 40
30.0
176
     1
 62
     7
420
 16777215
176
     1
 90
        0
176
     1
 90
        0
176
     1
 62
     7
176
     1
 62
   257
176
     1
 90
        1
176
     1
 90
        1
176
     1
 40
1.0
176
     1
 90
        0
176
     1
 62
     7
176
     1
 40
1.0
176
     1
 90
        1
176
     1
 90
        6
176
     1
 90
        2
176
     1
 62
     7
176
     1
 90
        5
176
     1
 90
        0
176
     1
 90
        0
176
     1
290
     0
176
     1
 90
       13
176
     1
 40
0.0
176
     1
 90
        0
176
     1
290
     0
176
     1
290
     1
176
     1
290
     1
176
     1
290
     0
176
     1
290
     0
176
     1
290
     0
176
     1
290
     0
176
     1
290
     0
176
     1
290
     0
176
     1
 90
       50
176
     1
 40
0.0
176
     1
 40
1.0
176
     1
 90
        0
176
     1
 62
    18
420
        0
176
     1
 90
       50
176
     1
 90
        3
176
     1
 62
     5
420
      255
176
     1
290
     0
176
     1
 90
       50
176
     1
 90
       50
176
     1
 90
       50
176
     1
290
     0
176
     1
 90
       50
176
     1
 62
   256
176
     0
 40
1.0
176
     0
 90
        2
176
     1
  1
strokes_ogs.tif
176
     1
290
     0
176
     1
 40
1.0
176
     1
 40
1.0
176
     1
  0
VISUALSTYLE
  5
2E
102
{ACAD_REACTORS
330
2A
102
}
330
2A
100
AcDbVisualStyle
  2
GouraudWithEdges
 70
     3
177
     3
291
     1
 70
    58
 90
        2
176
     1
 90
        2
176
     1
 90
        1
176
     1
 90
        2
176
     1
 40
0.6
176
     1
 40
30.0
176
     1
 62
     7
420
 16777215
176
     1
 90
        1
176
     1
 90
        0
176
     1
 62
     7
176
     1
 62
   257
176
     1
 90
        1
176
     1
 90
        1
176
     1
 40
1.0
176
     1
 90
        0
176
     1
 62
   257
176
     1
 40
1.0
176
     1
 90
        1
176
     1
 90
        6
176
     1
 90
        2
176
     1
 62
     7
176
     1
 90
        5
176
     1
 90
        0
176
     1
 90
        0
176
     1
290
     0
176
     1
 90
       13
176
     1
 40
0.0
176
     1
 90
        0
176
     1
290
     0
176
     1
290
     1
176
     1
290
     1
176
     1
290
     0
176
     1
290
     0
176
     1
290
     0
176
     1
290
     0
176
     1
290
     0
176
     1
290
     0
176
     1
 90
       50
176
     1
 40
0.0
176
     1
 40
1.0
176
     1
 90
        0
176
     1
 62
    18
420
        0
176
     1
 90
       50
176
     1
 90
        3
176
     1
 62
     5
420
      255
176
     1
290
     0
176
     1
 90
       50
176
     1
 90
       50
176
     1
 90
       50
176
     1
290
     0
176
     1
 90
       50
176
     1
 62
   256
176
     0
 40
1.0
176
     0
 90
        2
176
     1
  1
strokes_ogs.tif
176
     1
290
     0
176
     1
 40
1.0
176
     1
 40
1.0
176
     1
  0
VISUALSTYLE
  5
31
102
{ACAD_REACTORS
330
2A
102
}
330
2A
100
AcDbVisualStyle
  2
Hidden
 70
     6
177
     3
291
     0
 70
    58
 90
        1
176
     1
 90
        2
176
     1
 90
        2
176
     1
 90
        0
176
     1
 40
0.6
176
     1
 40
30.0
176
     1
 62
     7
420
 16777215
176
     1
 90
        2
176
     1
 90
        2
176
     1
 62
     7
176
     1
 62
   257
176
     1
 90
        2
176
     1
 90
        1
176
     1
 40
40.0
176
     1
 90
        0
176
     1
 62
   257
176
     1
 40
1.0
176
     1
 90
        1
176
     1
 90
        6
176
     1
 90
        2
176
     1
 62
     7
176
     1
 90
        3
176
     1
 90
        0
176
     1
 90
        0
176
     1
290
     0
176
     1
 90
        1
176
     1
 40
0.0
176
     1
 90
        0
176
     1
290
     0
176
     1
290
     1
176
     1
290
     1
176
     1
290
     0
176
     1
290
     0
176
     1
290
     0
176
     1
290
     0
176
     1
290
     0
176
     1
290
     0
176
     1
 90
       50
176
     1
 40
0.0
176
     1
 40
1.0
176
     1
 90
        0
176
     1
 62
    18
420
        0
176
     1
 90
       50
176
     1
 90
        3
176
     1
 62
     5
420
      255
176
     1
290
     0
176
     1
 90
       50
176
     1
 90
       50
176
     1
 90
       50
176
     1
290
     0
176
     1
 90
       50
176
     1
 62
   256
176
     0
 40
1.0
176
     0
 90
        2
176
     1
  1
strokes_ogs.tif
176
     1
290
     0
176
     1
 40
1.0
176
     1
 40
1.0
176
     1
  0
VISUALSTYLE
  5
3B
102
{ACAD_REACTORS
330
2A
102
}
330
2A
100
AcDbVisualStyle
  2
JitterOff
 70
    20
177
     3
291
     1
 70
    58
 90
        2
176
     0
 90
        2
176
     0
 90
        0
176
     0
 90
        0
176
     0
 40
0.6
176
     0
 40
30.0
176
     0
 62
     7
420
 16777215
176
     0
 90
        1
176
     0
 90
        4
176
     0
 62
     7
176
     0
 62
   257
176
     0
 90
        1
176
     0
 90
        1
176
     0
 40
1.0
176
     0
 90
       10
176
     2
 62
     7
176
     0
 40
1.0
176
     0
 90
        1
176
     0
 90
        6
176
     0
 90
        2
176
     0
 62
     7
176
     0
 90
        5
176
     0
 90
        0
176
     0
 90
        0
176
     0
290
     0
176
     0
 90
        1
176
     0
 40
0.0
176
     0
 90
        0
176
     0
290
     0
176
     0
290
     1
176
     0
290
     1
176
     0
290
     0
176
     0
290
     0
176
     0
290
     0
176
     0
290
     0
176
     0
290
     0
176
     0
290
     0
176
     0
 90
       50
176
     0
 40
0.0
176
     0
 40
1.0
176
     0
 90
        0
176
     0
 62
    18
420
        0
176
     0
 90
       50
176
     0
 90
        3
176
     0
 62
     5
420
      255
176
     0
290
     0
176
     0
 90
       50
176
     0
 90
       50
176
     0
 90
       50
176
     0
290
     0
176
     0
 90
       50
176
     0
 62
   256
176
     0
 40
1.0
176
     0
 90
        2
176
     0
  1
strokes_ogs.tif
176
     0
290
     0
176
     0
 40
1.0
176
     0
 40
1.0
176
     0
  0
VISUALSTYLE
  5
38
102
{ACAD_REACTORS
330
2A
102
}
330
2A
100
AcDbVisualStyle
  2
Linepattern
 70
    14
177
     3
291
     1
 70
    58
 90
        2
176
     1
 90
        2
176
     1
 90
        0
176
     1
 90
        0
176
     1
 40
0.6
176
     1
 40
30.0
176
     1
 62
     7
420
 16777215
176
     1
 90
        1
176
     1
 90
        4
176
     1
 62
     7
176
     1
 62
   257
176
     1
 90
        7
176
     1
 90
        7
176
     1
 40
1.0
176
     1
 90
        8
176
     1
 62
     7
176
     1
 40
1.0
176
     1
 90
        1
176
     1
 90
        6
176
     1
 90
        2
176
     1
 62
     7
176
     1
 90
        5
176
     1
 90
        0
176
     1
 90
        0
176
     1
290
     0
176
     1
 90
        1
176
     1
 40
0.0
176
     1
 90
        0
176
     1
290
     0
176
     1
290
     1
176
     1
290
     1
176
     1
290
     0
176
     1
290
     0
176
     1
290
     0
176
     1
290
     0
176
     1
290
     0
176
     1
290
     0
176
     1
 90
       50
176
     1
 40
0.0
176
     1
 40
1.0
176
     1
 90
        0
176
     1
 62
    18
420
        0
176
     1
 90
       50
176
     1
 90
        3
176
     1
 62
     5
420
      255
176
     1
290
     0
176
     1
 90
       50
176
     1
 90
       50
176
     1
 90
       50
176
     1
290
     0
176
     1
 90
       50
176
     1
 62
   256
176
     0
 40
1.0
176
     0
 90
        2
176
     1
  1
strokes_ogs.tif
176
     1
290
     0
176
     1
 40
1.0
176
     1
 40
1.0
176
     1
  0
VISUALSTYLE
  5
3C
102
{ACAD_REACTORS
330
2A
102
}
330
2A
100
AcDbVisualStyle
  2
OverhangOff
 70
    21
177
     3
291
     1
 70
    58
 90
        2
176
     0
 90
        2
176
     0
 90
        0
176
     0
 90
        0
176
     0
 40
0.6
176
     0
 40
30.0
176
     0
 62
     7
420
 16777215
176
     0
 90
        1
176
     0
 90
        4
176
     0
 62
     7
176
     0
 62
   257
176
     0
 90
        1
176
     0
 90
        1
176
     0
 40
1.0
176
     0
 90
        9
176
     2
 62
     7
176
     0
 40
1.0
176
     0
 90
        1
176
     0
 90
        6
176
     0
 90
        2
176
     0
 62
     7
176
     0
 90
        5
176
     0
 90
        0
176
     0
 90
        0
176
     0
290
     0
176
     0
 90
        1
176
     0
 40
0.0
176
     0
 90
        0
176
     0
290
     0
176
     0
290
     1
176
     0
290
     1
176
     0
290
     0
176
     0
290
     0
176
     0
290
     0
176
     0
290
     0
176
     0
290
     0
176
     0
290
     0
176
     0
 90
       50
176
     0
 40
0.0
176
     0
 40
1.0
176
     0
 90
        0
176
     0
 62
    18
420
        0
176
     0
 90
       50
176
     0
 90
        3
176
     0
 62
     5
420
      255
176
     0
290
     0
176
     0
 90
       50
176
     0
 90
       50
176
     0
 90
       50
176
     0
290
     0
176
     0
 90
       50
176
     0
 62
   256
176
     0
 40
1.0
176
     0
 90
        2
176
     0
  1
strokes_ogs.tif
176
     0
290
     0
176
     0
 40
1.0
176
     0
 40
1.0
176
     0
  0
VISUALSTYLE
  5
33
102
{ACAD_REACTORS
330
2A
102
}
330
2A
100
AcDbVisualStyle
  2
Realistic
 70
     8
177
     3
291
     0
 70
    58
 90
        2
176
     1
 90
        3
176
     1
 90
        0
176
     1
 90
        2
176
     1
 40
0.6
176
     1
 40
30.0
176
     1
 62
     7
420
 16777215
176
     1
 90
        0
176
     1
 90
        0
176
     1
 62
     7
176
     1
 62
   257
176
     1
 90
        1
176
     1
 90
        1
176
     1
 40
1.0
176
     1
 90
        8
176
     1
 62
   257
176
     1
 40
1.0
176
     1
 90
        1
176
     1
 90
        6
176
     1
 90
        2
176
     1
 62
     7
176
     1
 90
        3
176
     1
 90
        0
176
     1
 90
        0
176
     1
290
     0
176
     1
 90
       13
176
     1
 40
0.0
176
     1
 90
        0
176
     1
290
     0
176
     1
290
     1
176
     1
290
     1
176
     1
290
     0
176
     1
290
     0
176
     1
290
     0
176
     1
290
     0
176
     1
290
     0
176
     1
290
     0
176
     1
 90
       50
176
     1
 40
0.0
176
     1
 40
1.0
176
     1
 90
        0
176
     1
 62
    18
420
        0
176
     1
 90
       50
176
     1
 90
        3
176
     1
 62
     5
420
      255
176
     1
290
     0
176
     1
 90
       50
176
     1
 90
       50
176
     1
 90
       50
176
     1
290
     0
176
     1
 90
       50
176
     1
 62
   256
176
     0
 40
1.0
176
     0
 90
        2
176
     1
  1
strokes_ogs.tif
176
     1
290
     0
176
     1
 40
1.0
176
     1
 40
1.0
176
     1
  0
VISUALSTYLE
  5
42
102
{ACAD_REACTORS
330
2A
102
}
330
2A
100
AcDbVisualStyle
  2
Shaded
 70
    27
177
     3
291
     0
 70
    58
 90
        2
176
     1
 90
        2
176
     1
 90
        1
176
     1
 90
        2
176
     1
 40
0.6
176
     1
 40
30.0
176
     1
 62
     7
420
 16777215
176
     1
 90
        0
176
     1
 90
        4
176
     1
 62
     7
176
     1
 62
   257
176
     1
 90
        1
176
     1
 90
        1
176
     1
 40
1.0
176
     1
 90
        8
176
     1
 62
   257
176
     1
 40
1.0
176
     1
 90
        1
176
     1
 90
        6
176
     1
 90
        2
176
     1
 62
     8
420
  7895160
176
     1
 90
        3
176
     1
 90
        0
176
     1
 90
        0
176
     1
290
     0
176
     1
 90
        5
176
     1
 40
0.0
176
     1
 90
        0
176
     1
290
     0
176
     1
290
     1
176
     1
290
     1
176
     1
290
     0
176
     1
290
     0
176
     1
290
     0
176
     1
290
     0
176
     1
290
     0
176
     1
290
     0
176
     1
 90
       50
176
     1
 40
0.0
176
     1
 40
1.0
176
     1
 90
        0
176
     1
 62
    18
420
        0
176
     1
 90
       50
176
     1
 90
        3
176
     1
 62
     5
420
      255
176
     1
290
     0
176
     1
 90
       50
176
     1
 90
       50
176
     1
 90
       50
176
     1
290
     0
176
     1
 90
       50
176
     1
 62
   256
176
     0
 40
1.0
176
     0
 90
        2
176
     1
  1
strokes_ogs.tif
176
     1
290
     0
176
     1
 40
1.0
176
     1
 40
1.0
176
     1
  0
VISUALSTYLE
  5
41
102
{ACAD_REACTORS
330
2A
102
}
330
2A
100
AcDbVisualStyle
  2
Shaded with edges
 70
    26
177
     3
291
     0
 70
    58
 90
        2
176
     1
 90
        2
176
     1
 90
        1
176
     1
 90
        2
176
     1
 40
0.6
176
     1
 40
30.0
176
     1
 62
     7
420
 16777215
176
     1
 90
        1
176
     1
 90
       10
176
     1
 62
     7
176
     1
 62
   257
176
     1
 90
        2
176
     1
 90
        1
176
     1
 40
1.0
176
     1
 90
        8
176
     1
 62
   257
176
     1
 40
1.0
176
     1
 90
        1
176
     1
 90
        6
176
     1
 90
        2
176
     1
 62
     7
176
     1
 90
        3
176
     1
 90
        0
176
     1
 90
        0
176
     1
290
     0
176
     1
 90
        5
176
     1
 40
0.0
176
     1
 90
        0
176
     1
290
     0
176
     1
290
     1
176
     1
290
     1
176
     1
290
     0
176
     1
290
     0
176
     1
290
     0
176
     1
290
     0
176
     1
290
     0
176
     1
290
     0
176
     1
 90
       50
176
     1
 40
0.0
176
     1
 40
1.0
176
     1
 90
        0
176
     1
 62
    18
420
        0
176
     1
 90
       50
176
     1
 90
        3
176
     1
 62
     5
420
      255
176
     1
290
     0
176
     1
 90
       50
176
     1
 90
       50
176
     1
 90
       50
176
     1
290
     0
176
     1
 90
       50
176
     1
 62
   256
176
     0
 40
1.0
176
     0
 90
        2
176
     1
  1
strokes_ogs.tif
176
     1
290
     0
176
     1
 40
1.0
176
     1
 40
1.0
176
     1
  0
VISUALSTYLE
  5
3E
102
{ACAD_REACTORS
330
2A
102
}
330
2A
100
AcDbVisualStyle
  2
Shades of Gray
 70
    23
177
     3
291
     0
 70
    58
 90
        2
176
     1
 90
        2
176
     1
 90
        3
176
     1
 90
        0
176
     1
 40
0.6
176
     1
 40
30.0
176
     1
 62
     7
420
 16777215
176
     1
 90
        2
176
     1
 90
        2
176
     1
 62
     7
176
     1
 62
     7
176
     1
 90
        1
176
     1
 90
        1
176
     1
 40
40.0
176
     1
 90
        8
176
     1
 62
     7
176
     1
 40
1.0
176
     1
 90
        1
176
     1
 90
        6
176
     1
 90
        2
176
     1
 62
     7
176
     1
 90
        3
176
     1
 90
        0
176
     1
 90
        0
176
     1
290
     0
176
     1
 90
        1
176
     1
 40
0.0
176
     1
 90
        0
176
     1
290
     0
176
     1
290
     1
176
     1
290
     1
176
     1
290
     0
176
     1
290
     0
176
     1
290
     0
176
     1
290
     0
176
     1
290
     0
176
     1
290
     0
176
     1
 90
       50
176
     1
 40
0.0
176
     1
 40
1.0
176
     1
 90
        0
176
     1
 62
    18
420
        0
176
     1
 90
       50
176
     1
 90
        3
176
     1
 62
     5
420
      255
176
     1
290
     0
176
     1
 90
       50
176
     1
 90
       50
176
     1
 90
       50
176
     1
290
     0
176
     1
 90
       50
176
     1
 62
   256
176
     0
 40
1.0
176
     0
 90
        2
176
     1
  1
strokes_ogs.tif
176
     1
290
     0
176
     1
 40
1.0
176
     1
 40
1.0
176
     1
  0
VISUALSTYLE
  5
3F
102
{ACAD_REACTORS
330
2A
102
}
330
2A
100
AcDbVisualStyle
  2
Sketchy
 70
    24
177
     3
291
     0
 70
    58
 90
        1
176
     1
 90
        2
176
     1
 90
        2
176
     1
 90
        0
176
     1
 40
0.6
176
     1
 40
30.0
176
     1
 62
     7
420
 16777215
176
     1
 90
        2
176
     1
 90
        2
176
     1
 62
     7
176
     1
 62
     7
176
     1
 90
        1
176
     1
 90
        1
176
     1
 40
40.0
176
     1
 90
       11
176
     1
 62
     7
176
     1
 40
1.0
176
     1
 90
        1
176
     1
 90
        6
176
     1
 90
        2
176
     1
 62
     7
176
     1
 90
        6
176
     1
 90
        0
176
     1
 90
        0
176
     1
290
     0
176
     1
 90
        1
176
     1
 40
0.0
176
     1
 90
        0
176
     1
290
     0
176
     1
290
     1
176
     1
290
     1
176
     1
290
     0
176
     1
290
     0
176
     1
290
     0
176
     1
290
     0
176
     1
290
     0
176
     1
290
     0
176
     1
 90
       50
176
     1
 40
0.0
176
     1
 40
1.0
176
     1
 90
        0
176
     1
 62
    18
420
        0
176
     1
 90
       50
176
     1
 90
        3
176
     1
 62
     5
420
      255
176
     1
290
     0
176
     1
 90
       50
176
     1
 90
       50
176
     1
 90
       50
176
     1
290
     0
176
     1
 90
       50
176
     1
 62
   256
176
     0
 40
1.0
176
     0
 90
        2
176
     1
  1
strokes_ogs.tif
176
     1
290
     0
176
     1
 40
1.0
176
     1
 40
1.0
176
     1
  0
VISUALSTYLE
  5
37
102
{ACAD_REACTORS
330
2A
102
}
330
2A
100
AcDbVisualStyle
  2
Thicken
 70
    13
177
     3
291
     1
 70
    58
 90
        2
176
     1
 90
        2
176
     1
 90
        0
176
     1
 90
        0
176
     1
 40
0.6
176
     1
 40
30.0
176
     1
 62
     7
420
 16777215
176
     1
 90
        1
176
     1
 90
        4
176
     1
 62
     7
176
     1
 62
   257
176
     1
 90
        1
176
     1
 90
        1
176
     1
 40
1.0
176
     1
 90
       12
176
     1
 62
     7
176
     1
 40
1.0
176
     1
 90
        1
176
     1
 90
        6
176
     1
 90
        2
176
     1
 62
     7
176
     1
 90
        5
176
     1
 90
        0
176
     1
 90
        0
176
     1
290
     0
176
     1
 90
        1
176
     1
 40
0.0
176
     1
 90
        0
176
     1
290
     0
176
     1
290
     1
176
     1
290
     1
176
     1
290
     0
176
     1
290
     0
176
     1
290
     0
176
     1
290
     0
176
     1
290
     0
176
     1
290
     0
176
     1
 90
       50
176
     1
 40
0.0
176
     1
 40
1.0
176
     1
 90
        0
176
     1
 62
    18
420
        0
176
     1
 90
       50
176
     1
 90
        3
176
     1
 62
     5
420
      255
176
     1
290
     0
176
     1
 90
       50
176
     1
 90
       50
176
     1
 90
       50
176
     1
290
     0
176
     1
 90
       50
176
     1
 62
   256
176
     0
 40
1.0
176
     0
 90
        2
176
     1
  1
strokes_ogs.tif
176
     1
290
     0
176
     1
 40
1.0
176
     1
 40
1.0
176
     1
  0
VISUALSTYLE
  5
30
102
{ACAD_REACTORS
330
2A
102
}
330
2A
100
AcDbVisualStyle
  2
Wireframe
 70
     5
177
     3
291
     0
 70
    58
 90
        0
176
     1
 90
        2
176
     1
 90
        0
176
     1
 90
        0
176
     1
 40
0.6
176
     1
 40
30.0
176
     1
 62
     7
420
 16777215
176
     1
 90
        1
176
     1
 90
        4
176
     1
 62
     7
176
     1
 62
   257
176
     1
 90
        1
176
     1
 90
        1
176
     1
 40
1.0
176
     1
 90
        0
176
     1
 62
   257
176
     1
 40
1.0
176
     1
 90
        1
176
     1
 90
        6
176
     1
 90
        2
176
     1
 62
     7
176
     1
 90
        3
176
     1
 90
        0
176
     1
 90
        0
176
     1
290
     0
176
     1
 90
        1
176
     1
 40
0.0
176
     1
 90
        0
176
     1
290
     0
176
     1
290
     1
176
     1
290
     1
176
     1
290
     0
176
     1
290
     0
176
     1
290
     0
176
     1
290
     0
176
     1
290
     0
176
     1
290
     0
176
     1
 90
       50
176
     1
 40
0.0
176
     1
 40
1.0
176
     1
 90
        0
176
     1
 62
    18
420
        0
176
     1
 90
       50
176
     1
 90
        3
176
     1
 62
     5
420
      255
176
     1
290
     0
176
     1
 90
       50
176
     1
 90
       50
176
     1
 90
       50
176
     1
290
     0
176
     1
 90
       50
176
     1
 62
   256
176
     0
 40
1.0
176
     0
 90
        2
176
     1
  1
strokes_ogs.tif
176
     1
290
     0
176
     1
 40
1.0
176
     1
 40
1.0
176
     1
  0
VISUALSTYLE
  5
40
102
{ACAD_REACTORS
330
2A
102
}
330
2A
100
AcDbVisualStyle
  2
X-Ray
 70
    25
177
     3
291
     0
 70
    58
 90
        2
176
     1
 90
        2
176
     1
 90
        1
176
     1
 90
        1
176
     1
 40
0.5
176
     1
 40
30.0
176
     1
 62
     7
420
 16777215
176
     1
 90
        1
176
     1
 90
        0
176
     1
 62
     7
176
     1
 62
   257
176
     1
 90
        1
176
     1
 90
        1
176
     1
 40
1.0
176
     1
 90
        8
176
     1
 62
     7
176
     1
 40
1.0
176
     1
 90
        1
176
     1
 90
        6
176
     1
 90
        2
176
     1
 62
     7
176
     1
 90
        3
176
     1
 90
        0
176
     1
 90
        0
176
     1
290
     0
176
     1
 90
       13
176
     1
 40
0.0
176
     1
 90
        0
176
     1
290
     0
176
     1
290
     1
176
     1
290
     1
176
     1
290
     0
176
     1
290
     0
176
     1
290
     0
176
     1
290
     0
176
     1
290
     0
176
     1
290
     0
176
     1
 90
       50
176
     1
 40
0.0
176
     1
 40
1.0
176
     1
 90
        0
176
     1
 62
    18
420
        0
176
     1
 90
       50
176
     1
 90
        3
176
     1
 62
     5
420
      255
176
     1
290
     0
176
     1
 90
       50
176
     1
 90
       50
176
     1
 90
       50
176
     1
290
     0
176
     1
 90
       50
176
     1
 62
   256
176
     0
 40
1.0
176
     0
 90
        2
176
     1
  1
strokes_ogs.tif
176
     1
290
     0
176
     1
 40
1.0
176
     1
 40
1.0
176
     1
  0
DICTIONARYVAR
  5
1D9
102
{ACAD_REACTORS
330
1D8
102
}
330
1D8
100
DictionaryVariables
280
     0
  1
1:1
  0
DICTIONARYVAR
  5
1DE
102
{ACAD_REACTORS
330
1D8
102
}
330
1D8
100
DictionaryVariables
280
     0
  1
Standard
  0
DICTIONARYVAR
  5
1DD
102
{ACAD_REACTORS
330
1D8
102
}
330
1D8
100
DictionaryVariables
280
     0
  1
Standard
  0
DICTIONARY
  5
1DA
330
6A
100
AcDbDictionary
280
     1
281
     1
  3
ACAD_ROUNDTRIP_2008_TABLESTYLE_CELLSTYLEMAP
360
1DB
  0
CELLSTYLEMAP
  5
1DB
102
{ACAD_REACTORS
330
1DA
102
}
330
1DA
100
AcDbCellStyleMap
 90
        3
300
CELLSTYLE
  1
TABLEFORMAT_BEGIN
 90
        5
170
     1
 91
        0
 92
    32768
 62
   257
 93
        1
300
CONTENTFORMAT
  1
CONTENTFORMAT_BEGIN
 90
        0
 91
        0
 92
        4
 93
        0
300

 40
0.0
140
1.0
 94
        5
 62
     0
340
11
144
6.0
309
CONTENTFORMAT_END
171
     1
301
MARGIN
  1
CELLMARGIN_BEGIN
 40
1.5
 40
1.5
 40
1.5
 40
1.5
 40
1.5
 40
1.5
309
CELLMARGIN_END
 94
        6
 95
        1
302
GRIDFORMAT
  1
GRIDFORMAT_BEGIN
 90
        0
 91
        1
 62
     0
 92
       -2
340
14
 93
        0
 40
0.045
309
GRIDFORMAT_END
 95
        2
302
GRIDFORMAT
  1
GRIDFORMAT_BEGIN
 90
        0
 91
        1
 62
     0
 92
       -2
340
14
 93
        0
 40
0.045
309
GRIDFORMAT_END
 95
        4
302
GRIDFORMAT
  1
GRIDFORMAT_BEGIN
 90
        0
 91
        1
 62
     0
 92
       -2
340
14
 93
        0
 40
0.045
309
GRIDFORMAT_END
 95
        8
302
GRIDFORMAT
  1
GRIDFORMAT_BEGIN
 90
        0
 91
        1
 62
     0
 92
       -2
340
14
 93
        0
 40
0.045
309
GRIDFORMAT_END
 95
       16
302
GRIDFORMAT
  1
GRIDFORMAT_BEGIN
 90
        0
 91
        1
 62
     0
 92
       -2
340
14
 93
        0
 40
0.045
309
GRIDFORMAT_END
 95
       32
302
GRIDFORMAT
  1
GRIDFORMAT_BEGIN
 90
        0
 91
        1
 62
     0
 92
       -2
340
14
 93
        0
 40
0.045
309
GRIDFORMAT_END
309
TABLEFORMAT_END
  1
CELLSTYLE_BEGIN
 90
        1
 91
        1
300
_TITLE
309
CELLSTYLE_END
300
CELLSTYLE
  1
TABLEFORMAT_BEGIN
 90
        5
170
     1
 91
        0
 92
        0
 62
   257
 93
        1
300
CONTENTFORMAT
  1
CONTENTFORMAT_BEGIN
 90
        0
 91
        0
 92
        4
 93
        0
300

 40
0.0
140
1.0
 94
        5
 62
     0
340
11
144
4.5
309
CONTENTFORMAT_END
171
     1
301
MARGIN
  1
CELLMARGIN_BEGIN
 40
1.5
 40
1.5
 40
1.5
 40
1.5
 40
1.5
 40
1.5
309
CELLMARGIN_END
 94
        6
 95
        1
302
GRIDFORMAT
  1
GRIDFORMAT_BEGIN
 90
        0
 91
        1
 62
     0
 92
       -2
340
14
 93
        0
 40
0.045
309
GRIDFORMAT_END
 95
        2
302
GRIDFORMAT
  1
GRIDFORMAT_BEGIN
 90
        0
 91
        1
 62
     0
 92
       -2
340
14
 93
        0
 40
0.045
309
GRIDFORMAT_END
 95
        4
302
GRIDFORMAT
  1
GRIDFORMAT_BEGIN
 90
        0
 91
        1
 62
     0
 92
       -2
340
14
 93
        0
 40
0.045
309
GRIDFORMAT_END
 95
        8
302
GRIDFORMAT
  1
GRIDFORMAT_BEGIN
 90
        0
 91
        1
 62
     0
 92
       -2
340
14
 93
        0
 40
0.045
309
GRIDFORMAT_END
 95
       16
302
GRIDFORMAT
  1
GRIDFORMAT_BEGIN
 90
        0
 91
        1
 62
     0
 92
       -2
340
14
 93
        0
 40
0.045
309
GRIDFORMAT_END
 95
       32
302
GRIDFORMAT
  1
GRIDFORMAT_BEGIN
 90
        0
 91
        1
 62
     0
 92
       -2
340
14
 93
        0
 40
0.045
309
GRIDFORMAT_END
309
TABLEFORMAT_END
  1
CELLSTYLE_BEGIN
 90
        2
 91
        1
300
_HEADER
309
CELLSTYLE_END
300
CELLSTYLE
  1
TABLEFORMAT_BEGIN
 90
        5
170
     1
 91
        0
 92
        0
 62
   257
 93
        1
300
CONTENTFORMAT
  1
CONTENTFORMAT_BEGIN
 90
        0
 91
        0
 92
        4
 93
        0
300

 40
0.0
140
1.0
 94
        2
 62
     0
340
11
144
4.5
309
CONTENTFORMAT_END
171
     1
301
MARGIN
  1
CELLMARGIN_BEGIN
 40
1.5
 40
1.5
 40
1.5
 40
1.5
 40
1.5
 40
1.5
309
CELLMARGIN_END
 94
        6
 95
        1
302
GRIDFORMAT
  1
GRIDFORMAT_BEGIN
 90
        0
 91
        1
 62
     0
 92
       -2
340
14
 93
        0
 40
0.045
309
GRIDFORMAT_END
 95
        2
302
GRIDFORMAT
  1
GRIDFORMAT_BEGIN
 90
        0
 91
        1
 62
     0
 92
       -2
340
14
 93
        0
 40
0.045
309
GRIDFORMAT_END
 95
        4
302
GRIDFORMAT
  1
GRIDFORMAT_BEGIN
 90
        0
 91
        1
 62
     0
 92
       -2
340
14
 93
        0
 40
0.045
309
GRIDFORMAT_END
 95
        8
302
GRIDFORMAT
  1
GRIDFORMAT_BEGIN
 90
        0
 91
        1
 62
     0
 92
       -2
340
14
 93
        0
 40
0.045
309
GRIDFORMAT_END
 95
       16
302
GRIDFORMAT
  1
GRIDFORMAT_BEGIN
 90
        0
 91
        1
 62
     0
 92
       -2
340
14
 93
        0
 40
0.045
309
GRIDFORMAT_END
 95
       32
302
GRIDFORMAT
  1
GRIDFORMAT_BEGIN
 90
        0
 91
        1
 62
     0
 92
       -2
340
14
 93
        0
 40
0.045
309
GRIDFORMAT_END
309
TABLEFORMAT_END
  1
CELLSTYLE_BEGIN
 90
        3
 91
        2
300
_DATA
309
CELLSTYLE_END
  0
ENDSEC
  0
EOF
