  0
SECTION
  2
HEADER
  9
$ACADVER
  1
AC1027
  9
$ACADMAINTVER
 70
   105
  9
$DWGCODEPAGE
  3
ANSI_1251
  9
$REQUIREDVERSIONS
160
                 0
  9
$INSBASE
 10
0.0
 20
0.0
 30
0.0
  9
$EXTMIN
 10
0.0
 20
0.0
 30
0.0
  9
$EXTMAX
 10
1420.0
 20
1297.0
 30
0.0
  9
$LIMMIN
 10
0.0
 20
0.0
  9
$LIMMAX
 10
1420.0
 20
1297.0
  9
$ORTHOMODE
 70
     0
  9
$REGENMODE
 70
     1
  9
$FILLMODE
 70
     1
  9
$QTEXTMODE
 70
     0
  9
$MIRRTEXT
 70
     1
  9
$LTSCALE
 40
1.0
  9
$ATTMODE
 70
     1
  9
$TEXTSIZE
 40
5.0
  9
$TRACEWID
 40
1.0
  9
$TEXTSTYLE
  7
Standard
  9
$CLAYER
  8
0
  9
$CELTYPE
  6
ByLayer
  9
$CECOLOR
 62
   256
  9
$CELTSCALE
 40
1.0
  9
$DISPSILH
 70
     0
  9
$DIMSCALE
 40
1.0
  9
$DIMASZ
 40
5.0
  9
$DIMEXO
 40
0.0
  9
$DIMDLI
 40
3.75
  9
$DIMRND
 40
0.0
  9
$DIMDLE
 40
0.0
  9
$DIMEXE
 40
1.0
  9
$DIMTP
 40
0.0
  9
$DIMTM
 40
0.0
  9
$DIMTXT
 40
3.5
  9
$DIMCEN
 40
2.5
  9
$DIMTSZ
 40
0.0
  9
$DIMTOL
 70
     0
  9
$DIMLIM
 70
     0
  9
$DIMTIH
 70
     1
  9
$DIMTOH
 70
     1
  9
$DIMSE1
 70
     0
  9
$DIMSE2
 70
     0
  9
$DIMTAD
 70
     1
  9
$DIMZIN
 70
     0
  9
$DIMBLK
  1

  9
$DIMASO
 70
     1
  9
$DIMSHO
 70
     1
  9
$DIMPOST
  1

  9
$DIMAPOST
  1

  9
$DIMALT
 70
     0
  9
$DIMALTD
 70
     3
  9
$DIMALTF
 40
0.0393700787
  9
$DIMLFAC
 40
1.0
  9
$DIMTOFL
 70
     1
  9
$DIMTVP
 40
0.0
  9
$DIMTIX
 70
     0
  9
$DIMSOXD
 70
     0
  9
$DIMSAH
 70
     0
  9
$DIMBLK1
  1

  9
$DIMBLK2
  1

  9
$DIMSTYLE
  2
ISO-25
  9
$DIMCLRD
 70
     0
  9
$DIMCLRE
 70
     0
  9
$DIMCLRT
 70
     0
  9
$DIMTFAC
 40
1.0
  9
$DIMGAP
 40
1.5
  9
$DIMJUST
 70
     0
  9
$DIMSD1
 70
     0
  9
$DIMSD2
 70
     0
  9
$DIMTOLJ
 70
     0
  9
$DIMTZIN
 70
     0
  9
$DIMALTZ
 70
     0
  9
$DIMALTTZ
 70
     0
  9
$DIMUPT
 70
     0
  9
$DIMDEC
 70
     1
  9
$DIMTDEC
 70
     1
  9
$DIMALTU
 70
     2
  9
$DIMALTTD
 70
     3
  9
$DIMTXSTY
  7
Standard
  9
$DIMAUNIT
 70
     0
  9
$DIMADEC
 70
     2
  9
$DIMALTRND
 40
0.0
  9
$DIMAZIN
 70
     0
  9
$DIMDSEP
 70
    44
  9
$DIMATFIT
 70
     3
  9
$DIMFRAC
 70
     0
  9
$DIMLDRBLK
  1

  9
$DIMLUNIT
 70
     2
  9
$DIMLWD
 70
    -2
  9
$DIMLWE
 70
    -2
  9
$DIMTMOVE
 70
     0
  9
$DIMFXL
 40
1.0
  9
$DIMFXLON
 70
     0
  9
$DIMJOGANG
 40
0.7853981634
  9
$DIMTFILL
 70
     0
  9
$DIMTFILLCLR
 70
     0
  9
$DIMARCSYM
 70
     0
  9
$DIMLTYPE
  6

  9
$DIMLTEX1
  6

  9
$DIMLTEX2
  6

  9
$DIMTXTDIRECTION
 70
     0
  9
$LUNITS
 70
     2
  9
$LUPREC
 70
     1
  9
$SKETCHINC
 40
1.0
  9
$FILLETRAD
 40
10.0
  9
$AUNITS
 70
     0
  9
$AUPREC
 70
     2
  9
$MENU
  1
.
  9
$ELEVATION
 40
0.0
  9
$PELEVATION
 40
0.0
  9
$THICKNESS
 40
0.0
  9
$LIMCHECK
 70
     0
  9
$CHAMFERA
 40
0.0
  9
$CHAMFERB
 40
0.0
  9
$CHAMFERC
 40
0.0
  9
$CHAMFERD
 40
0.0
  9
$SKPOLY
 70
     0
  9
$TDCREATE
 40
2459607.531123426
  9
$TDUCREATE
 40
2459607.406123426
  9
$TDUPDATE
 40
2459607.531123657
  9
$TDUUPDATE
 40
2459607.406123657
  9
$TDINDWG
 40
0.0000000116
  9
$TDUSRTIMER
 40
0.0000000116
  9
$USRTIMER
 70
     1
  9
$ANGBASE
 50
0.0
  9
$ANGDIR
 70
     0
  9
$PDMODE
 70
     0
  9
$PDSIZE
 40
-1.0
  9
$PLINEWID
 40
0.0
  9
$SPLFRAME
 70
     0
  9
$SPLINETYPE
 70
     6
  9
$SPLINESEGS
 70
     8
  9
$HANDSEED
  5
194
  9
$SURFTAB1
 70
     6
  9
$SURFTAB2
 70
     6
  9
$SURFTYPE
 70
     6
  9
$SURFU
 70
     6
  9
$SURFV
 70
     6
  9
$UCSBASE
  2

  9
$UCSNAME
  2

  9
$UCSORG
 10
0.0
 20
0.0
 30
0.0
  9
$UCSXDIR
 10
1.0
 20
0.0
 30
0.0
  9
$UCSYDIR
 10
0.0
 20
1.0
 30
0.0
  9
$UCSORTHOREF
  2

  9
$UCSORTHOVIEW
 70
     0
  9
$UCSORGTOP
 10
0.0
 20
0.0
 30
0.0
  9
$UCSORGBOTTOM
 10
0.0
 20
0.0
 30
0.0
  9
$UCSORGLEFT
 10
0.0
 20
0.0
 30
0.0
  9
$UCSORGRIGHT
 10
0.0
 20
0.0
 30
0.0
  9
$UCSORGFRONT
 10
0.0
 20
0.0
 30
0.0
  9
$UCSORGBACK
 10
0.0
 20
0.0
 30
0.0
  9
$PUCSBASE
  2

  9
$PUCSNAME
  2

  9
$PUCSORG
 10
0.0
 20
0.0
 30
0.0
  9
$PUCSXDIR
 10
1.0
 20
0.0
 30
0.0
  9
$PUCSYDIR
 10
0.0
 20
1.0
 30
0.0
  9
$PUCSORTHOREF
  2

  9
$PUCSORTHOVIEW
 70
     0
  9
$PUCSORGTOP
 10
0.0
 20
0.0
 30
0.0
  9
$PUCSORGBOTTOM
 10
0.0
 20
0.0
 30
0.0
  9
$PUCSORGLEFT
 10
0.0
 20
0.0
 30
0.0
  9
$PUCSORGRIGHT
 10
0.0
 20
0.0
 30
0.0
  9
$PUCSORGFRONT
 10
0.0
 20
0.0
 30
0.0
  9
$PUCSORGBACK
 10
0.0
 20
0.0
 30
0.0
  9
$USERI1
 70
     0
  9
$USERI2
 70
     0
  9
$USERI3
 70
     0
  9
$USERI4
 70
     0
  9
$USERI5
 70
     0
  9
$USERR1
 40
0.0
  9
$USERR2
 40
0.0
  9
$USERR3
 40
0.0
  9
$USERR4
 40
0.0
  9
$USERR5
 40
0.0
  9
$WORLDVIEW
 70
     1
  9
$SHADEDGE
 70
     3
  9
$SHADEDIF
 70
    70
  9
$TILEMODE
 70
     1
  9
$MAXACTVP
 70
    64
  9
$PINSBASE
 10
0.0
 20
0.0
 30
0.0
  9
$PLIMCHECK
 70
     0
  9
$PEXTMIN
 10
1.0000000000E+20
 20
1.0000000000E+20
 30
1.0000000000E+20
  9
$PEXTMAX
 10
-1.0000000000E+20
 20
-1.0000000000E+20
 30
-1.0000000000E+20
  9
$PLIMMIN
 10
0.0
 20
0.0
  9
$PLIMMAX
 10
420.0
 20
297.0
  9
$UNITMODE
 70
     0
  9
$VISRETAIN
 70
     1
  9
$PLINEGEN
 70
     0
  9
$PSLTSCALE
 70
     1
  9
$TREEDEPTH
 70
  3020
  9
$CMLSTYLE
  2
Standard
  9
$CMLJUST
 70
     0
  9
$CMLSCALE
 40
20.0
  9
$PROXYGRAPHICS
 70
     1
  9
$MEASUREMENT
 70
     1
  9
$CELWEIGHT
370
    -1
  9
$ENDCAPS
280
     0
  9
$JOINSTYLE
280
     0
  9
$LWDISPLAY
290
     1
  9
$INSUNITS
 70
     4
  9
$HYPERLINKBASE
  1

  9
$STYLESHEET
  1

  9
$XEDIT
290
     1
  9
$CEPSNTYPE
380
     0
  9
$PSTYLEMODE
290
     1
  9
$FINGERPRINTGUID
  2
{DFCCBF2F-DC0C-4FB5-91F5-31CEBCF967C1}
  9
$VERSIONGUID
  2
{FAEB1C32-E019-11D5-929B-00C0DF256EC4}
  9
$EXTNAMES
290
     1
  9
$PSVPSCALE
 40
0.0
  9
$OLESTARTUP
290
     0
  9
$SORTENTS
280
   127
  9
$INDEXCTL
280
     0
  9
$HIDETEXT
280
     1
  9
$XCLIPFRAME
280
     2
  9
$HALOGAP
280
     0
  9
$OBSCOLOR
 70
   257
  9
$OBSLTYPE
280
     0
  9
$INTERSECTIONDISPLAY
280
     0
  9
$INTERSECTIONCOLOR
 70
   257
  9
$DIMASSOC
280
     2
  9
$PROJECTNAME
  1

  9
$CAMERADISPLAY
290
     0
  9
$LENSLENGTH
 40
50.0
  9
$CAMERAHEIGHT
 40
0.0
  9
$STEPSPERSEC
 40
2.0
  9
$STEPSIZE
 40
6.0
  9
$3DDWFPREC
 40
2.0
  9
$PSOLWIDTH
 40
5.0
  9
$PSOLHEIGHT
 40
80.0
  9
$LOFTANG1
 40
1.5707963268
  9
$LOFTANG2
 40
1.5707963268
  9
$LOFTMAG1
 40
0.0
  9
$LOFTMAG2
 40
0.0
  9
$LOFTPARAM
 70
     7
  9
$LOFTNORMALS
280
     1
  9
$LATITUDE
 40
37.795
  9
$LONGITUDE
 40
-122.394
  9
$NORTHDIRECTION
 40
0.0
  9
$TIMEZONE
 70
 -8000
  9
$LIGHTGLYPHDISPLAY
280
     1
  9
$TILEMODELIGHTSYNCH
280
     1
  9
$CMATERIAL
347
44
  9
$SOLIDHIST
280
     0
  9
$SHOWHIST
280
     1
  9
$DWFFRAME
280
     2
  9
$DGNFRAME
280
     2
  9
$REALWORLDSCALE
290
     1
  9
$INTERFERECOLOR
 62
   256
  9
$CSHADOW
280
     0
  9
$SHADOWPLANELOCATION
 40
0.0
  0
ENDSEC
  0
SECTION
  2
CLASSES
  0
CLASS
  1
ACDBDICTIONARYWDFLT
  2
AcDbDictionaryWithDefault
  3
ObjectDBX Classes
 90
        0
 91
        4
280
     0
281
     0
  0
CLASS
  1
VISUALSTYLE
  2
AcDbVisualStyle
  3
ObjectDBX Classes
 90
     4095
 91
        4
280
     0
281
     0
  0
CLASS
  1
MATERIAL
  2
AcDbMaterial
  3
ObjectDBX Classes
 90
     1153
 91
        4
280
     0
281
     0
  0
CLASS
  1
SCALE
  2
AcDbScale
  3
ObjectDBX Classes
 90
     1153
 91
        4
280
     0
281
     0
  0
CLASS
  1
TABLESTYLE
  2
AcDbTableStyle
  3
ObjectDBX Classes
 90
     4095
 91
        4
280
     0
281
     0
  0
CLASS
  1
MLEADERSTYLE
  2
AcDbMLeaderStyle
  3
ACDB_MLEADERSTYLE_CLASS
 90
     4095
 91
        4
280
     0
281
     0
  0
CLASS
  1
SUN
  2
AcDbSun
  3
SCENEOE
 90
     1153
 91
        4
280
     0
281
     0
  0
CLASS
  1
DICTIONARYVAR
  2
AcDbDictionaryVar
  3
ObjectDBX Classes
 90
        0
 91
        4
280
     0
281
     0
  0
CLASS
  1
CELLSTYLEMAP
  2
AcDbCellStyleMap
  3
ObjectDBX Classes
 90
     1152
 91
        4
280
     0
281
     0
  0
ENDSEC
  0
SECTION
  2
TABLES
  0
TABLE
  2
VPORT
  5
8
330
0
100
AcDbSymbolTable
 70
     1
  0
VPORT
  5
29
330
8
100
AcDbSymbolTableRecord
100
AcDbViewportTableRecord
  2
*Active
 70
     0
 10
0.0
 20
0.0
 11
1.0
 21
1.0
 12
710.0
 22
648.5
 13
0.0
 23
0.0
 14
10.0
 24
10.0
 15
10.0
 25
10.0
 16
0.0
 26
0.0
 36
1.0
 17
0.0
 27
0.0
 37
0.0
 40
1297.0
 41
1.0948342328
 42
50.0
 43
0.0
 44
0.0
 50
0.0
 51
0.0
 71
     0
 72
  2000
 73
     1
 74
     3
 75
     0
 76
     0
 77
     0
 78
     0
281
     0
 65
     1
110
0.0
120
0.0
130
0.0
111
1.0
121
0.0
131
0.0
112
0.0
122
1.0
132
0.0
 79
     0
146
0.0
348
2F
 60
     3
 61
     5
292
     1
282
     1
141
0.0
142
0.0
 63
   250
361
6D
  0
ENDTAB
  0
TABLE
  2
LTYPE
  5
5
330
0
100
AcDbSymbolTable
 70
     8
  0
LTYPE
  5
14
330
5
100
AcDbSymbolTableRecord
100
AcDbLinetypeTableRecord
  2
ByBlock
 70
     0
  3

 72
    65
 73
     0
 40
0.0
  0
LTYPE
  5
15
330
5
100
AcDbSymbolTableRecord
100
AcDbLinetypeTableRecord
  2
ByLayer
 70
     0
  3

 72
    65
 73
     0
 40
0.0
  0
LTYPE
  5
16
330
5
100
AcDbSymbolTableRecord
100
AcDbLinetypeTableRecord
  2
Continuous
 70
     0
  3
Solid line
 72
    65
 73
     0
 40
0.0
  0
LTYPE
  5
6E
330
5
100
AcDbSymbolTableRecord
100
AcDbLinetypeTableRecord
  2
SLD-Сплошная
 70
     0
  3
SolidWorks Line Style
 72
    65
 73
     0
 40
0.0
  0
LTYPE
  5
6F
330
5
100
AcDbSymbolTableRecord
100
AcDbLinetypeTableRecord
  2
SLD-Штриховая
 70
     0
  3
SolidWorks Line Style
 72
    65
 73
     2
 40
1.905
 49
1.27
 74
     0
 49
-0.635
 74
     0
  0
LTYPE
  5
70
330
5
100
AcDbSymbolTableRecord
100
AcDbLinetypeTableRecord
  2
SLD-Штрихпункт.-с-двумя-точками
 70
     0
  3
SolidWorks Line Style
 72
    65
 73
     6
 40
12.7
 49
6.35
 74
     0
 49
-1.27
 74
     0
 49
1.27
 74
     0
 49
-1.27
 74
     0
 49
1.27
 74
     0
 49
-1.27
 74
     0
  0
LTYPE
  5
71
330
5
100
AcDbSymbolTableRecord
100
AcDbLinetypeTableRecord
  2
SLD-Штрихпункт.-утолщ.
 70
     0
  3
SolidWorks Line Style
 72
    65
 73
     4
 40
10.16
 49
6.35
 74
     0
 49
-1.27
 74
     0
 49
1.27
 74
     0
 49
-1.27
 74
     0
  0
LTYPE
  5
72
330
5
100
AcDbSymbolTableRecord
100
AcDbLinetypeTableRecord
  2
SLD-Осевая
 70
     0
  3
SolidWorks Line Style
 72
    65
 73
     4
 40
19.05
 49
15.24
 74
     0
 49
-1.27
 74
     0
 49
1.27
 74
     0
 49
-1.27
 74
     0
  0
LTYPE
  5
73
330
5
100
AcDbSymbolTableRecord
100
AcDbLinetypeTableRecord
  2
SLD-Сшитая
 70
     0
  3
SolidWorks Line Style
 72
    65
 73
     2
 40
0.635
 49
0.0
 74
     0
 49
-0.635
 74
     0
  0
LTYPE
  5
74
330
5
100
AcDbSymbolTableRecord
100
AcDbLinetypeTableRecord
  2
SLD-Тонкая-Толстая
 70
     0
  3
SolidWorks Line Style
 72
    65
 73
     2
 40
5.080508
 49
0.000508
 74
     0
 49
-5.08
 74
     0
  0
ENDTAB
  0
TABLE
  2
LAYER
  5
2
330
0
100
AcDbSymbolTable
 70
     5
  0
LAYER
  5
10
330
2
100
AcDbSymbolTableRecord
100
AcDbLayerTableRecord
  2
0
 70
     0
 62
     7
  6
Continuous
370
    -3
390
F
347
46
348
0
  0
LAYER
  5
75
330
2
100
AcDbSymbolTableRecord
100
AcDbLayerTableRecord
  2
ОСНОВНОЙ
 70
     0
 62
   236
  6
SLD-Сплошная
370
    35
390
F
347
46
348
0
  0
LAYER
  5
76
330
2
100
AcDbSymbolTableRecord
100
AcDbLayerTableRecord
  2
HELP
 70
     0
 62
   -57
  6
SLD-Сплошная
290
     0
370
    -3
390
F
347
46
348
0
  0
LAYER
  5
77
330
2
100
AcDbSymbolTableRecord
100
AcDbLayerTableRecord
  2
ТЕКСТ
 70
     0
 62
   150
  6
SLD-Сплошная
370
    -3
390
F
347
46
348
0
  0
LAYER
  5
78
330
2
100
AcDbSymbolTableRecord
100
AcDbLayerTableRecord
  2
ТОНКИЙ
 70
     0
 62
   174
  6
SLD-Сплошная
370
    -3
390
F
347
46
348
0
  0
ENDTAB
  0
TABLE
  2
STYLE
  5
3
330
0
100
AcDbSymbolTable
 70
     1
  0
STYLE
  5
11
330
3
100
AcDbSymbolTableRecord
100
AcDbTextStyleTableRecord
  2
Standard
 70
     0
 40
0.0
 41
1.0
 50
0.0
 71
     0
 42
5.0
  3
txt
  4

  0
ENDTAB
  0
TABLE
  2
VIEW
  5
6
330
0
100
AcDbSymbolTable
 70
     0
  0
ENDTAB
  0
TABLE
  2
UCS
  5
7
330
0
100
AcDbSymbolTable
 70
     0
  0
ENDTAB
  0
TABLE
  2
APPID
  5
9
330
0
100
AcDbSymbolTable
 70
     1
  0
APPID
  5
12
330
9
100
AcDbSymbolTableRecord
100
AcDbRegAppTableRecord
  2
ACAD
 70
     0
  0
ENDTAB
  0
TABLE
  2
DIMSTYLE
  5
A
330
0
100
AcDbSymbolTable
 70
     1
100
AcDbDimStyleTable
  0
DIMSTYLE
105
27
330
A
100
AcDbSymbolTableRecord
100
AcDbDimStyleTableRecord
  2
ISO-25
 70
     0
 41
2.5
 42
0.625
 43
3.75
 44
1.25
 73
     0
 74
     0
 77
     1
 78
     8
140
2.5
141
2.5
143
0.0393700787
147
0.625
171
     3
172
     1
178
     0
271
     2
272
     2
274
     3
278
    44
283
     0
284
     8
340
11
  0
ENDTAB
  0
TABLE
  2
BLOCK_RECORD
  5
1
330
0
100
AcDbSymbolTable
 70
     1
  0
BLOCK_RECORD
  5
1F
330
1
100
AcDbSymbolTableRecord
100
AcDbBlockTableRecord
  2
*Model_Space
340
22
 70
     0
280
     1
281
     0
  0
BLOCK_RECORD
  5
1B
330
1
100
AcDbSymbolTableRecord
100
AcDbBlockTableRecord
  2
*Paper_Space
340
1E
 70
     0
280
     1
281
     0
  0
BLOCK_RECORD
  5
23
330
1
100
AcDbSymbolTableRecord
100
AcDbBlockTableRecord
  2
*Paper_Space0
340
26
 70
     0
280
     1
281
     0
  0
ENDTAB
  0
ENDSEC
  0
SECTION
  2
BLOCKS
  0
BLOCK
  5
20
330
1F
100
AcDbEntity
  8
0
100
AcDbBlockBegin
  2
*Model_Space
 70
     0
 10
0.0
 20
0.0
 30
0.0
  3
*Model_Space
  1

  0
ENDBLK
  5
21
330
1F
100
AcDbEntity
  8
0
100
AcDbBlockEnd
  0
BLOCK
  5
1C
330
1B
100
AcDbEntity
 67
     1
  8
0
100
AcDbBlockBegin
  2
*Paper_Space
 70
     0
 10
0.0
 20
0.0
 30
0.0
  3
*Paper_Space
  1

  0
ENDBLK
  5
1D
330
1B
100
AcDbEntity
 67
     1
  8
0
100
AcDbBlockEnd
  0
BLOCK
  5
24
330
23
100
AcDbEntity
  8
0
100
AcDbBlockBegin
  2
*Paper_Space0
 70
     0
 10
0.0
 20
0.0
 30
0.0
  3
*Paper_Space0
  1

  0
ENDBLK
  5
25
330
23
100
AcDbEntity
  8
0
100
AcDbBlockEnd
  0
ENDSEC
  0
SECTION
  2
ENTITIES
  0
CIRCLE
  5
79
330
1F
100
AcDbEntity
  8
0
  6
SLD-Сплошная
 62
     7
370
    35
100
AcDbCircle
 10
-495.2025
 20
256.7975
 30
0.0
 40
2.049999999999983
  0
CIRCLE
  5
7A
330
1F
100
AcDbEntity
  8
0
  6
SLD-Сплошная
 62
     7
370
    35
100
AcDbCircle
 10
256.7975
 20
-495.2025
 30
0.0
 40
2.050000000000011
  0
LINE
  5
7B
330
1F
100
AcDbEntity
  8
0
  6
SLD-Сплошная
 62
     7
370
    35
100
AcDbLine
 10
3.3975
 20
-480.2025
 30
0.0
 11
3.3975
 21
-293.2025
 31
0.0
  0
LINE
  5
7C
330
1F
100
AcDbEntity
  8
0
  6
SLD-Сплошная
 62
     7
370
    35
100
AcDbLine
 10
5.5975
 20
-293.2025
 30
0.0
 11
3.3975
 21
-293.2025
 31
0.0
  0
LINE
  5
7D
330
1F
100
AcDbEntity
  8
0
  6
SLD-Сплошная
 62
     7
370
    35
100
AcDbLine
 10
5.5975
 20
-480.2025
 30
0.0
 11
3.3975
 21
-480.2025
 31
0.0
  0
ARC
  5
7E
330
1F
100
AcDbEntity
  8
0
  6
SLD-Сплошная
 62
     7
370
    35
100
AcDbCircle
 10
12.7975
 20
-505.2025
 30
0.0
 40
5.000000000000114
100
AcDbArc
 50
180.0
 51
270.0
  0
LINE
  5
7F
330
1F
100
AcDbEntity
  8
0
  6
SLD-Сплошная
 62
     7
370
    35
100
AcDbLine
 10
7.7975
 20
-480.2025
 30
0.0
 11
7.7975
 21
-505.2025
 31
0.0
  0
LINE
  5
80
330
1F
100
AcDbEntity
  8
0
  6
SLD-Сплошная
 62
     7
370
    35
100
AcDbLine
 10
7.797500007
 20
-293.2024959279
 30
0.0
 11
5.5975
 21
-293.2025
 31
0.0
  0
ARC
  5
81
330
1F
100
AcDbEntity
  8
0
  6
SLD-Сплошная
 62
     7
370
    35
100
AcDbCircle
 10
7.8022324921
 20
-290.4525
 30
0.0
 40
2.750000000000023
100
AcDbArc
 50
269.9013994338
 51
91.1454879738
  0
ARC
  5
82
330
1F
100
AcDbEntity
  8
0
  6
SLD-Сплошная
 62
     7
370
    35
100
AcDbCircle
 10
-293.2025
 20
-293.2025
 30
0.0
 40
301.0
100
AcDbArc
 50
1.0468864864
 51
88.9531135136
  0
ARC
  5
83
330
1F
100
AcDbEntity
  8
0
  6
SLD-Сплошная
 62
     7
370
    35
100
AcDbCircle
 10
-290.4525
 20
7.8022324921
 30
0.0
 40
2.750004072084833
100
AcDbArc
 50
358.8545120262
 51
180.0986005662
  0
LINE
  5
84
330
1F
100
AcDbEntity
  8
0
  6
SLD-Сплошная
 62
     7
370
    35
100
AcDbLine
 10
-293.2025
 20
5.5975
 30
0.0
 11
-293.2025
 21
7.7975
 31
0.0
  0
LINE
  5
85
330
1F
100
AcDbEntity
  8
0
  6
SLD-Сплошная
 62
     7
370
    35
100
AcDbLine
 10
-480.2025
 20
7.7975
 30
0.0
 11
-505.2025
 21
7.7975
 31
0.0
  0
ARC
  5
86
330
1F
100
AcDbEntity
  8
0
  6
SLD-Сплошная
 62
     7
370
    35
100
AcDbCircle
 10
-505.2025
 20
12.7975
 30
0.0
 40
5.000000000000005
100
AcDbArc
 50
180.0
 51
270.0
  0
LINE
  5
87
330
1F
100
AcDbEntity
  8
0
  6
SLD-Сплошная
 62
     7
370
    35
100
AcDbLine
 10
-510.2025
 20
500.7975
 30
0.0
 11
-510.2025
 21
12.7975
 31
0.0
  0
ARC
  5
88
330
1F
100
AcDbEntity
  8
0
  6
SLD-Сплошная
 62
     7
370
    35
100
AcDbCircle
 10
-505.2025
 20
500.7975
 30
0.0
 40
4.999999999999886
100
AcDbArc
 50
90.0
 51
180.0
  0
LINE
  5
89
330
1F
100
AcDbEntity
  8
0
  6
SLD-Сплошная
 62
     7
370
    35
100
AcDbLine
 10
-505.2025
 20
505.7975
 30
0.0
 11
-480.2025
 21
505.7975
 31
0.0
  0
LINE
  5
8A
330
1F
100
AcDbEntity
  8
0
  6
SLD-Сплошная
 62
     7
370
    35
100
AcDbLine
 10
-480.2025
 20
505.7975
 30
0.0
 11
-480.2025
 21
507.9975
 31
0.0
  0
LINE
  5
8B
330
1F
100
AcDbEntity
  8
0
  6
SLD-Сплошная
 62
     7
370
    35
100
AcDbLine
 10
-293.2025
 20
505.7975
 30
0.0
 11
-293.2025
 21
507.9975
 31
0.0
  0
ARC
  5
8C
330
1F
100
AcDbEntity
  8
0
  6
SLD-Сплошная
 62
     7
370
    35
100
AcDbCircle
 10
-290.4525
 20
505.7927675079
 30
0.0
 40
2.750004072084548
100
AcDbArc
 50
179.9013994338
 51
359.7041984475
  0
ARC
  5
8D
330
1F
100
AcDbEntity
  8
0
  6
SLD-Сплошная
 62
     7
370
    35
100
AcDbCircle
 10
-293.2025
 20
-293.2025
 30
0.0
 40
799.0000000000003
100
AcDbArc
 50
0.3944019727
 51
89.6055980273
  0
ARC
  5
8E
330
1F
100
AcDbEntity
  8
0
  6
SLD-Сплошная
 62
     7
370
    35
100
AcDbCircle
 10
505.7927675079
 20
-290.4525
 30
0.0
 40
2.750004072084776
100
AcDbArc
 50
90.2958015525
 51
270.0986005662
  0
LINE
  5
8F
330
1F
100
AcDbEntity
  8
0
  6
SLD-Сплошная
 62
     7
370
    35
100
AcDbLine
 10
507.9975
 20
-293.2025
 30
0.0
 11
505.7975
 21
-293.2025
 31
0.0
  0
LINE
  5
90
330
1F
100
AcDbEntity
  8
0
  6
SLD-Сплошная
 62
     7
370
    35
100
AcDbLine
 10
505.7975
 20
-480.2025
 30
0.0
 11
507.9975
 21
-480.2025
 31
0.0
  0
LINE
  5
91
330
1F
100
AcDbEntity
  8
0
  6
SLD-Сплошная
 62
     7
370
    35
100
AcDbLine
 10
505.7975
 20
-505.2025
 30
0.0
 11
505.7975
 21
-480.2025
 31
0.0
  0
ARC
  5
92
330
1F
100
AcDbEntity
  8
0
  6
SLD-Сплошная
 62
     7
370
    35
100
AcDbCircle
 10
500.7975
 20
-505.2025
 30
0.0
 40
5.0
100
AcDbArc
 50
270.0
 51
0.0
  0
LINE
  5
93
330
1F
100
AcDbEntity
  8
0
  6
SLD-Сплошная
 62
     7
370
    35
100
AcDbLine
 10
12.7975
 20
-510.2025
 30
0.0
 11
500.7975
 21
-510.2025
 31
0.0
  0
LINE
  5
94
330
1F
100
AcDbEntity
  8
0
  6
SLD-Сплошная
 62
     7
370
    35
100
AcDbLine
 10
5.5975
 20
-480.2025
 30
0.0
 11
7.7975
 21
-480.2025
 31
0.0
  0
LINE
  5
95
330
1F
100
AcDbEntity
  8
0
  6
SLD-Сплошная
 62
     7
370
    35
100
AcDbLine
 10
-480.2025
 20
5.5975
 30
0.0
 11
-480.2025
 21
7.7975
 31
0.0
  0
LINE
  5
96
330
1F
100
AcDbEntity
  8
0
  6
SLD-Сплошная
 62
     7
370
    35
100
AcDbLine
 10
-293.2025
 20
5.5975
 30
0.0
 11
-293.2025
 21
3.3975
 31
0.0
  0
LINE
  5
97
330
1F
100
AcDbEntity
  8
0
  6
SLD-Сплошная
 62
     7
370
    35
100
AcDbLine
 10
-480.2025
 20
3.3975
 30
0.0
 11
-293.2025
 21
3.3975
 31
0.0
  0
LINE
  5
98
330
1F
100
AcDbEntity
  8
0
  6
SLD-Сплошная
 62
     7
370
    35
100
AcDbLine
 10
-480.2025
 20
5.5975
 30
0.0
 11
-480.2025
 21
3.3975
 31
0.0
  0
LINE
  5
99
330
1F
100
AcDbEntity
  8
0
  6
SLD-Сплошная
 62
     7
370
    35
100
AcDbLine
 10
-480.2025
 20
510.1975
 30
0.0
 11
-293.2025
 21
510.1975
 31
0.0
  0
LINE
  5
9A
330
1F
100
AcDbEntity
  8
0
  6
SLD-Сплошная
 62
     7
370
    35
100
AcDbLine
 10
-293.2025
 20
507.9975
 30
0.0
 11
-293.2025
 21
510.1975
 31
0.0
  0
SPLINE
  5
9B
330
1F
100
AcDbEntity
  8
0
  6
SLD-Сплошная
 62
     7
370
    35
100
AcDbSpline
210
0.0
220
0.0
230
1.0
 70
    24
 71
     3
 72
    11
 73
     7
 74
     0
 42
0.000000001
 43
0.00000001
 40
0.0
 40
0.0
 40
0.0
 40
0.0
 40
0.2503774388169692
 40
0.5000629929313578
 40
0.7499746440995666
 40
1.0
 40
1.0
 40
1.0
 40
1.0
 10
-480.2024999999951
 20
508.537568071721
 30
0.0
 10
-480.202499999995
 20
508.4932212322855
 30
0.0
 10
-480.2024999999948
 20
508.4046500999979
 30
0.0
 10
-480.2024999999946
 20
508.269758950006
 30
0.0
 10
-480.2024999999947
 20
508.1338746883249
 30
0.0
 10
-480.2024999999948
 20
508.0429651215419
 30
0.0
 10
-480.2024999999948
 20
507.9974999999999
 30
0.0
  0
LINE
  5
9C
330
1F
100
AcDbEntity
  8
0
  6
SLD-Сплошная
 62
     7
370
    35
100
AcDbLine
 10
-480.2025
 20
508.9327982785
 30
0.0
 11
-480.2025
 21
508.5375680717
 31
0.0
  0
SPLINE
  5
9D
330
1F
100
AcDbEntity
  8
0
  6
SLD-Сплошная
 62
     7
370
    35
100
AcDbSpline
210
0.0
220
0.0
230
1.0
 70
    24
 71
     3
 72
    17
 73
    13
 74
     0
 42
0.000000001
 43
0.00000001
 40
0.0
 40
0.0
 40
0.0
 40
0.0
 40
0.062906968580654
 40
0.1254057023369704
 40
0.1877206706526476
 40
0.2500783274490275
 40
0.3749241914104302
 40
0.5000518229140737
 40
0.6249063797877741
 40
0.7500252981880202
 40
0.8749473691587373
 40
1.0
 40
1.0
 40
1.0
 40
1.0
 10
-480.2025000000119
 20
510.1674948674775
 30
0.0
 10
-480.2025000000114
 20
510.1593444627801
 30
0.0
 10
-480.2025000000106
 20
510.1430965454439
 30
0.0
 10
-480.2025000000092
 20
510.1089821133025
 30
0.0
 10
-480.2025000000081
 20
510.0678401073189
 30
0.0
 10
-480.2025000000064
 20
510.0027711155865
 30
0.0
 10
-480.2025000000045
 20
509.9029788648293
 30
0.0
 10
-480.2025000000023
 20
509.7551881304221
 30
0.0
 10
-480.2025000000004
 20
509.5820050303521
 30
0.0
 10
-480.2024999999986
 20
509.3853137330116
 30
0.0
 10
-480.2024999999973
 20
509.1694956050161
 30
0.0
 10
-480.2024999999965
 20
509.011725053631
 30
0.0
 10
-480.2024999999962
 20
508.932798576764
 30
0.0
  0
LINE
  5
9E
330
1F
100
AcDbEntity
  8
0
  6
SLD-Сплошная
 62
     7
370
    35
100
AcDbLine
 10
-480.2025
 20
510.1899858846
 30
0.0
 11
-480.2025
 21
510.1674948675
 31
0.0
  0
SPLINE
  5
9F
330
1F
100
AcDbEntity
  8
0
  6
SLD-Сплошная
 62
     7
370
    35
100
AcDbSpline
210
0.0
220
0.0
230
1.0
 70
    24
 71
     3
 72
     9
 73
     5
 74
     0
 42
0.000000001
 43
0.00000001
 40
0.0
 40
0.0
 40
0.0
 40
0.0
 40
0.5834607517538837
 40
1.0
 40
1.0
 40
1.0
 40
1.0
 10
-480.2025000000156
 20
510.1975000000001
 30
0.0
 10
-480.2025000000152
 20
510.1966382215155
 30
0.0
 10
-480.2025000000146
 20
510.195161209597
 30
0.0
 10
-480.202500000014
 20
510.1915077104147
 30
0.0
 10
-480.2025000000137
 20
510.1899858846117
 30
0.0
  0
LINE
  5
A0
330
1F
100
AcDbEntity
  8
0
  6
SLD-Сплошная
 62
     7
370
    35
100
AcDbLine
 10
507.9975
 20
-293.2025
 30
0.0
 11
510.1975
 21
-293.2025
 31
0.0
  0
LINE
  5
A1
330
1F
100
AcDbEntity
  8
0
  6
SLD-Сплошная
 62
     7
370
    35
100
AcDbLine
 10
510.1975
 20
-480.2025
 30
0.0
 11
510.1975
 21
-293.2025
 31
0.0
  0
LINE
  5
A2
330
1F
100
AcDbEntity
  8
0
  6
SLD-Сплошная
 62
     7
370
    35
100
AcDbLine
 10
508.5375680716
 20
-480.2025
 30
0.0
 11
508.9327982774
 21
-480.2025
 31
0.0
  0
SPLINE
  5
A3
330
1F
100
AcDbEntity
  8
0
  6
SLD-Сплошная
 62
     7
370
    35
100
AcDbSpline
210
0.0
220
0.0
230
1.0
 70
    24
 71
     3
 72
    10
 73
     6
 74
     0
 42
0.000000001
 43
0.00000001
 40
0.0
 40
0.0
 40
0.0
 40
0.0
 40
0.5
 40
0.5
 40
1.0
 40
1.0
 40
1.0
 40
1.0
 10
508.9327982774401
 20
-480.2025
 30
0.0
 10
509.2535072775034
 20
-480.2025
 30
0.0
 10
509.5368454075917
 20
-480.2025
 30
0.0
 10
509.9648715554129
 20
-480.2025
 30
0.0
 10
510.1091750846034
 20
-480.2025
 30
0.0
 10
510.1674948675041
 20
-480.2025
 30
0.0
  0
LINE
  5
A4
330
1F
100
AcDbEntity
  8
0
  6
SLD-Сплошная
 62
     7
370
    35
100
AcDbLine
 10
510.1674948675
 20
-480.2025
 30
0.0
 11
510.1899858846
 21
-480.2025
 31
0.0
  0
SPLINE
  5
A5
330
1F
100
AcDbEntity
  8
0
  6
SLD-Сплошная
 62
     7
370
    35
100
AcDbSpline
210
0.0
220
0.0
230
1.0
 70
    24
 71
     3
 72
     8
 73
     4
 74
     0
 42
0.000000001
 43
0.00000001
 40
0.0
 40
0.0
 40
0.0
 40
0.0
 40
1.0
 40
1.0
 40
1.0
 40
1.0
 10
510.1899858846184
 20
-480.2025000000001
 30
0.0
 10
510.1949924413103
 20
-480.2025000000001
 30
0.0
 10
510.1975
 20
-480.2025000000001
 30
0.0
 10
510.1975
 20
-480.2025
 30
0.0
  0
SPLINE
  5
A6
330
1F
100
AcDbEntity
  8
0
  6
SLD-Сплошная
 62
     7
370
    35
100
AcDbSpline
210
0.0
220
0.0
230
1.0
 70
    24
 71
     3
 72
     8
 73
     4
 74
     0
 42
0.000000001
 43
0.00000001
 40
0.0
 40
0.0
 40
0.0
 40
0.0
 40
1.0
 40
1.0
 40
1.0
 40
1.0
 10
507.9975
 20
-480.2025
 30
0.0
 10
508.1793816799149
 20
-480.2025
 30
0.0
 10
508.3612519227422
 20
-480.2025000000001
 30
0.0
 10
508.5375680716228
 20
-480.2025000000001
 30
0.0
  0
LINE
  5
A7
330
1F
100
AcDbEntity
  8
0
  6
SLD-Сплошная
 62
     7
370
    35
100
AcDbLine
 10
505.7975
 20
-480.2025
 30
0.0
 11
506.004951294
 21
-480.2025
 31
0.0
  0
ARC
  5
A8
330
1F
100
AcDbEntity
  8
0
  6
SLD-Сплошная
 62
     7
370
    18
100
AcDbCircle
 10
-495.2025
 20
256.7975
 30
0.0
 40
2.256499999999993
100
AcDbArc
 50
255.0
 51
195.0
  0
ARC
  5
A9
330
1F
100
AcDbEntity
  8
0
  6
SLD-Сплошная
 62
     7
370
    18
100
AcDbCircle
 10
256.7975
 20
-495.2025
 30
0.0
 40
2.256500000000033
100
AcDbArc
 50
255.0
 51
195.0
  0
ARC
  5
AA
330
1F
100
AcDbEntity
  8
0
  6
SLD-Сплошная
 62
     7
370
    35
100
AcDbCircle
 10
591.8866486347
 20
248.0519155877
 30
0.0
 40
0.3000000000000748
100
AcDbArc
 50
0.0
 51
45.0
  0
ARC
  5
AB
330
1F
100
AcDbEntity
  8
0
  6
SLD-Сплошная
 62
     7
370
    35
100
AcDbCircle
 10
591.8866486347
 20
265.5430844123
 30
0.0
 40
0.3000000000000748
100
AcDbArc
 50
315.0
 51
0.0
  0
LINE
  5
AC
330
1F
100
AcDbEntity
  8
0
  6
SLD-Сплошная
 62
     7
370
    35
100
AcDbLine
 10
592.0987806691
 20
248.2640476221
 30
0.0
 11
591.6259884629
 21
248.7368398282
 31
0.0
  0
LINE
  5
AD
330
1F
100
AcDbEntity
  8
0
  6
SLD-Сплошная
 62
     7
370
    35
100
AcDbLine
 10
591.6259884629
 20
264.8581601718
 30
0.0
 11
592.0987806691
 21
265.3309523779
 31
0.0
  0
ARC
  5
AE
330
1F
100
AcDbEntity
  8
0
  6
SLD-Сплошная
 62
     7
370
    35
100
AcDbCircle
 10
592.6866486347
 20
263.7975
 30
0.0
 40
1.500000000000012
100
AcDbArc
 50
135.0
 51
180.0
  0
ARC
  5
AF
330
1F
100
AcDbEntity
  8
0
  6
SLD-Сплошная
 62
     7
370
    35
100
AcDbCircle
 10
592.6866486347
 20
249.7975
 30
0.0
 40
1.5
100
AcDbArc
 50
180.0
 51
225.0
  0
LINE
  5
B0
330
1F
100
AcDbEntity
  8
0
  6
SLD-Сплошная
 62
     7
370
    35
100
AcDbLine
 10
593.3866486348
 20
260.0475
 30
0.0
 11
593.9866486349
 21
260.0475
 31
0.0
  0
LINE
  5
B1
330
1F
100
AcDbEntity
  8
0
  6
SLD-Сплошная
 62
     7
370
    35
100
AcDbLine
 10
593.9866486349
 20
253.5475
 30
0.0
 11
593.3866486348
 21
253.5475
 31
0.0
  0
ARC
  5
B2
330
1F
100
AcDbEntity
  8
0
  6
SLD-Сплошная
 62
     7
370
    35
100
AcDbCircle
 10
591.8866486347
 20
-503.9480844123
 30
0.0
 40
0.3000000000000748
100
AcDbArc
 50
0.0
 51
45.0
  0
ARC
  5
B3
330
1F
100
AcDbEntity
  8
0
  6
SLD-Сплошная
 62
     7
370
    35
100
AcDbCircle
 10
591.8866486347
 20
-486.4569155877
 30
0.0
 40
0.3000000000000748
100
AcDbArc
 50
315.0
 51
0.0
  0
LINE
  5
B4
330
1F
100
AcDbEntity
  8
0
  6
SLD-Сплошная
 62
     7
370
    35
100
AcDbLine
 10
592.0987806691
 20
-503.7359523779
 30
0.0
 11
591.6259884629
 21
-503.2631601718
 31
0.0
  0
LINE
  5
B5
330
1F
100
AcDbEntity
  8
0
  6
SLD-Сплошная
 62
     7
370
    35
100
AcDbLine
 10
591.6259884629
 20
-487.1418398282
 30
0.0
 11
592.0987806691
 21
-486.6690476221
 31
0.0
  0
ARC
  5
B6
330
1F
100
AcDbEntity
  8
0
  6
SLD-Сплошная
 62
     7
370
    35
100
AcDbCircle
 10
592.6866486347
 20
-488.2025
 30
0.0
 40
1.500000000000052
100
AcDbArc
 50
135.0
 51
180.0
  0
ARC
  5
B7
330
1F
100
AcDbEntity
  8
0
  6
SLD-Сплошная
 62
     7
370
    35
100
AcDbCircle
 10
592.6866486347
 20
-502.2025
 30
0.0
 40
1.500000000000012
100
AcDbArc
 50
180.0
 51
225.0
  0
LINE
  5
B8
330
1F
100
AcDbEntity
  8
0
  6
SLD-Сплошная
 62
     7
370
    35
100
AcDbLine
 10
593.3866486348
 20
-491.9525
 30
0.0
 11
593.9866486349
 21
-491.9525
 31
0.0
  0
LINE
  5
B9
330
1F
100
AcDbEntity
  8
0
  6
SLD-Сплошная
 62
     7
370
    35
100
AcDbLine
 10
593.9866486349
 20
-498.4525
 30
0.0
 11
593.3866486348
 21
-498.4525
 31
0.0
  0
LINE
  5
BA
330
1F
100
AcDbEntity
  8
0
  6
SLD-Сплошная
 62
     7
370
    35
100
AcDbLine
 10
593.3866486348
 20
505.7975
 30
0.0
 11
592.1866486348
 21
505.7975
 31
0.0
  0
LINE
  5
BB
330
1F
100
AcDbEntity
  8
0
  6
SLD-Сплошная
 62
     7
370
    35
100
AcDbLine
 10
592.1866486348
 20
505.7975
 30
0.0
 11
592.1866486348
 21
500.7975
 31
0.0
  0
LINE
  5
BC
330
1F
100
AcDbEntity
  8
0
  6
SLD-Сплошная
 62
     7
370
    35
100
AcDbLine
 10
593.3866486348
 20
500.7975
 30
0.0
 11
593.3866486348
 21
505.7975
 31
0.0
  0
LINE
  5
BD
330
1F
100
AcDbEntity
  8
0
  6
SLD-Сплошная
 62
     7
370
    35
100
AcDbLine
 10
592.1866486348
 20
500.7975
 30
0.0
 11
592.1866486348
 21
12.7975
 31
0.0
  0
LINE
  5
BE
330
1F
100
AcDbEntity
  8
0
  6
SLD-Сплошная
 62
     7
370
    35
100
AcDbLine
 10
593.3866486348
 20
500.7975
 30
0.0
 11
593.3866486348
 21
12.7975
 31
0.0
  0
LINE
  5
BF
330
1F
100
AcDbEntity
  8
0
  6
SLD-Сплошная
 62
     7
370
    35
100
AcDbLine
 10
592.1866486348
 20
7.7975
 30
0.0
 11
593.3866486348
 21
7.7975
 31
0.0
  0
LINE
  5
C0
330
1F
100
AcDbEntity
  8
0
  6
SLD-Сплошная
 62
     7
370
    35
100
AcDbLine
 10
592.1866486348
 20
12.7975
 30
0.0
 11
592.1866486348
 21
7.7975
 31
0.0
  0
LINE
  5
C1
330
1F
100
AcDbEntity
  8
0
  6
SLD-Сплошная
 62
     7
370
    35
100
AcDbLine
 10
593.3866486348
 20
7.7975
 30
0.0
 11
593.3866486348
 21
12.7975
 31
0.0
  0
LINE
  5
C2
330
1F
100
AcDbEntity
  8
0
  6
SLD-Сплошная
 62
     7
370
    35
100
AcDbLine
 10
591.1866486347
 20
263.7974991568
 30
0.0
 11
591.1866486347
 21
249.7975
 31
0.0
  0
LINE
  5
C3
330
1F
100
AcDbEntity
  8
0
  6
SLD-Сплошная
 62
     7
370
    35
100
AcDbLine
 10
593.9866486349
 20
253.5475
 30
0.0
 11
593.9866486349
 21
260.0475
 31
0.0
  0
SPLINE
  5
C4
330
1F
100
AcDbEntity
  8
0
  6
SLD-Сплошная
 62
     7
370
    35
100
AcDbSpline
210
0.0
220
0.0
230
1.0
 70
     8
 71
     3
 72
    14
 73
    10
 74
     0
 42
0.000000001
 43
0.00000001
 40
0.0
 40
0.0
 40
0.0
 40
0.0
 40
0.25
 40
0.25
 40
0.5
 40
0.5
 40
0.75
 40
0.75
 40
1.0
 40
1.0
 40
1.0
 40
1.0
 10
603.7928932188514
 20
6.506688309203589
 30
0.0
 10
603.8867738275756
 20
6.600568917927707
 30
0.0
 10
603.9975083311415
 20
6.674133534626703
 30
0.0
 10
604.2410298632783
 20
6.774401284608988
 30
0.0
 10
604.3727725365194
 20
6.800048997563202
 30
0.0
 10
604.6344728260688
 20
6.799100934608338
 30
0.0
 10
604.7661355104597
 20
6.772207730060876
 30
0.0
 10
605.0055062429273
 20
6.672102746790309
 30
0.0
 10
605.1155384814919
 20
6.598256608936259
 30
0.0
 10
605.2071067812244
 20
6.506688309203811
 30
0.0
  0
LINE
  5
C5
330
1F
100
AcDbEntity
  8
0
  6
SLD-Сплошная
 62
     7
370
    35
100
AcDbLine
 10
605.2071067812
 20
6.5066883092
 30
0.0
 11
607.9648232279
 21
3.7489718626
 31
0.0
  0
LINE
  5
C6
330
1F
100
AcDbEntity
  8
0
  6
SLD-Сплошная
 62
     7
370
    35
100
AcDbLine
 10
607.9648232279
 20
3.7489718626
 30
0.0
 11
608.8133513653
 21
4.5975
 31
0.0
  0
LINE
  5
C7
330
1F
100
AcDbEntity
  8
0
  6
SLD-Сплошная
 62
     7
370
    35
100
AcDbLine
 10
608.8133513653
 20
4.5975
 30
0.0
 11
606.0556349186
 21
7.3552164466
 31
0.0
  0
SPLINE
  5
C8
330
1F
100
AcDbEntity
  8
0
  6
SLD-Сплошная
 62
     7
370
    35
100
AcDbSpline
210
0.0
220
0.0
230
1.0
 70
     8
 71
     3
 72
    10
 73
     6
 74
     0
 42
0.000000001
 43
0.00000001
 40
0.0
 40
0.0
 40
0.0
 40
0.0
 40
0.5
 40
0.5
 40
1.0
 40
1.0
 40
1.0
 40
1.0
 10
606.0556349186483
 20
7.355216446627455
 30
0.0
 10
605.9212024003092
 20
7.489648964966566
 30
0.0
 10
605.7709908109175
 20
7.605565715523232
 30
0.0
 10
605.4383106629225
 20
7.798723750766346
 30
0.0
 10
605.2576922092983
 20
7.874165407718181
 30
0.0
 10
605.0694092874005
 20
7.924616366193904
 30
0.0
  0
LINE
  5
C9
330
1F
100
AcDbEntity
  8
0
  6
SLD-Сплошная
 62
     7
370
    35
100
AcDbLine
 10
606.0556349186
 20
506.2397835534
 30
0.0
 11
608.8133513653
 21
508.9975
 31
0.0
  0
LINE
  5
CA
330
1F
100
AcDbEntity
  8
0
  6
SLD-Сплошная
 62
     7
370
    35
100
AcDbLine
 10
608.8133513653
 20
508.9975
 30
0.0
 11
607.9648232279
 21
509.8460281374
 31
0.0
  0
LINE
  5
CB
330
1F
100
AcDbEntity
  8
0
  6
SLD-Сплошная
 62
     7
370
    35
100
AcDbLine
 10
607.9648232279
 20
509.8460281374
 30
0.0
 11
605.2071067812
 21
507.0883116908
 31
0.0
  0
SPLINE
  5
CC
330
1F
100
AcDbEntity
  8
0
  6
SLD-Сплошная
 62
     7
370
    35
100
AcDbSpline
210
0.0
220
0.0
230
1.0
 70
     8
 71
     3
 72
    14
 73
    10
 74
     0
 42
0.000000001
 43
0.00000001
 40
0.0
 40
0.0
 40
0.0
 40
0.0
 40
0.25
 40
0.25
 40
0.5
 40
0.5
 40
0.75
 40
0.75
 40
1.0
 40
1.0
 40
1.0
 40
1.0
 10
605.2071067812245
 20
507.088311690796
 30
0.0
 10
605.1155502462968
 20
506.9967551558681
 30
0.0
 10
605.0070192271869
 20
506.9236583711427
 30
0.0
 10
604.7662909581525
 20
506.8227297778254
 30
0.0
 10
604.6352914196614
 20
506.7960039710502
 30
0.0
 10
604.3735069180076
 20
506.7948523256951
 30
0.0
 10
604.2411906674479
 20
506.8206611259878
 30
0.0
 10
603.9990223844627
 20
506.9201153342646
 30
0.0
 10
603.8867743601586
 20
506.9944305494887
 30
0.0
 10
603.7928932188499
 20
507.0883116907976
 30
0.0
  0
LINE
  5
CD
330
1F
100
AcDbEntity
  8
0
  6
SLD-Сплошная
 62
     7
370
    35
100
AcDbLine
 10
603.7928932188
 20
507.0883116908
 30
0.0
 11
601.328069991
 21
509.5531349186
 31
0.0
  0
SPLINE
  5
CE
330
1F
100
AcDbEntity
  8
0
  6
SLD-Сплошная
 62
     7
370
    35
100
AcDbSpline
210
0.0
220
0.0
230
1.0
 70
     8
 71
     3
 72
     8
 73
     4
 74
     0
 42
0.000000001
 43
0.00000001
 40
0.0
 40
0.0
 40
0.0
 40
0.0
 40
1.0
 40
1.0
 40
1.0
 40
1.0
 10
601.3280699910375
 20
509.5531349186105
 30
0.0
 10
601.1699148938801
 20
509.7112900157679
 30
0.0
 10
600.9917851644389
 20
509.8422795051507
 30
0.0
 10
600.793678374281
 20
509.9461051725318
 30
0.0
  0
SPLINE
  5
CF
330
1F
100
AcDbEntity
  8
0
  6
SLD-Сплошная
 62
     7
370
    35
100
AcDbSpline
210
0.0
220
0.0
230
1.0
 70
     8
 71
     3
 72
    10
 73
     6
 74
     0
 42
0.000000001
 43
0.00000001
 40
0.0
 40
0.0
 40
0.0
 40
0.0
 40
0.5
 40
0.5
 40
1.0
 40
1.0
 40
1.0
 40
1.0
 10
605.0694351905779
 20
505.6703905748072
 30
0.0
 10
605.2576836723821
 20
505.7208347643858
 30
0.0
 10
605.4349410334511
 20
505.7946971422645
 30
0.0
 10
605.7679634975262
 20
505.9873064333673
 30
0.0
 10
605.9211849505004
 20
506.1053335852255
 30
0.0
 10
606.0556349186428
 20
506.2397835533667
 30
0.0
  0
LINE
  5
D0
330
1F
100
AcDbEntity
  8
0
  6
SLD-Сплошная
 62
     7
370
    35
100
AcDbLine
 10
603.7928932189
 20
6.5066883092
 30
0.0
 11
601.328069991
 21
4.0418650814
 31
0.0
  0
LINE
  5
D1
330
1F
100
AcDbEntity
  8
0
  6
SLD-Сплошная
 62
     7
370
    35
100
AcDbLine
 10
602.9443650814
 20
7.3552164466
 30
0.0
 11
600.4795418536
 21
4.8903932188
 31
0.0
  0
ARC
  5
D2
330
1F
100
AcDbEntity
  8
0
  6
SLD-Сплошная
 62
     7
370
    35
100
AcDbCircle
 10
604.5
 20
5.799581528
 30
0.0
 40
2.200000000000019
100
AcDbArc
 50
74.9998008394
 51
135.0
  0
ARC
  5
D3
330
1F
100
AcDbEntity
  8
0
  6
SLD-Сплошная
 62
     7
370
    35
100
AcDbCircle
 10
604.5
 20
507.795418472
 30
0.0
 40
2.200000000000041
100
AcDbArc
 50
239.2105263128
 51
250.1592454995
  0
SPLINE
  5
D4
330
1F
100
AcDbEntity
  8
0
  6
SLD-Сплошная
 62
     7
370
    35
100
AcDbSpline
210
0.0
220
0.0
230
1.0
 70
     8
 71
     3
 72
     8
 73
     4
 74
     0
 42
0.000000001
 43
0.00000001
 40
0.0
 40
0.0
 40
0.0
 40
0.0
 40
1.0
 40
1.0
 40
1.0
 40
1.0
 10
602.9443650814276
 20
506.2397835533723
 30
0.0
 10
603.0729748506633
 20
506.1111737841366
 30
0.0
 10
603.2176067155965
 20
505.9986022850829
 30
0.0
 10
603.3738528919431
 20
505.9054997724273
 30
0.0
  0
SPLINE
  5
D5
330
1F
100
AcDbEntity
  8
0
  6
SLD-Сплошная
 62
     7
370
    35
100
AcDbSpline
210
0.0
220
0.0
230
1.0
 70
     8
 71
     3
 72
     8
 73
     4
 74
     0
 42
0.000000001
 43
0.00000001
 40
0.0
 40
0.0
 40
0.0
 40
0.0
 40
1.0
 40
1.0
 40
1.0
 40
1.0
 10
603.7533044170124
 20
505.7260113814639
 30
0.0
 10
604.1727743021971
 20
505.5746558014453
 30
0.0
 10
604.6386909436675
 20
505.5549657681002
 30
0.0
 10
605.069435194834
 20
505.6703905759476
 30
0.0
  0
SPLINE
  5
D6
330
1F
100
AcDbEntity
  8
0
  6
SLD-Сплошная
 62
     7
370
    35
100
AcDbSpline
210
0.0
220
0.0
230
1.0
 70
     8
 71
     3
 72
    26
 73
    22
 74
     0
 42
0.000000001
 43
0.00000001
 40
0.0
 40
0.0
 40
0.0
 40
0.0
 40
0.0526315789473821
 40
0.1052631578947126
 40
0.1578947368420984
 40
0.2105263157894776
 40
0.2631578947368569
 40
0.3157894736841875
 40
0.3684210526315669
 40
0.4210526315789443
 40
0.4736842105263316
 40
0.5263157894736572
 40
0.5789473684210378
 40
0.6315789473684343
 40
0.684210526315813
 40
0.7368421052631539
 40
0.7894736842105157
 40
0.8421052631579121
 40
0.8947368421052776
 40
0.9473684210526354
 40
1.0
 40
1.0
 40
1.0
 40
1.0
 10
599.7724350724268
 20
3.397499999999942
 30
0.0
 10
599.8027486852591
 20
3.397861780540967
 30
0.0
 10
599.8633759109237
 20
3.398585341622962
 30
0.0
 10
599.9541613785236
 20
3.404434622795049
 30
0.0
 10
600.0446363697774
 20
3.413760859508119
 30
0.0
 10
600.1346463096827
 20
3.426890286643169
 30
0.0
 10
600.224037417758
 20
3.443708789002631
 30
0.0
 10
600.312656970828
 20
3.464212199024486
 30
0.0
 10
600.400353563749
 20
3.488358904499556
 30
0.0
 10
600.4869773688247
 20
3.516109414527513
 30
0.0
 10
600.5723803890146
 20
3.547415846940849
 30
0.0
 10
600.6564167211202
 20
3.582224835431136
 30
0.0
 10
600.7389427664846
 20
3.620476899486968
 30
0.0
 10
600.819817620288
 20
3.662106605645976
 30
0.0
 10
600.8989027750141
 20
3.707043162002599
 30
0.0
 10
600.9760643621994
 20
3.755208548660238
 30
0.0
 10
601.0511658979651
 20
3.806525130290228
 30
0.0
 10
601.1240964438066
 20
3.86088786221106
 30
0.0
 10
601.1946665688728
 20
3.918268696831928
 30
0.0
 10
601.2629976550277
 20
3.978327650223046
 30
0.0
 10
601.3063792123673
 20
4.020685937667356
 30
0.0
 10
601.3280699910372
 20
4.041865081389428
 30
0.0
  0
ARC
  5
D7
330
1F
100
AcDbEntity
  8
0
  6
SLD-Сплошная
 62
     7
370
    35
100
AcDbCircle
 10
599.7724350724
 20
5.5975
 30
0.0
 40
1.000000000000102
100
AcDbArc
 50
270.0
 51
315.0
  0
ARC
  5
D8
330
1F
100
AcDbEntity
  8
0
  6
SLD-Сплошная
 62
     7
370
    35
100
AcDbCircle
 10
594.3866486348
 20
507.9975
 30
0.0
 40
2.20000000000008
100
AcDbArc
 50
94.7368421061
 51
99.4736842119
  0
SPLINE
  5
D9
330
1F
100
AcDbEntity
  8
0
  6
SLD-Сплошная
 62
     7
370
    35
100
AcDbSpline
210
0.0
220
0.0
230
1.0
 70
     8
 71
     3
 72
    17
 73
    13
 74
     0
 42
0.000000001
 43
0.00000001
 40
0.0
 40
0.0
 40
0.0
 40
0.0
 40
0.062906968580654
 40
0.1254057023369704
 40
0.1877206706526476
 40
0.2500783274490275
 40
0.3749241914104302
 40
0.5000518229140737
 40
0.6249063797877741
 40
0.7500252981880202
 40
0.8749473691587373
 40
1.0
 40
1.0
 40
1.0
 40
1.0
 10
594.0245405361306
 20
510.1674948674775
 30
0.0
 10
593.9807218321878
 20
510.1593444627801
 30
0.0
 10
593.8933687858172
 20
510.1430965454439
 30
0.0
 10
593.7647341062599
 20
510.1089821133025
 30
0.0
 10
593.6386346554963
 20
510.0678401073189
 30
0.0
 10
593.4742145353914
 20
510.0027711155865
 30
0.0
 10
593.2761122194236
 20
509.9029788648293
 30
0.0
 10
593.0548213815986
 20
509.7551881304221
 30
0.0
 10
592.8524107799064
 20
509.5820050303521
 30
0.0
 10
592.6732712997059
 20
509.3853137330116
 30
0.0
 10
592.5166539938471
 20
509.1694956050161
 30
0.0
 10
592.4358072089154
 20
509.011725053631
 30
0.0
 10
592.3953627036217
 20
508.932798576764
 30
0.0
  0
ARC
  5
DA
330
1F
100
AcDbEntity
  8
0
  6
SLD-Сплошная
 62
     7
370
    35
100
AcDbCircle
 10
594.3866486348
 20
507.9975
 30
0.0
 40
2.200000000000018
100
AcDbArc
 50
154.8407544444
 51
165.7894736839
  0
SPLINE
  5
DB
330
1F
100
AcDbEntity
  8
0
  6
SLD-Сплошная
 62
     7
370
    35
100
AcDbSpline
210
0.0
220
0.0
230
1.0
 70
     8
 71
     3
 72
    11
 73
     7
 74
     0
 42
0.000000001
 43
0.00000001
 40
0.0
 40
0.0
 40
0.0
 40
0.0
 40
0.2503774388169692
 40
0.5000629929313578
 40
0.7499746440995666
 40
1.0
 40
1.0
 40
1.0
 40
1.0
 10
592.2539680497363
 20
508.537568071721
 30
0.0
 10
592.2435949181338
 20
508.4932212322855
 30
0.0
 10
592.2228773196965
 20
508.4046500999979
 30
0.0
 10
592.2018825919786
 20
508.269758950006
 30
0.0
 10
592.1897299127111
 20
508.1338746883249
 30
0.0
 10
592.1876758831586
 20
508.0429651215419
 30
0.0
 10
592.1866486348
 20
507.9974999999999
 30
0.0
  0
ARC
  5
DC
330
1F
100
AcDbEntity
  8
0
  6
SLD-Сплошная
 62
     7
370
    35
100
AcDbCircle
 10
594.3866486348
 20
507.9975
 30
0.0
 40
1.000000000000114
100
AcDbArc
 50
90.0
 51
179.9999999994
  0
SPLINE
  5
DD
330
1F
100
AcDbEntity
  8
0
  6
SLD-Сплошная
 62
     7
370
    35
100
AcDbSpline
210
0.0
220
0.0
230
1.0
 70
     8
 71
     3
 72
     9
 73
     5
 74
     0
 42
0.000000001
 43
0.00000001
 40
0.0
 40
0.0
 40
0.0
 40
0.0
 40
0.5834607517538837
 40
1.0
 40
1.0
 40
1.0
 40
1.0
 10
594.3866486347999
 20
510.1975000000001
 30
0.0
 10
594.3512893079194
 20
510.1966382215155
 30
0.0
 10
594.2906865565358
 20
510.195161209597
 30
0.0
 10
594.230178185932
 20
510.1915077104147
 30
0.0
 10
594.204974074728
 20
510.1899858846117
 30
0.0
  0
ARC
  5
DE
330
1F
100
AcDbEntity
  8
0
  6
SLD-Сплошная
 62
     7
370
    35
100
AcDbCircle
 10
594.3866486348
 20
5.5975
 30
0.0
 40
2.19999999999998
100
AcDbArc
 50
179.9999999999
 51
270.0
  0
ARC
  5
DF
330
1F
100
AcDbEntity
  8
0
  6
SLD-Сплошная
 62
     7
370
    35
100
AcDbCircle
 10
594.3866486348
 20
5.5975
 30
0.0
 40
1.000000000000002
100
AcDbArc
 50
179.9999999999
 51
270.0
  0
LINE
  5
E0
330
1F
100
AcDbEntity
  8
0
  6
SLD-Сплошная
 62
     7
370
    35
100
AcDbLine
 10
594.3866486348
 20
510.1975
 30
0.0
 11
599.7724350724
 21
510.1975
 31
0.0
  0
LINE
  5
E1
330
1F
100
AcDbEntity
  8
0
  6
SLD-Сплошная
 62
     7
370
    35
100
AcDbLine
 10
594.3866486348
 20
508.9975
 30
0.0
 11
599.7724350724
 21
508.9975
 31
0.0
  0
LINE
  5
E2
330
1F
100
AcDbEntity
  8
0
  6
SLD-Сплошная
 62
     7
370
    35
100
AcDbLine
 10
600.4795418536
 20
508.7046067812
 30
0.0
 11
602.9443650814
 21
506.2397835534
 31
0.0
  0
ARC
  5
E3
330
1F
100
AcDbEntity
  8
0
  6
SLD-Сплошная
 62
     7
370
    35
100
AcDbCircle
 10
599.7724350724
 20
507.9975
 30
0.0
 40
1.000000000000114
100
AcDbArc
 50
45.0
 51
90.0
  0
SPLINE
  5
E4
330
1F
100
AcDbEntity
  8
0
  6
SLD-Сплошная
 62
     7
370
    35
100
AcDbSpline
210
0.0
220
0.0
230
1.0
 70
     8
 71
     3
 72
    19
 73
    15
 74
     0
 42
0.000000001
 43
0.00000001
 40
0.0
 40
0.0
 40
0.0
 40
0.0
 40
0.0526315789473854
 40
0.1052631578947668
 40
0.1578947368421342
 40
0.2105263157895294
 40
0.2631578947368028
 40
0.3157894736841764
 40
0.3684210526315536
 40
0.4210526315789289
 40
0.4736842105263366
 40
0.5263157894736964
 40
0.5789473684210495
 40
0.6146345929188873
 40
0.6146345929188873
 40
0.6146345929188873
 40
0.6146345929188873
 10
599.7724350724268
 20
510.1974999999999
 30
0.0
 10
599.8027486852591
 20
510.1971382194588
 30
0.0
 10
599.8633759109238
 20
510.1964146583766
 30
0.0
 10
599.9541613785236
 20
510.1905653772045
 30
0.0
 10
600.0446363697775
 20
510.1812391404919
 30
0.0
 10
600.1346463096827
 20
510.1681097133566
 30
0.0
 10
600.224037417758
 20
510.1512912109971
 30
0.0
 10
600.312656970828
 20
510.1307878009753
 30
0.0
 10
600.400353563749
 20
510.1066410955007
 30
0.0
 10
600.4869773688247
 20
510.0788905854721
 30
0.0
 10
600.5723803890146
 20
510.0475841530585
 30
0.0
 10
600.6564167211202
 20
510.0127751645689
 30
0.0
 10
600.7300865462461
 20
509.978628091881
 30
0.0
 10
600.7754727644179
 20
509.9556465368844
 30
0.0
 10
600.7936783775419
 20
509.9461051758316
 30
0.0
  0
LINE
  5
E5
330
1F
100
AcDbEntity
  8
0
  6
SLD-Сплошная
 62
     7
370
    35
100
AcDbLine
 10
592.1866486348
 20
505.7975
 30
0.0
 11
592.1866486348
 21
507.9975
 31
0.0
  0
LINE
  5
E6
330
1F
100
AcDbEntity
  8
0
  6
SLD-Сплошная
 62
     7
370
    35
100
AcDbLine
 10
593.3866486348
 20
505.7975
 30
0.0
 11
593.3866486348
 21
507.9975
 31
0.0
  0
LINE
  5
E7
330
1F
100
AcDbEntity
  8
0
  6
SLD-Сплошная
 62
     7
370
    35
100
AcDbLine
 10
599.7724350724
 20
4.5975
 30
0.0
 11
594.3866486348
 21
4.5975
 31
0.0
  0
LINE
  5
E8
330
1F
100
AcDbEntity
  8
0
  6
SLD-Сплошная
 62
     7
370
    35
100
AcDbLine
 10
599.7724350724
 20
3.3975
 30
0.0
 11
594.3866486348
 21
3.3975
 31
0.0
  0
LINE
  5
E9
330
1F
100
AcDbEntity
  8
0
  6
SLD-Сплошная
 62
     7
370
    35
100
AcDbLine
 10
592.1866486348
 20
5.5975
 30
0.0
 11
592.1866486348
 21
7.7975
 31
0.0
  0
LINE
  5
EA
330
1F
100
AcDbEntity
  8
0
  6
SLD-Сплошная
 62
     7
370
    35
100
AcDbLine
 10
593.3866486348
 20
5.5975
 30
0.0
 11
593.3866486348
 21
7.7975
 31
0.0
  0
LINE
  5
EB
330
1F
100
AcDbEntity
  8
0
  6
SLD-Сплошная
 62
     7
370
    35
100
AcDbLine
 10
593.3866486348
 20
-287.7030495713
 30
0.0
 11
592.1866486348
 21
-287.7030495713
 31
0.0
  0
LINE
  5
EC
330
1F
100
AcDbEntity
  8
0
  6
SLD-Сплошная
 62
     7
370
    35
100
AcDbLine
 10
592.1866486348
 20
5.5975
 30
0.0
 11
592.1866486348
 21
-287.7030495713
 31
0.0
  0
LINE
  5
ED
330
1F
100
AcDbEntity
  8
0
  6
SLD-Сплошная
 62
     7
370
    35
100
AcDbLine
 10
593.3866486348
 20
3.6379082058
 30
0.0
 11
593.3866486348
 21
-287.7030495713
 31
0.0
  0
LINE
  5
EE
330
1F
100
AcDbEntity
  8
0
  6
SLD-Сплошная
 62
     7
370
    35
100
AcDbLine
 10
599.7724350724
 20
-293.2025
 30
0.0
 11
601.328069991
 21
-293.2025
 31
0.0
  0
SPLINE
  5
EF
330
1F
100
AcDbEntity
  8
0
  6
SLD-Сплошная
 62
     7
370
    35
100
AcDbSpline
210
0.0
220
0.0
230
1.0
 70
     8
 71
     3
 72
    14
 73
    10
 74
     0
 42
0.000000001
 43
0.00000001
 40
0.0
 40
0.0
 40
0.0
 40
0.0
 40
0.25
 40
0.25
 40
0.5
 40
0.5
 40
0.75
 40
0.75
 40
1.0
 40
1.0
 40
1.0
 40
1.0
 10
599.7724350724268
 20
-460.0491282744622
 30
0.0
 10
599.7887020552848
 20
-459.8792182471291
 30
0.0
 10
599.8256449350063
 20
-459.7146354273054
 30
0.0
 10
599.9439951907988
 20
-459.3969863650079
 30
0.0
 10
600.0237126295855
 20
-459.2455815871346
 30
0.0
 10
600.2096560513951
 20
-458.9651445836546
 30
0.0
 10
600.3175758161054
 20
-458.8334740352179
 30
0.0
 10
600.5444999302622
 20
-458.5940390863431
 30
0.0
 10
600.664262826256
 20
-458.4851328823096
 30
0.0
 10
600.7860571273527
 20
-458.3840158202937
 30
0.0
  0
SPLINE
  5
F0
330
1F
100
AcDbEntity
  8
0
  6
SLD-Сплошная
 62
     7
370
    35
100
AcDbSpline
210
0.0
220
0.0
230
1.0
 70
     8
 71
     3
 72
     8
 73
     4
 74
     0
 42
0.000000001
 43
0.00000001
 40
0.0
 40
0.0
 40
0.0
 40
0.0
 40
1.0
 40
1.0
 40
1.0
 40
1.0
 10
601.058843343937
 20
-458.1724622524986
 30
0.0
 10
600.9689537523227
 20
-458.2373112476197
 30
0.0
 10
600.8777662796274
 20
-458.3078762968965
 30
0.0
 10
600.7860571273528
 20
-458.3840158202937
 30
0.0
  0
SPLINE
  5
F1
330
1F
100
AcDbEntity
  8
0
  6
SLD-Сплошная
 62
     7
370
    35
100
AcDbSpline
210
0.0
220
0.0
230
1.0
 70
     8
 71
     3
 72
     9
 73
     5
 74
     0
 42
0.000000001
 43
0.00000001
 40
0.0
 40
0.0
 40
0.0
 40
0.0
 40
0.0326158054713555
 40
0.1422744720795866
 40
0.1422744720795866
 40
0.1422744720795866
 40
0.1422744720795866
 10
601.0588433439362
 20
-458.1724622524991
 30
0.0
 10
601.0800360756691
 20
-458.1570331155861
 30
0.0
 10
601.1715520068955
 20
-458.0913296900747
 30
0.0
 10
601.2599425762373
 20
-458.0310074164244
 30
0.0
 10
601.3280699910373
 20
-457.9845137623022
 30
0.0
  0
SPLINE
  5
F2
330
1F
100
AcDbEntity
  8
0
  6
SLD-Сплошная
 62
     7
370
    35
100
AcDbSpline
210
0.0
220
0.0
230
1.0
 70
    24
 71
     3
 72
    19
 73
    15
 74
     0
 42
0.000000001
 43
0.00000001
 40
0.3853654070183249
 40
0.3853654070183249
 40
0.3853654070183249
 40
0.3853654070183249
 40
0.4210526315789297
 40
0.4736842105263102
 40
0.5263157894736573
 40
0.5789473684210232
 40
0.6315789473684181
 40
0.6842105263157955
 40
0.7368421052631241
 40
0.7894736842105023
 40
0.8421052631578816
 40
0.8947368421052163
 40
0.9473684210525944
 40
1.0
 40
1.0
 40
1.0
 40
1.0
 10
600.7936783776381
 20
-480.2025000000001
 30
0.0
 10
600.7754727644824
 20
-480.2025000000001
 30
0.0
 10
600.7300865462788
 20
-480.2025000000001
 30
0.0
 10
600.6564167211202
 20
-480.2025000000001
 30
0.0
 10
600.5723803890146
 20
-480.2025000000002
 30
0.0
 10
600.4869773688247
 20
-480.2025000000001
 30
0.0
 10
600.4003535637491
 20
-480.2025000000001
 30
0.0
 10
600.312656970828
 20
-480.2025000000002
 30
0.0
 10
600.224037417758
 20
-480.2025000000001
 30
0.0
 10
600.1346463096828
 20
-480.2025000000002
 30
0.0
 10
600.0446363697774
 20
-480.2025000000001
 30
0.0
 10
599.9541613785236
 20
-480.2025000000001
 30
0.0
 10
599.8633759109238
 20
-480.2025000000001
 30
0.0
 10
599.8027486852591
 20
-480.2025000000001
 30
0.0
 10
599.7724350724268
 20
-480.2025000000001
 30
0.0
  0
SPLINE
  5
F3
330
1F
100
AcDbEntity
  8
0
  6
SLD-Сплошная
 62
     7
370
    35
100
AcDbSpline
210
0.0
220
0.0
230
1.0
 70
     8
 71
     3
 72
     8
 73
     4
 74
     0
 42
0.000000001
 43
0.00000001
 40
0.0
 40
0.0
 40
0.0
 40
0.0
 40
1.0
 40
1.0
 40
1.0
 40
1.0
 10
601.3280699910373
 20
-480.2014998999801
 30
0.0
 10
601.169914893906
 20
-480.2014998999801
 30
0.0
 10
600.991785164497
 20
-480.2025000000619
 30
0.0
 10
600.7936783743771
 20
-480.2025000000001
 30
0.0
  0
SPLINE
  5
F4
330
1F
100
AcDbEntity
  8
0
  6
SLD-Сплошная
 62
     7
370
    35
100
AcDbSpline
210
0.0
220
0.0
230
1.0
 70
     8
 71
     3
 72
    16
 73
    12
 74
     0
 42
0.000000001
 43
0.00000001
 40
0.0
 40
0.0
 40
0.0
 40
0.0
 40
0.2500000000000004
 40
0.2500000000000004
 40
0.5000000000000009
 40
0.5000000000000009
 40
0.7500000000000013
 40
0.7500000000000013
 40
0.8750000000000007
 40
0.8750000000000007
 40
1.0
 40
1.0
 40
1.0
 40
1.0
 10
601.3280699910373
 20
-462.4204862376981
 30
0.0
 10
601.1773063231769
 20
-462.317878504776
 30
0.0
 10
601.0130711993357
 20
-462.2039975063462
 30
0.0
 10
600.6770625203087
 20
-461.9341865459825
 30
0.0
 10
600.5082589956506
 20
-461.7813244055297
 30
0.0
 10
600.2031040211419
 20
-461.4366597848468
 30
0.0
 10
600.0656910797279
 20
-461.2421643948472
 30
0.0
 10
599.9121251393578
 20
-460.9266480245191
 30
0.0
 10
599.8677357877806
 20
-460.8161864401081
 30
0.0
 10
599.8044739390103
 20
-460.589413398646
 30
0.0
 10
599.7882403380171
 20
-460.4726889427903
 30
0.0
 10
599.7724350724268
 20
-460.3558717255381
 30
0.0
  0
LINE
  5
F5
330
1F
100
AcDbEntity
  8
0
  6
SLD-Сплошная
 62
     7
370
    35
100
AcDbLine
 10
599.7724350724
 20
-460.3558717255
 30
0.0
 11
599.7724350724
 21
-460.0491282745
 31
0.0
  0
LINE
  5
F6
330
1F
100
AcDbEntity
  8
0
  6
SLD-Сплошная
 62
     7
370
    35
100
AcDbLine
 10
594.3866486348
 20
-293.2025
 30
0.0
 11
599.7724350724
 21
-293.2025
 31
0.0
  0
LINE
  5
F7
330
1F
100
AcDbEntity
  8
0
  6
SLD-Сплошная
 62
     7
370
    35
100
AcDbLine
 10
599.7724350724
 20
-480.2025
 30
0.0
 11
594.3866486348
 21
-480.2025
 31
0.0
  0
LINE
  5
F8
330
1F
100
AcDbEntity
  8
0
  6
SLD-Сплошная
 62
     7
370
    35
100
AcDbLine
 10
592.1866486348
 20
-293.2025
 30
0.0
 11
594.3866486348
 21
-293.2025
 31
0.0
  0
LINE
  5
F9
330
1F
100
AcDbEntity
  8
0
  6
SLD-Сплошная
 62
     7
370
    35
100
AcDbLine
 10
592.1866486348
 20
-480.2025
 30
0.0
 11
594.3866486348
 21
-480.2025
 31
0.0
  0
LINE
  5
FA
330
1F
100
AcDbEntity
  8
0
  6
SLD-Сплошная
 62
     7
370
    35
100
AcDbLine
 10
592.1866486348
 20
-480.2025
 30
0.0
 11
592.1866486348
 21
-293.2025
 31
0.0
  0
SPLINE
  5
FB
330
1F
100
AcDbEntity
  8
0
  6
SLD-Сплошная
 62
     7
370
    35
100
AcDbSpline
210
0.0
220
0.0
230
1.0
 70
     8
 71
     3
 72
    14
 73
    10
 74
     0
 42
0.000000001
 43
0.00000001
 40
0.0
 40
0.0
 40
0.0
 40
0.0
 40
0.25
 40
0.25
 40
0.5
 40
0.5
 40
0.75
 40
0.75
 40
1.0
 40
1.0
 40
1.0
 40
1.0
 10
605.2071067812244
 20
-480.079999359303
 30
0.0
 10
605.1155502462967
 20
-480.1092004995325
 30
0.0
 10
605.007019227187
 20
-480.1325899554786
 30
0.0
 10
604.7662909581528
 20
-480.1678095961979
 30
0.0
 10
604.6352914196618
 20
-480.1794068877628
 30
0.0
 10
604.3735069180082
 20
-480.1941788677628
 30
0.0
 10
604.2411906674487
 20
-480.197566079876
 30
0.0
 10
603.9990223844635
 20
-480.201146332722
 30
0.0
 10
603.8867743601602
 20
-480.2014998999801
 30
0.0
 10
603.7928932188514
 20
-480.2014998999801
 30
0.0
  0
LINE
  5
FC
330
1F
100
AcDbEntity
  8
0
  6
SLD-Сплошная
 62
     7
370
    35
100
AcDbLine
 10
603.7928932189
 20
-480.2014999
 30
0.0
 11
601.328069991
 21
-480.2014999
 31
0.0
  0
LINE
  5
FD
330
1F
100
AcDbEntity
  8
0
  6
SLD-Сплошная
 62
     7
370
    35
100
AcDbLine
 10
601.2573593129
 20
-480.2025
 30
0.0
 11
603.7221825407
 21
-480.2025
 31
0.0
  0
LINE
  5
FE
330
1F
100
AcDbEntity
  8
0
  6
SLD-Сплошная
 62
     7
370
    35
100
AcDbLine
 10
603.7221825407
 20
-480.2025
 30
0.0
 11
605.0694127164
 21
-480.2025
 31
0.0
  0
SPLINE
  5
FF
330
1F
100
AcDbEntity
  8
0
  6
SLD-Сплошная
 62
     7
370
    35
100
AcDbSpline
210
0.0
220
0.0
230
1.0
 70
     8
 71
     3
 72
    10
 73
     6
 74
     0
 42
0.000000001
 43
0.00000001
 40
0.0
 40
0.0
 40
0.0
 40
0.0
 40
0.5
 40
0.5
 40
1.0
 40
1.0
 40
1.0
 40
1.0
 10
605.0694092874406
 20
-480.2024999999958
 30
0.0
 10
605.2576627529284
 20
-480.2024997763884
 30
0.0
 10
605.4349249287242
 20
-480.1939894031041
 30
0.0
 10
605.7679566287492
 20
-480.1542006695534
 30
0.0
 10
605.921181829234
 20
-480.1228819729949
 30
0.0
 10
606.055634918647
 20
-480.0799993593034
 30
0.0
  0
ARC
  5
100
330
1F
100
AcDbEntity
  8
0
  6
SLD-Сплошная
 62
     7
370
    35
100
AcDbCircle
 10
603.9071389812
 20
-475.646899324
 30
0.0
 40
4.926297871253198
100
AcDbArc
 50
295.8570855409
 51
5.1756649097
  0
ARC
  5
101
330
1F
100
AcDbEntity
  8
0
  6
SLD-Сплошная
 62
     7
370
    35
100
AcDbCircle
 10
603.0586108438
 20
-475.646899324
 30
0.0
 40
4.926297871253247
100
AcDbArc
 50
295.8570855409
 51
5.1756649097
  0
LINE
  5
102
330
1F
100
AcDbEntity
  8
0
  6
SLD-Сплошная
 62
     7
370
    35
100
AcDbLine
 10
600.7936783777
 20
-480.2025
 30
0.0
 11
601.2573593129
 21
-480.2025
 31
0.0
  0
ARC
  5
103
330
1F
100
AcDbEntity
  8
0
  6
SLD-Сплошная
 62
     7
370
    35
100
AcDbCircle
 10
603.0586108438
 20
-297.758100676
 30
0.0
 40
4.926297871252889
100
AcDbArc
 50
354.8243350903
 51
64.1429144591
  0
ARC
  5
104
330
1F
100
AcDbEntity
  8
0
  6
SLD-Сплошная
 62
     7
370
    35
100
AcDbCircle
 10
603.9071389813
 20
-297.758100676
 30
0.0
 40
4.92629787124445
100
AcDbArc
 50
354.8243350903
 51
64.1429144593
  0
LINE
  5
105
330
1F
100
AcDbEntity
  8
0
  6
SLD-Сплошная
 62
     7
370
    35
100
AcDbLine
 10
606.0556349186
 20
-293.3250006407
 30
0.0
 11
605.2071067812
 21
-293.3250006407
 31
0.0
  0
LINE
  5
106
330
1F
100
AcDbEntity
  8
0
  6
SLD-Сплошная
 62
     7
370
    35
100
AcDbLine
 10
607.9648232279
 20
-475.2025
 30
0.0
 11
607.9648232279
 21
-298.2025
 31
0.0
  0
LINE
  5
107
330
1F
100
AcDbEntity
  8
0
  6
SLD-Сплошная
 62
     7
370
    35
100
AcDbLine
 10
608.8133513653
 20
-475.2025
 30
0.0
 11
608.8133513653
 21
-298.2025
 31
0.0
  0
LINE
  5
108
330
1F
100
AcDbEntity
  8
0
  6
SLD-Сплошная
 62
     7
370
    35
100
AcDbLine
 10
601.328069991
 20
-293.2025
 30
0.0
 11
603.7928932189
 21
-293.2025
 31
0.0
  0
ARC
  5
109
330
1F
100
AcDbEntity
  8
0
  6
SLD-Сплошная
 62
     7
370
    35
100
AcDbCircle
 10
602.4874209307
 20
-459.0164037394
 30
0.0
 40
1.552060413127738
100
AcDbArc
 50
32.7412007852
 51
138.3290521116
  0
ARC
  5
10A
330
1F
100
AcDbEntity
  8
0
  6
SLD-Сплошная
 62
     7
370
    35
100
AcDbCircle
 10
601.4781136052
 20
-459.2295809093
 30
0.0
 40
1.804955357432464
100
AcDbArc
 50
35.6740458457
 51
71.4147967142
  0
LINE
  5
10B
330
1F
100
AcDbEntity
  8
0
  6
SLD-Сплошная
 62
     7
370
    35
100
AcDbLine
 10
602.9443650814
 20
-458.1769791562
 30
0.0
 11
603.7928932189
 21
-458.1769791562
 31
0.0
  0
ARC
  5
10C
330
1F
100
AcDbEntity
  8
0
  6
SLD-Сплошная
 62
     7
370
    35
100
AcDbCircle
 10
602.4874209307
 20
-461.3885962606
 30
0.0
 40
1.552060413127861
100
AcDbArc
 50
221.6709478884
 51
327.2587992148
  0
LINE
  5
10D
330
1F
100
AcDbEntity
  8
0
  6
SLD-Сплошная
 62
     7
370
    35
100
AcDbLine
 10
602.9443650814
 20
-462.2280208438
 30
0.0
 11
603.7928932189
 21
-462.2280208438
 31
0.0
  0
ARC
  5
10E
330
1F
100
AcDbEntity
  8
0
  6
SLD-Сплошная
 62
     7
370
    35
100
AcDbCircle
 10
601.4781136052
 20
-461.1754190907
 30
0.0
 40
1.804955357412132
100
AcDbArc
 50
288.5852032856
 51
324.3259541545
  0
SPLINE
  5
10F
330
1F
100
AcDbEntity
  8
0
  6
SLD-Сплошная
 62
     7
370
    35
100
AcDbSpline
210
0.0
220
0.0
230
1.0
 70
     8
 71
     3
 72
    24
 73
    20
 74
     0
 42
0.000000001
 43
0.00000001
 40
0.3226325191731886
 40
0.3226325191731886
 40
0.3226325191731886
 40
0.3226325191731886
 40
0.340835966121056
 40
0.3634031851060625
 40
0.4089555282537028
 40
0.422875246328019
 40
0.4776093759136854
 40
0.481151445354088
 40
0.5391262538516987
 40
0.5463954727466298
 40
0.5977220700428341
 40
0.6149080216630947
 40
0.6578042743298986
 40
0.6827490245531685
 40
0.7201096726872387
 40
0.7495399669494273
 40
0.7852013938951955
 40
0.8149338077594659
 40
0.8534517169178033
 40
0.8534517169178033
 40
0.8534517169178033
 40
0.8534517169178033
 10
603.9323247123866
 20
-461.0751805326598
 30
0.0
 10
603.94609600489
 20
-461.047568278253
 30
0.0
 10
603.97573689655
 20
-460.9850392500115
 30
0.0
 10
604.0323258690524
 20
-460.8495766815304
 30
0.0
 10
604.0753963623198
 20
-460.7163115249181
 30
0.0
 10
604.1205701678622
 20
-460.5268007949406
 30
0.0
 10
604.1379440422586
 20
-460.40442240632
 30
0.0
 10
604.1495437156209
 20
-460.2062916931399
 30
0.0
 10
604.1461346043567
 20
-460.0884845916189
 30
0.0
 10
604.1221777504721
 20
-459.8909453572529
 30
0.0
 10
604.0961196586879
 20
-459.7639529482198
 30
0.0
 10
604.0413700495197
 20
-459.5820967924404
 30
0.0
 10
603.989144431978
 20
-459.4469087153003
 30
0.0
 10
603.9119033843804
 20
-459.2859540798883
 30
0.0
 10
603.835497732197
 20
-459.1509393769732
 30
0.0
 10
603.7412267044006
 20
-459.007051743656
 30
0.0
 10
603.6473562767993
 20
-458.8802706775916
 30
0.0
 10
603.5391308331618
 20
-458.748604232782
 30
0.0
 10
603.4652690759667
 20
-458.6668810253462
 30
0.0
 10
603.4230688492445
 20
-458.622182381952
 30
0.0
  0
SPLINE
  5
110
330
1F
100
AcDbEntity
  8
0
  6
SLD-Сплошная
 62
     7
370
    35
100
AcDbSpline
210
0.0
220
0.0
230
1.0
 70
     8
 71
     3
 72
    18
 73
    14
 74
     0
 42
0.000000001
 43
0.00000001
 40
0.0
 40
0.0
 40
0.0
 40
0.0
 40
0.0205701374666729
 40
0.0265544759779158
 40
0.0809508065722087
 40
0.1003441519412629
 40
0.1434010481766531
 40
0.1707617406799908
 40
0.2077190758469774
 40
0.2378795944485803
 40
0.2736373449873305
 40
0.3019469741433349
 40
0.3226325191731886
 40
0.3226325191731886
 40
0.3226325191731886
 40
0.3226325191731886
 10
602.9443650814275
 20
-462.2280208438083
 30
0.0
 10
602.9659003049568
 20
-462.2097713886089
 30
0.0
 10
602.9937006333122
 20
-462.1862127361456
 30
0.0
 10
603.0794662828929
 20
-462.1125953286059
 30
0.0
 10
603.1669266766277
 20
-462.0348432683866
 30
0.0
 10
603.2963754273537
 20
-461.9124446824985
 30
0.0
 10
603.395837348143
 20
-461.8130144222007
 30
0.0
 10
603.5125835219155
 20
-461.6864749770239
 30
0.0
 10
603.6124836539689
 20
-461.5687449716349
 30
0.0
 10
603.7160921217572
 20
-461.4333239691497
 30
0.0
 10
603.804899913574
 20
-461.3028083447258
 30
0.0
 10
603.8779670043264
 20
-461.1799413314127
 30
0.0
 10
603.9166756602039
 20
-461.1065578060709
 30
0.0
 10
603.9323247123866
 20
-461.0751805326598
 30
0.0
  0
SPLINE
  5
111
330
1F
100
AcDbEntity
  8
0
  6
SLD-Сплошная
 62
     7
370
    35
100
AcDbSpline
210
0.0
220
0.0
230
1.0
 70
     8
 71
     3
 72
    24
 73
    20
 74
     0
 42
0.000000001
 43
0.00000001
 40
0.0
 40
0.0
 40
0.0
 40
0.0
 40
0.0625000000000107
 40
0.0625000000000107
 40
0.1250000000000214
 40
0.1250000000000214
 40
0.2500000000000254
 40
0.2500000000000254
 40
0.3750000000000294
 40
0.3750000000000294
 40
0.5000000000000334
 40
0.5000000000000334
 40
0.7500000000000221
 40
0.7500000000000221
 40
0.8750000000000071
 40
0.8750000000000071
 40
0.9375000000000036
 40
0.9375000000000036
 40
1.0
 40
1.0
 40
1.0
 40
1.0
 10
603.7928932188513
 20
-458.1769791561919
 30
0.0
 10
603.8302047111123
 20
-458.2507038085742
 30
0.0
 10
603.870491981129
 20
-458.3240898837413
 30
0.0
 10
603.9464214973805
 20
-458.4767256564056
 30
0.0
 10
603.9823249867394
 20
-458.5556624341024
 30
0.0
 10
604.0849807831031
 20
-458.7979227888899
 30
0.0
 10
604.1459596078712
 20
-458.9683467928961
 30
0.0
 10
604.2420957991962
 20
-459.3123260193483
 30
0.0
 10
604.2783866183529
 20
-459.4870507452222
 30
0.0
 10
604.3270212921395
 20
-459.8415439893542
 30
0.0
 10
604.3393863152753
 20
-460.022611384306
 30
0.0
 10
604.3394073636424
 20
-460.5617344089458
 30
0.0
 10
604.2911115343285
 20
-460.9171235849878
 30
0.0
 10
604.1458189228304
 20
-461.4372279614738
 30
0.0
 10
604.0861392073494
 20
-461.6048077430656
 30
0.0
 10
603.9833751617116
 20
-461.8466370148525
 30
0.0
 10
603.9470151091283
 20
-461.9256929651609
 30
0.0
 10
603.8713162215586
 20
-462.0806161437915
 30
0.0
 10
603.8312949349634
 20
-462.1552054741123
 30
0.0
 10
603.7928932188513
 20
-462.2280208438083
 30
0.0
  0
SPLINE
  5
112
330
1F
100
AcDbEntity
  8
0
  6
SLD-Сплошная
 62
     7
370
    35
100
AcDbSpline
210
0.0
220
0.0
230
1.0
 70
     8
 71
     3
 72
     9
 73
     5
 74
     0
 42
0.000000001
 43
0.00000001
 40
0.9250461524477392
 40
0.9250461524477392
 40
0.9250461524477392
 40
0.9250461524477392
 40
0.9403746966207536
 40
1.0
 40
1.0
 40
1.0
 40
1.0
 10
603.186105418368
 20
-458.3890373873758
 30
0.0
 10
603.1693401442093
 20
-458.3736444341093
 30
0.0
 10
603.0877901271944
 20
-458.29978143102
 30
0.0
 10
603.0079095592059
 20
-458.2313867136882
 30
0.0
 10
602.9443650814275
 20
-458.1769791561919
 30
0.0
  0
SPLINE
  5
113
330
1F
100
AcDbEntity
  8
0
  6
SLD-Сплошная
 62
     7
370
    35
100
AcDbSpline
210
0.0
220
0.0
230
1.0
 70
     8
 71
     3
 72
     8
 73
     4
 74
     0
 42
0.000000001
 43
0.00000001
 40
0.0
 40
0.0
 40
0.0
 40
0.0
 40
1.0
 40
1.0
 40
1.0
 40
1.0
 10
603.1861054183518
 20
-458.3890373873608
 30
0.0
 10
603.2654525294084
 20
-458.4612367437365
 30
0.0
 10
603.3447067366022
 20
-458.5390245864765
 30
0.0
 10
603.4230688492445
 20
-458.622182381952
 30
0.0
  0
LINE
  5
114
330
1F
100
AcDbEntity
  8
0
  6
SLD-Сплошная
 62
     7
370
    35
100
AcDbLine
 10
605.2071067812
 20
-293.3250006407
 30
0.0
 11
605.2071067812
 21
-293.2025
 31
0.0
  0
LINE
  5
115
330
1F
100
AcDbEntity
  8
0
  6
SLD-Сплошная
 62
     7
370
    35
100
AcDbLine
 10
603.7928932189
 20
-293.2025
 30
0.0
 11
605.2071067812
 21
-293.2025
 31
0.0
  0
LINE
  5
116
330
1F
100
AcDbEntity
  8
0
  6
SLD-Сплошная
 62
     7
370
    35
100
AcDbLine
 10
606.0556349186
 20
-293.3250006407
 30
0.0
 11
606.0556349186
 21
-293.2025
 31
0.0
  0
LINE
  5
117
330
1F
100
AcDbEntity
  8
0
  6
SLD-Сплошная
 62
     7
370
    35
100
AcDbLine
 10
606.0556349186
 20
-293.2025
 30
0.0
 11
605.2071067812
 21
-293.2025
 31
0.0
  0
LINE
  5
118
330
1F
100
AcDbEntity
  8
0
  6
SLD-Сплошная
 62
     7
370
    35
100
AcDbLine
 10
592.1866486348
 20
-287.7030495713
 30
0.0
 11
592.1866486348
 21
-293.2024959279
 31
0.0
  0
LINE
  5
119
330
1F
100
AcDbEntity
  8
0
  6
SLD-Сплошная
 62
     7
370
    35
100
AcDbLine
 10
593.3866486348
 20
-287.7030495713
 30
0.0
 11
593.3866486348
 21
-293.2025
 31
0.0
  0
LINE
  5
11A
330
1F
100
AcDbEntity
  8
0
  6
SLD-Сплошная
 62
     7
370
    35
100
AcDbLine
 10
592.1866486348
 20
-510.2025
 30
0.0
 11
593.3866486348
 21
-510.2025
 31
0.0
  0
LINE
  5
11B
330
1F
100
AcDbEntity
  8
0
  6
SLD-Сплошная
 62
     7
370
    35
100
AcDbLine
 10
592.1866486348
 20
-505.2025
 30
0.0
 11
592.1866486348
 21
-510.2025
 31
0.0
  0
LINE
  5
11C
330
1F
100
AcDbEntity
  8
0
  6
SLD-Сплошная
 62
     7
370
    35
100
AcDbLine
 10
593.3866486348
 20
-510.2025
 30
0.0
 11
593.3866486348
 21
-505.2025
 31
0.0
  0
LINE
  5
11D
330
1F
100
AcDbEntity
  8
0
  6
SLD-Сплошная
 62
     7
370
    35
100
AcDbLine
 10
592.1866486348
 20
-480.2025
 30
0.0
 11
592.1866486348
 21
-505.2025
 31
0.0
  0
LINE
  5
11E
330
1F
100
AcDbEntity
  8
0
  6
SLD-Сплошная
 62
     7
370
    35
100
AcDbLine
 10
593.3866486348
 20
-480.2025
 30
0.0
 11
593.3866486348
 21
-505.2025
 31
0.0
  0
LINE
  5
11F
330
1F
100
AcDbEntity
  8
0
  6
SLD-Сплошная
 62
     7
370
    35
100
AcDbLine
 10
591.1866486347
 20
-502.2025
 30
0.0
 11
591.1866486347
 21
-488.2025
 31
0.0
  0
LINE
  5
120
330
1F
100
AcDbEntity
  8
0
  6
SLD-Сплошная
 62
     7
370
    35
100
AcDbLine
 10
593.9866486349
 20
-491.9525
 30
0.0
 11
593.9866486349
 21
-498.4525
 31
0.0
  0
ARC
  5
121
330
1F
100
AcDbEntity
  8
0
  6
SLD-Сплошная
 62
     7
370
    35
100
AcDbCircle
 10
-503.9480844123
 20
-591.8866486347
 30
0.0
 40
0.3000000000000682
100
AcDbArc
 50
270.0
 51
315.0
  0
ARC
  5
122
330
1F
100
AcDbEntity
  8
0
  6
SLD-Сплошная
 62
     7
370
    35
100
AcDbCircle
 10
-486.4569155877
 20
-591.8866486347
 30
0.0
 40
0.3000000000000682
100
AcDbArc
 50
225.0
 51
270.0
  0
LINE
  5
123
330
1F
100
AcDbEntity
  8
0
  6
SLD-Сплошная
 62
     7
370
    35
100
AcDbLine
 10
-503.7359523779
 20
-592.0987806691
 30
0.0
 11
-503.2631601718
 21
-591.6259884629
 31
0.0
  0
LINE
  5
124
330
1F
100
AcDbEntity
  8
0
  6
SLD-Сплошная
 62
     7
370
    35
100
AcDbLine
 10
-487.1418398282
 20
-591.6259884629
 30
0.0
 11
-486.6690476221
 21
-592.0987806691
 31
0.0
  0
ARC
  5
125
330
1F
100
AcDbEntity
  8
0
  6
SLD-Сплошная
 62
     7
370
    35
100
AcDbCircle
 10
-488.2025
 20
-592.6866486347
 30
0.0
 40
1.500000000000012
100
AcDbArc
 50
45.0
 51
90.0
  0
ARC
  5
126
330
1F
100
AcDbEntity
  8
0
  6
SLD-Сплошная
 62
     7
370
    35
100
AcDbCircle
 10
-502.2025
 20
-592.6866486347
 30
0.0
 40
1.500000000000093
100
AcDbArc
 50
90.0
 51
135.0
  0
LINE
  5
127
330
1F
100
AcDbEntity
  8
0
  6
SLD-Сплошная
 62
     7
370
    35
100
AcDbLine
 10
-491.9525
 20
-593.3866486348
 30
0.0
 11
-491.9525
 21
-593.9866486349
 31
0.0
  0
LINE
  5
128
330
1F
100
AcDbEntity
  8
0
  6
SLD-Сплошная
 62
     7
370
    35
100
AcDbLine
 10
-498.4525
 20
-593.9866486349
 30
0.0
 11
-498.4525
 21
-593.3866486348
 31
0.0
  0
ARC
  5
129
330
1F
100
AcDbEntity
  8
0
  6
SLD-Сплошная
 62
     7
370
    35
100
AcDbCircle
 10
248.0519155877
 20
-591.8866486347
 30
0.0
 40
0.3000000000000748
100
AcDbArc
 50
270.0
 51
315.0
  0
ARC
  5
12A
330
1F
100
AcDbEntity
  8
0
  6
SLD-Сплошная
 62
     7
370
    35
100
AcDbCircle
 10
265.5430844123
 20
-591.8866486347
 30
0.0
 40
0.3000000000000748
100
AcDbArc
 50
225.0
 51
270.0
  0
LINE
  5
12B
330
1F
100
AcDbEntity
  8
0
  6
SLD-Сплошная
 62
     7
370
    35
100
AcDbLine
 10
248.2640476221
 20
-592.0987806691
 30
0.0
 11
248.7368398282
 21
-591.6259884629
 31
0.0
  0
LINE
  5
12C
330
1F
100
AcDbEntity
  8
0
  6
SLD-Сплошная
 62
     7
370
    35
100
AcDbLine
 10
264.8581601718
 20
-591.6259884629
 30
0.0
 11
265.3309523779
 21
-592.0987806691
 31
0.0
  0
ARC
  5
12D
330
1F
100
AcDbEntity
  8
0
  6
SLD-Сплошная
 62
     7
370
    35
100
AcDbCircle
 10
263.7975
 20
-592.6866486347
 30
0.0
 40
1.500000000000093
100
AcDbArc
 50
45.0
 51
90.0
  0
ARC
  5
12E
330
1F
100
AcDbEntity
  8
0
  6
SLD-Сплошная
 62
     7
370
    35
100
AcDbCircle
 10
249.7975
 20
-592.6866486347
 30
0.0
 40
1.500000000000072
100
AcDbArc
 50
90.0
 51
135.0
  0
LINE
  5
12F
330
1F
100
AcDbEntity
  8
0
  6
SLD-Сплошная
 62
     7
370
    35
100
AcDbLine
 10
260.0475
 20
-593.3866486348
 30
0.0
 11
260.0475
 21
-593.9866486349
 31
0.0
  0
LINE
  5
130
330
1F
100
AcDbEntity
  8
0
  6
SLD-Сплошная
 62
     7
370
    35
100
AcDbLine
 10
253.5475
 20
-593.9866486349
 30
0.0
 11
253.5475
 21
-593.3866486348
 31
0.0
  0
LINE
  5
131
330
1F
100
AcDbEntity
  8
0
  6
SLD-Сплошная
 62
     7
370
    35
100
AcDbLine
 10
-460.3558717255
 20
-599.7724350724
 30
0.0
 11
-460.0491282745
 21
-599.7724350724
 31
0.0
  0
LINE
  5
132
330
1F
100
AcDbEntity
  8
0
  6
SLD-Сплошная
 62
     7
370
    35
100
AcDbLine
 10
-293.2025
 20
-594.3866486348
 30
0.0
 11
-293.2025
 21
-599.7724350724
 31
0.0
  0
LINE
  5
133
330
1F
100
AcDbEntity
  8
0
  6
SLD-Сплошная
 62
     7
370
    35
100
AcDbLine
 10
-480.2025
 20
-594.3866486348
 30
0.0
 11
-480.2025
 21
-599.7724350724
 31
0.0
  0
LINE
  5
134
330
1F
100
AcDbEntity
  8
0
  6
SLD-Сплошная
 62
     7
370
    35
100
AcDbLine
 10
-293.2025
 20
-599.7724350724
 30
0.0
 11
-293.2025
 21
-601.328069991
 31
0.0
  0
SPLINE
  5
135
330
1F
100
AcDbEntity
  8
0
  6
SLD-Сплошная
 62
     7
370
    35
100
AcDbSpline
210
0.0
220
0.0
230
1.0
 70
     8
 71
     3
 72
    16
 73
    12
 74
     0
 42
0.000000001
 43
0.00000001
 40
0.0
 40
0.0
 40
0.0
 40
0.0
 40
0.2500000000000067
 40
0.2500000000000067
 40
0.5000000000000133
 40
0.5000000000000133
 40
0.75000000000002
 40
0.75000000000002
 40
0.87500000000001
 40
0.87500000000001
 40
1.0
 40
1.0
 40
1.0
 40
1.0
 10
-457.9845137623022
 20
-601.3280699910362
 30
0.0
 10
-458.0871214952243
 20
-601.1773063231758
 30
0.0
 10
-458.2010024936544
 20
-601.0130711993347
 30
0.0
 10
-458.470813454018
 20
-600.6770625203073
 30
0.0
 10
-458.6236755944711
 20
-600.5082589956492
 30
0.0
 10
-458.9683402151543
 20
-600.2031040211403
 30
0.0
 10
-459.1628356051542
 20
-600.0656910797262
 30
0.0
 10
-459.4783519754828
 20
-599.9121251393565
 30
0.0
 10
-459.5888135598939
 20
-599.8677357877792
 30
0.0
 10
-459.8155866013562
 20
-599.8044739390091
 30
0.0
 10
-459.932311057212
 20
-599.788240338016
 30
0.0
 10
-460.0491282744644
 20
-599.7724350724259
 30
0.0
  0
SPLINE
  5
136
330
1F
100
AcDbEntity
  8
0
  6
SLD-Сплошная
 62
     7
370
    35
100
AcDbSpline
210
0.0
220
0.0
230
1.0
 70
    24
 71
     3
 72
    19
 73
    15
 74
     0
 42
0.000000001
 43
0.00000001
 40
0.0
 40
0.0
 40
0.0
 40
0.0
 40
0.0526315789473854
 40
0.1052631578947668
 40
0.1578947368421342
 40
0.2105263157895294
 40
0.2631578947368028
 40
0.3157894736841764
 40
0.3684210526315536
 40
0.4210526315789289
 40
0.4736842105263366
 40
0.5263157894736964
 40
0.5789473684210495
 40
0.6146345929188873
 40
0.6146345929188873
 40
0.6146345929188873
 40
0.6146345929188873
 10
-480.2025000000002
 20
-599.7724350724259
 30
0.0
 10
-480.2025000000002
 20
-599.802748685258
 30
0.0
 10
-480.2025000000002
 20
-599.8633759109226
 30
0.0
 10
-480.2025000000002
 20
-599.9541613785226
 30
0.0
 10
-480.2025000000002
 20
-600.0446363697765
 30
0.0
 10
-480.2025000000002
 20
-600.1346463096817
 30
0.0
 10
-480.2025000000002
 20
-600.2240374177571
 30
0.0
 10
-480.2025000000002
 20
-600.312656970827
 30
0.0
 10
-480.2025000000002
 20
-600.400353563748
 30
0.0
 10
-480.2025000000002
 20
-600.4869773688238
 30
0.0
 10
-480.2025000000001
 20
-600.5723803890135
 30
0.0
 10
-480.2025000000002
 20
-600.6564167211193
 30
0.0
 10
-480.2025000000002
 20
-600.730086546245
 30
0.0
 10
-480.2025000000002
 20
-600.7754727644169
 30
0.0
 10
-480.2025000000002
 20
-600.7936783775409
 30
0.0
  0
SPLINE
  5
137
330
1F
100
AcDbEntity
  8
0
  6
SLD-Сплошная
 62
     7
370
    35
100
AcDbSpline
210
0.0
220
0.0
230
1.0
 70
     8
 71
     3
 72
     8
 73
     4
 74
     0
 42
0.000000001
 43
0.00000001
 40
0.0
 40
0.0
 40
0.0
 40
0.0
 40
1.0
 40
1.0
 40
1.0
 40
1.0
 10
-480.2014998999751
 20
-601.3280699910365
 30
0.0
 10
-480.2014998999754
 20
-601.1699148938791
 30
0.0
 10
-480.202500000058
 20
-600.9917851644377
 30
0.0
 10
-480.2024999999962
 20
-600.79367837428
 30
0.0
  0
SPLINE
  5
138
330
1F
100
AcDbEntity
  8
0
  6
SLD-Сплошная
 62
     7
370
    35
100
AcDbSpline
210
0.0
220
0.0
230
1.0
 70
     8
 71
     3
 72
     8
 73
     4
 74
     0
 42
0.000000001
 43
0.00000001
 40
0.0
 40
0.0
 40
0.0
 40
0.0
 40
1.0
 40
1.0
 40
1.0
 40
1.0
 10
-462.2325377475011
 20
-601.0588433439353
 30
0.0
 10
-462.1676887523863
 20
-600.9689537523299
 30
0.0
 10
-462.0971237031168
 20
-600.8777662796434
 30
0.0
 10
-462.0209841797279
 20
-600.7860571273776
 30
0.0
  0
SPLINE
  5
139
330
1F
100
AcDbEntity
  8
0
  6
SLD-Сплошная
 62
     7
370
    35
100
AcDbSpline
210
0.0
220
0.0
230
1.0
 70
     8
 71
     3
 72
    10
 73
     6
 74
     0
 42
0.000000001
 43
0.00000001
 40
0.0
 40
0.0
 40
0.0
 40
0.0
 40
0.2565560513110623
 40
0.5898555227510711
 40
1.0
 40
1.0
 40
1.0
 40
1.0
 10
-462.2325377475046
 20
-601.0588433439402
 30
0.0
 10
-462.2494499979826
 20
-601.0828031536431
 30
0.0
 10
-462.2883334478005
 20
-601.1378898530411
 30
0.0
 10
-462.3505116170775
 20
-601.2291042090606
 30
0.0
 10
-462.395607603733
 20
-601.2928838986645
 30
0.0
 10
-462.420486237698
 20
-601.3280699910362
 30
0.0
  0
SPLINE
  5
13A
330
1F
100
AcDbEntity
  8
0
  6
SLD-Сплошная
 62
     7
370
    35
100
AcDbSpline
210
0.0
220
0.0
230
1.0
 70
     8
 71
     3
 72
    14
 73
    10
 74
     0
 42
0.000000001
 43
0.00000001
 40
0.0
 40
0.0
 40
0.0
 40
0.0
 40
0.25
 40
0.25
 40
0.5
 40
0.5
 40
0.75
 40
0.75
 40
1.0
 40
1.0
 40
1.0
 40
1.0
 10
-460.3558717255357
 20
-599.7724350724259
 30
0.0
 10
-460.5257817528721
 20
-599.7887020552841
 30
0.0
 10
-460.690364572699
 20
-599.8256449350063
 30
0.0
 10
-461.0080136350022
 20
-599.9439951908023
 30
0.0
 10
-461.1594184128779
 20
-600.0237126295913
 30
0.0
 10
-461.4398554163618
 20
-600.2096560514063
 30
0.0
 10
-461.5715259648001
 20
-600.3175758161198
 30
0.0
 10
-461.8109609136771
 20
-600.544499930282
 30
0.0
 10
-461.9198671177115
 20
-600.6642628262786
 30
0.0
 10
-462.020984179728
 20
-600.7860571273776
 30
0.0
  0
LINE
  5
13B
330
1F
100
AcDbEntity
  8
0
  6
SLD-Сплошная
 62
     7
370
    35
100
AcDbLine
 10
-293.2025
 20
-592.1866486348
 30
0.0
 11
-293.2025
 21
-594.3866486348
 31
0.0
  0
LINE
  5
13C
330
1F
100
AcDbEntity
  8
0
  6
SLD-Сплошная
 62
     7
370
    35
100
AcDbLine
 10
-480.2025
 20
-592.1866486348
 30
0.0
 11
-293.2025
 21
-592.1866486348
 31
0.0
  0
LINE
  5
13D
330
1F
100
AcDbEntity
  8
0
  6
SLD-Сплошная
 62
     7
370
    35
100
AcDbLine
 10
-480.2025
 20
-594.2049740747
 30
0.0
 11
-480.2025
 21
-594.0245405361
 31
0.0
  0
SPLINE
  5
13E
330
1F
100
AcDbEntity
  8
0
  6
SLD-Сплошная
 62
     7
370
    35
100
AcDbSpline
210
0.0
220
0.0
230
1.0
 70
    24
 71
     3
 72
    17
 73
    13
 74
     0
 42
0.000000001
 43
0.00000001
 40
0.0
 40
0.0
 40
0.0
 40
0.0
 40
0.062906968580654
 40
0.1254057023369704
 40
0.1877206706526476
 40
0.2500783274490275
 40
0.3749241914104302
 40
0.5000518229140737
 40
0.6249063797877741
 40
0.7500252981880202
 40
0.8749473691587373
 40
1.0
 40
1.0
 40
1.0
 40
1.0
 10
-480.2025000000119
 20
-594.0245405361296
 30
0.0
 10
-480.2025000000114
 20
-593.9807218321868
 30
0.0
 10
-480.2025000000106
 20
-593.8933687858163
 30
0.0
 10
-480.2025000000092
 20
-593.7647341062587
 30
0.0
 10
-480.2025000000081
 20
-593.6386346554953
 30
0.0
 10
-480.2025000000064
 20
-593.4742145353903
 30
0.0
 10
-480.2025000000045
 20
-593.2761122194225
 30
0.0
 10
-480.2025000000023
 20
-593.0548213815975
 30
0.0
 10
-480.2025000000004
 20
-592.8524107799054
 30
0.0
 10
-480.2024999999986
 20
-592.6732712997049
 30
0.0
 10
-480.2024999999973
 20
-592.5166539938459
 30
0.0
 10
-480.2024999999965
 20
-592.4358072089144
 30
0.0
 10
-480.2024999999962
 20
-592.3953627036205
 30
0.0
  0
LINE
  5
13F
330
1F
100
AcDbEntity
  8
0
  6
SLD-Сплошная
 62
     7
370
    35
100
AcDbLine
 10
-480.2025
 20
-592.3953633387
 30
0.0
 11
-480.2025
 21
-592.2539680497
 31
0.0
  0
SPLINE
  5
140
330
1F
100
AcDbEntity
  8
0
  6
SLD-Сплошная
 62
     7
370
    35
100
AcDbSpline
210
0.0
220
0.0
230
1.0
 70
    24
 71
     3
 72
     9
 73
     5
 74
     0
 42
0.000000001
 43
0.00000001
 40
0.0
 40
0.0
 40
0.0
 40
0.0
 40
0.5834607517538837
 40
1.0
 40
1.0
 40
1.0
 40
1.0
 10
-480.2025000000156
 20
-594.3866486347989
 30
0.0
 10
-480.2025000000152
 20
-594.3512893079184
 30
0.0
 10
-480.2025000000146
 20
-594.2906865565348
 30
0.0
 10
-480.202500000014
 20
-594.230178185931
 30
0.0
 10
-480.2025000000137
 20
-594.204974074727
 30
0.0
  0
ARC
  5
141
330
1F
100
AcDbEntity
  8
0
  6
SLD-Сплошная
 62
     7
370
    35
100
AcDbCircle
 10
-475.646899324
 20
-603.9071389812
 30
0.0
 40
4.926297871252284
100
AcDbArc
 50
205.8570855409
 51
275.1756649097
  0
ARC
  5
142
330
1F
100
AcDbEntity
  8
0
  6
SLD-Сплошная
 62
     7
370
    35
100
AcDbCircle
 10
-475.646899324
 20
-603.0586108438
 30
0.0
 40
4.9262978712529
100
AcDbArc
 50
205.8570855409
 51
275.1756649097
  0
SPLINE
  5
143
330
1F
100
AcDbEntity
  8
0
  6
SLD-Сплошная
 62
     7
370
    35
100
AcDbSpline
210
0.0
220
0.0
230
1.0
 70
     8
 71
     3
 72
    14
 73
    10
 74
     0
 42
0.000000001
 43
0.00000001
 40
0.0
 40
0.0
 40
0.0
 40
0.0
 40
0.25
 40
0.25
 40
0.5
 40
0.5
 40
0.75
 40
0.75
 40
1.0
 40
1.0
 40
1.0
 40
1.0
 10
-480.07999935929
 20
-605.2071067812236
 30
0.0
 10
-480.1092004995195
 20
-605.1155502462958
 30
0.0
 10
-480.1325899554656
 20
-605.0070192271858
 30
0.0
 10
-480.1678095961851
 20
-604.7662909581513
 30
0.0
 10
-480.1794068877502
 20
-604.6352914196603
 30
0.0
 10
-480.1941788677505
 20
-604.3735069180065
 30
0.0
 10
-480.1975660798639
 20
-604.2411906674469
 30
0.0
 10
-480.2011463327104
 20
-603.9990223844617
 30
0.0
 10
-480.2014998999686
 20
-603.8867743601576
 30
0.0
 10
-480.2014998999688
 20
-603.792893218849
 30
0.0
  0
LINE
  5
144
330
1F
100
AcDbEntity
  8
0
  6
SLD-Сплошная
 62
     7
370
    35
100
AcDbLine
 10
-480.2014999
 20
-603.7928932188
 30
0.0
 11
-480.2014999
 21
-601.328069991
 31
0.0
  0
LINE
  5
145
330
1F
100
AcDbEntity
  8
0
  6
SLD-Сплошная
 62
     7
370
    35
100
AcDbLine
 10
-480.2025
 20
-601.2573593129
 30
0.0
 11
-480.2025
 21
-603.7221825406
 31
0.0
  0
LINE
  5
146
330
1F
100
AcDbEntity
  8
0
  6
SLD-Сплошная
 62
     7
370
    35
100
AcDbLine
 10
-480.2025
 20
-603.7221825406
 30
0.0
 11
-480.2025
 21
-605.0694506426
 31
0.0
  0
SPLINE
  5
147
330
1F
100
AcDbEntity
  8
0
  6
SLD-Сплошная
 62
     7
370
    35
100
AcDbSpline
210
0.0
220
0.0
230
1.0
 70
     8
 71
     3
 72
    10
 73
     6
 74
     0
 42
0.000000001
 43
0.00000001
 40
0.0
 40
0.0
 40
0.0
 40
0.0
 40
0.5
 40
0.5
 40
1.0
 40
1.0
 40
1.0
 40
1.0
 10
-480.2024999998964
 20
-605.0694351905769
 30
0.0
 10
-480.2024989923274
 20
-605.2576836723811
 30
0.0
 10
-480.1939880651276
 20
-605.4349410334501
 30
0.0
 10
-480.1541992627158
 20
-605.7679634975252
 30
0.0
 10
-480.1228809774793
 20
-605.9211849504993
 30
0.0
 10
-480.0799993592896
 20
-606.0556349186418
 30
0.0
  0
LINE
  5
148
330
1F
100
AcDbEntity
  8
0
  6
SLD-Сплошная
 62
     7
370
    35
100
AcDbLine
 10
-480.2025
 20
-600.7936783776
 30
0.0
 11
-480.2025
 21
-601.2573593129
 31
0.0
  0
ARC
  5
149
330
1F
100
AcDbEntity
  8
0
  6
SLD-Сплошная
 62
     7
370
    35
100
AcDbCircle
 10
-297.758100676
 20
-603.0586108438
 30
0.0
 40
4.926297871253244
100
AcDbArc
 50
264.8243350903
 51
334.1429144591
  0
ARC
  5
14A
330
1F
100
AcDbEntity
  8
0
  6
SLD-Сплошная
 62
     7
370
    35
100
AcDbCircle
 10
-297.758100676
 20
-603.9071389813
 30
0.0
 40
4.926297871212408
100
AcDbArc
 50
264.8243350901
 51
334.1429144598
  0
LINE
  5
14B
330
1F
100
AcDbEntity
  8
0
  6
SLD-Сплошная
 62
     7
370
    35
100
AcDbLine
 10
-293.3250006407
 20
-606.0556349186
 30
0.0
 11
-293.3250006407
 21
-605.2071067812
 31
0.0
  0
LINE
  5
14C
330
1F
100
AcDbEntity
  8
0
  6
SLD-Сплошная
 62
     7
370
    35
100
AcDbLine
 10
-475.2025
 20
-607.9648232279
 30
0.0
 11
-298.2025
 21
-607.9648232279
 31
0.0
  0
LINE
  5
14D
330
1F
100
AcDbEntity
  8
0
  6
SLD-Сплошная
 62
     7
370
    35
100
AcDbLine
 10
-475.2025
 20
-608.8133513653
 30
0.0
 11
-298.2025
 21
-608.8133513653
 31
0.0
  0
ARC
  5
14E
330
1F
100
AcDbEntity
  8
0
  6
SLD-Сплошная
 62
     7
370
    35
100
AcDbCircle
 10
-461.3885962606
 20
-602.4874209307
 30
0.0
 40
1.552060413127899
100
AcDbArc
 50
131.6709478884
 51
237.2587992148
  0
LINE
  5
14F
330
1F
100
AcDbEntity
  8
0
  6
SLD-Сплошная
 62
     7
370
    35
100
AcDbLine
 10
-462.2280208438
 20
-602.9443650814
 30
0.0
 11
-462.2280208438
 21
-603.7928932188
 31
0.0
  0
ARC
  5
150
330
1F
100
AcDbEntity
  8
0
  6
SLD-Сплошная
 62
     7
370
    35
100
AcDbCircle
 10
-461.1754190907
 20
-601.4781136052
 30
0.0
 40
1.804955357402032
100
AcDbArc
 50
198.5852032828
 51
234.3259541545
  0
LINE
  5
151
330
1F
100
AcDbEntity
  8
0
  6
SLD-Сплошная
 62
     7
370
    35
100
AcDbLine
 10
-293.2025
 20
-601.328069991
 30
0.0
 11
-293.2025
 21
-603.7928932188
 31
0.0
  0
ARC
  5
152
330
1F
100
AcDbEntity
  8
0
  6
SLD-Сплошная
 62
     7
370
    35
100
AcDbCircle
 10
-459.0164037394
 20
-602.4874209307
 30
0.0
 40
1.552060413127926
100
AcDbArc
 50
302.7412007852
 51
48.3290521116
  0
ARC
  5
153
330
1F
100
AcDbEntity
  8
0
  6
SLD-Сплошная
 62
     7
370
    35
100
AcDbCircle
 10
-459.2295809093
 20
-601.4781136052
 30
0.0
 40
1.804955357399724
100
AcDbArc
 50
305.6740458455
 51
341.4147967171
  0
LINE
  5
154
330
1F
100
AcDbEntity
  8
0
  6
SLD-Сплошная
 62
     7
370
    35
100
AcDbLine
 10
-458.1769791562
 20
-602.9443650814
 30
0.0
 11
-458.1769791562
 21
-603.7928932188
 31
0.0
  0
LINE
  5
155
330
1F
100
AcDbEntity
  8
0
  6
SLD-Сплошная
 62
     7
370
    35
100
AcDbLine
 10
-293.3250006407
 20
-605.2071067812
 30
0.0
 11
-293.2025
 21
-605.2071067812
 31
0.0
  0
LINE
  5
156
330
1F
100
AcDbEntity
  8
0
  6
SLD-Сплошная
 62
     7
370
    35
100
AcDbLine
 10
-293.2025
 20
-603.7928932188
 30
0.0
 11
-293.2025
 21
-605.2071067812
 31
0.0
  0
SPLINE
  5
157
330
1F
100
AcDbEntity
  8
0
  6
SLD-Сплошная
 62
     7
370
    35
100
AcDbSpline
210
0.0
220
0.0
230
1.0
 70
     8
 71
     3
 72
    18
 73
    14
 74
     0
 42
0.000000001
 43
0.00000001
 40
0.0
 40
0.0
 40
0.0
 40
0.0
 40
0.1250000000000042
 40
0.1250000000000042
 40
0.2500000000000085
 40
0.2500000000000085
 40
0.5000000000000058
 40
0.5000000000000058
 40
0.750000000000003
 40
0.750000000000003
 40
0.8750000000000016
 40
0.8750000000000016
 40
1.0
 40
1.0
 40
1.0
 40
1.0
 10
-458.1769791561919
 20
-603.7928932188503
 30
0.0
 10
-458.3049519469257
 20
-603.8603841180975
 30
0.0
 10
-458.4379034546616
 20
-603.9292558631212
 30
0.0
 10
-458.7183539494469
 20
-604.0532434413769
 30
0.0
 10
-458.8661737220249
 20
-604.1098615809747
 30
0.0
 10
-459.3151843828963
 20
-604.2513281575871
 30
0.0
 10
-459.6237556611076
 20
-604.3097917187954
 30
0.0
 10
-460.2573084290108
 20
-604.3516952815744
 30
0.0
 10
-460.5713869210639
 20
-604.3348479799234
 30
0.0
 10
-461.0366195872945
 20
-604.2537379987161
 30
0.0
 10
-461.1916356183249
 20
-604.2169087928668
 30
0.0
 10
-461.4931264904047
 20
-604.125994091238
 30
0.0
 10
-461.6399263921326
 20
-604.0715641245139
 30
0.0
 10
-461.7828176180566
 20
-604.010485840582
 30
0.0
  0
SPLINE
  5
158
330
1F
100
AcDbEntity
  8
0
  6
SLD-Сплошная
 62
     7
370
    35
100
AcDbSpline
210
0.0
220
0.0
230
1.0
 70
     8
 71
     3
 72
     9
 73
     5
 74
     0
 42
0.000000001
 43
0.00000001
 40
0.0596253033792507
 40
0.0596253033792507
 40
0.0596253033792507
 40
0.0596253033792507
 40
0.1060440209056105
 40
0.1213725650786651
 40
0.1213725650786651
 40
0.1213725650786651
 40
0.1213725650786651
 10
-461.7828176180569
 20
-604.0104858405817
 30
0.0
 10
-461.8427744579113
 20
-603.9847712308165
 30
0.0
 10
-461.9213768267264
 20
-603.9490383674301
 30
0.0
 10
-461.9973025184517
 20
-603.9120267093308
 30
0.0
 10
-462.015962612644
 20
-603.9027751901773
 30
0.0
  0
SPLINE
  5
159
330
1F
100
AcDbEntity
  8
0
  6
SLD-Сплошная
 62
     7
370
    35
100
AcDbSpline
210
0.0
220
0.0
230
1.0
 70
     8
 71
     3
 72
     8
 73
     4
 74
     0
 42
0.000000001
 43
0.00000001
 40
0.0
 40
0.0
 40
0.0
 40
0.0
 40
1.0
 40
1.0
 40
1.0
 40
1.0
 10
-462.0159626126293
 20
-603.9027751901847
 30
0.0
 10
-462.0887089639071
 20
-603.8662622664242
 30
0.0
 10
-462.158276311777
 20
-603.8281904021268
 30
0.0
 10
-462.2280208438083
 20
-603.7928932188503
 30
0.0
  0
SPLINE
  5
15A
330
1F
100
AcDbEntity
  8
0
  6
SLD-Сплошная
 62
     7
370
    35
100
AcDbSpline
210
0.0
220
0.0
230
1.0
 70
     8
 71
     3
 72
    26
 73
    22
 74
     0
 42
0.000000001
 43
0.00000001
 40
0.0
 40
0.0
 40
0.0
 40
0.0
 40
0.0624999999999884
 40
0.0624999999999884
 40
0.1249999999999767
 40
0.1249999999999767
 40
0.2499999999999785
 40
0.2499999999999785
 40
0.3749999999999803
 40
0.3749999999999803
 40
0.4999999999999821
 40
0.4999999999999821
 40
0.6249999999999839
 40
0.6249999999999839
 40
0.7499999999999857
 40
0.7499999999999857
 40
0.8749999999999876
 40
0.8749999999999876
 40
0.9374999999999938
 40
0.9374999999999938
 40
1.0
 40
1.0
 40
1.0
 40
1.0
 10
-458.1769791561919
 20
-602.9443650814266
 30
0.0
 10
-458.2320108814294
 20
-603.0082540304279
 30
0.0
 10
-458.2884142750621
 20
-603.0755072604958
 30
0.0
 10
-458.4118043753647
 20
-603.211899252571
 30
0.0
 10
-458.4782102236969
 20
-603.2820382012695
 30
0.0
 10
-458.6870913502001
 20
-603.4890631784275
 30
0.0
 10
-458.8398477454372
 20
-603.623029541534
 30
0.0
 10
-459.1842287783591
 20
-603.8625613840434
 30
0.0
 10
-459.3711859386449
 20
-603.9643775266189
 30
0.0
 10
-459.7738731867895
 20
-604.1072546844982
 30
0.0
 10
-459.985339861026
 20
-604.1463643403522
 30
0.0
 10
-460.4144619403791
 20
-604.1469442338754
 30
0.0
 10
-460.6256135496029
 20
-604.1086718772889
 30
0.0
 10
-461.0298966895252
 20
-603.9662867598764
 30
0.0
 10
-461.216859102779
 20
-603.8649444174891
 30
0.0
 10
-461.5627350157083
 20
-603.6250617619121
 30
0.0
 10
-461.7163183160355
 20
-603.4903344231009
 30
0.0
 10
-461.9262040349833
 20
-603.2832244143236
 30
0.0
 10
-461.992490935604
 20
-603.2130567044275
 30
0.0
 10
-462.1145488221168
 20
-603.0755169948173
 30
0.0
 10
-462.1711528344743
 20
-603.0079767136513
 30
0.0
 10
-462.2280208438081
 20
-602.9443650814266
 30
0.0
  0
LINE
  5
15B
330
1F
100
AcDbEntity
  8
0
  6
SLD-Сплошная
 62
     7
370
    35
100
AcDbLine
 10
-293.2025
 20
-606.0556349186
 30
0.0
 11
-293.2025
 21
-605.2071067812
 31
0.0
  0
LINE
  5
15C
330
1F
100
AcDbEntity
  8
0
  6
SLD-Сплошная
 62
     7
370
    35
100
AcDbLine
 10
-293.3250006407
 20
-606.0556349186
 30
0.0
 11
-293.2025
 21
-606.0556349186
 31
0.0
  0
LINE
  5
15D
330
1F
100
AcDbEntity
  8
0
  6
SLD-Сплошная
 62
     7
370
    35
100
AcDbLine
 10
-505.2025
 20
-592.1866486348
 30
0.0
 11
-480.2025
 21
-592.1866486348
 31
0.0
  0
LINE
  5
15E
330
1F
100
AcDbEntity
  8
0
  6
SLD-Сплошная
 62
     7
370
    35
100
AcDbLine
 10
-505.2025
 20
-593.3866486348
 30
0.0
 11
-480.2025
 21
-593.3866486348
 31
0.0
  0
LINE
  5
15F
330
1F
100
AcDbEntity
  8
0
  6
SLD-Сплошная
 62
     7
370
    35
100
AcDbLine
 10
-510.2025
 20
-592.1866486348
 30
0.0
 11
-510.2025
 21
-593.3866486348
 31
0.0
  0
LINE
  5
160
330
1F
100
AcDbEntity
  8
0
  6
SLD-Сплошная
 62
     7
370
    35
100
AcDbLine
 10
-505.2025
 20
-592.1866486348
 30
0.0
 11
-510.2025
 21
-592.1866486348
 31
0.0
  0
LINE
  5
161
330
1F
100
AcDbEntity
  8
0
  6
SLD-Сплошная
 62
     7
370
    35
100
AcDbLine
 10
-510.2025
 20
-593.3866486348
 30
0.0
 11
-505.2025
 21
-593.3866486348
 31
0.0
  0
LINE
  5
162
330
1F
100
AcDbEntity
  8
0
  6
SLD-Сплошная
 62
     7
370
    35
100
AcDbLine
 10
-287.7025366486
 20
-593.3866486348
 30
0.0
 11
-287.7025366486
 21
-592.1866486348
 31
0.0
  0
LINE
  5
163
330
1F
100
AcDbEntity
  8
0
  6
SLD-Сплошная
 62
     7
370
    35
100
AcDbLine
 10
-293.2025
 20
-592.1866486348
 30
0.0
 11
-287.7025366486
 21
-592.1866486348
 31
0.0
  0
LINE
  5
164
330
1F
100
AcDbEntity
  8
0
  6
SLD-Сплошная
 62
     7
370
    35
100
AcDbLine
 10
-293.2024959279
 20
-593.3866486348
 30
0.0
 11
-287.7025366486
 21
-593.3866486348
 31
0.0
  0
LINE
  5
165
330
1F
100
AcDbEntity
  8
0
  6
SLD-Сплошная
 62
     7
370
    35
100
AcDbLine
 10
505.7785701156
 20
-592.1866486348
 30
0.0
 11
505.7785701156
 21
-593.3866486348
 31
0.0
  0
LINE
  5
166
330
1F
100
AcDbEntity
  8
0
  6
SLD-Сплошная
 62
     7
370
    35
100
AcDbLine
 10
505.7785701156
 20
-592.1866486348
 30
0.0
 11
-287.7025366486
 21
-592.1866486348
 31
0.0
  0
LINE
  5
167
330
1F
100
AcDbEntity
  8
0
  6
SLD-Сплошная
 62
     7
370
    35
100
AcDbLine
 10
505.7785701156
 20
-593.3866486348
 30
0.0
 11
-287.7025366486
 21
-593.3866486348
 31
0.0
  0
LINE
  5
168
330
1F
100
AcDbEntity
  8
0
  6
SLD-Сплошная
 62
     7
370
    35
100
AcDbLine
 10
-488.2025
 20
-591.1866486347
 30
0.0
 11
-502.2025
 21
-591.1866486347
 31
0.0
  0
LINE
  5
169
330
1F
100
AcDbEntity
  8
0
  6
SLD-Сплошная
 62
     7
370
    35
100
AcDbLine
 10
-498.4525
 20
-593.9866486349
 30
0.0
 11
-491.9525
 21
-593.9866486349
 31
0.0
  0
LINE
  5
16A
330
1F
100
AcDbEntity
  8
0
  6
SLD-Сплошная
 62
     7
370
    35
100
AcDbLine
 10
505.7975
 20
-593.3866486348
 30
0.0
 11
505.7975
 21
-592.1866486348
 31
0.0
  0
LINE
  5
16B
330
1F
100
AcDbEntity
  8
0
  6
SLD-Сплошная
 62
     7
370
    35
100
AcDbLine
 10
507.9975
 20
-592.1866486348
 30
0.0
 11
505.7975
 21
-592.1866486348
 31
0.0
  0
LINE
  5
16C
330
1F
100
AcDbEntity
  8
0
  6
SLD-Сплошная
 62
     7
370
    35
100
AcDbLine
 10
507.9975
 20
-593.3866486348
 30
0.0
 11
505.7975
 21
-593.3866486348
 31
0.0
  0
LINE
  5
16D
330
1F
100
AcDbEntity
  8
0
  6
SLD-Сплошная
 62
     7
370
    35
100
AcDbLine
 10
7.3552164466
 20
-606.0556349186
 30
0.0
 11
6.5066883092
 21
-605.2071067812
 31
0.0
  0
ARC
  5
16E
330
1F
100
AcDbEntity
  8
0
  6
SLD-Сплошная
 62
     7
370
    35
100
AcDbCircle
 10
5.799581528
 20
-604.5
 30
0.0
 40
0.9999999999999823
100
AcDbArc
 50
315.0
 51
45.0
  0
ARC
  5
16F
330
1F
100
AcDbEntity
  8
0
  6
SLD-Сплошная
 62
     7
370
    35
100
AcDbCircle
 10
5.799581528
 20
-604.5
 30
0.0
 40
2.200000000000018
100
AcDbArc
 50
315.0
 51
45.0
  0
LINE
  5
170
330
1F
100
AcDbEntity
  8
0
  6
SLD-Сплошная
 62
     7
370
    35
100
AcDbLine
 10
4.8903932188
 20
-600.4795418536
 30
0.0
 11
7.3552164466
 21
-602.9443650814
 31
0.0
  0
LINE
  5
171
330
1F
100
AcDbEntity
  8
0
  6
SLD-Сплошная
 62
     7
370
    35
100
AcDbLine
 10
4.0418650814
 20
-601.328069991
 30
0.0
 11
6.5066883092
 21
-603.7928932189
 31
0.0
  0
ARC
  5
172
330
1F
100
AcDbEntity
  8
0
  6
SLD-Сплошная
 62
     7
370
    35
100
AcDbCircle
 10
5.5975
 20
-599.7724350724
 30
0.0
 40
1.0
100
AcDbArc
 50
180.0
 51
225.0
  0
ARC
  5
173
330
1F
100
AcDbEntity
  8
0
  6
SLD-Сплошная
 62
     7
370
    35
100
AcDbCircle
 10
5.5975
 20
-599.7724350724
 30
0.0
 40
2.199999999999979
100
AcDbArc
 50
180.0
 51
225.0
  0
LINE
  5
174
330
1F
100
AcDbEntity
  8
0
  6
SLD-Сплошная
 62
     7
370
    35
100
AcDbLine
 10
3.3975
 20
-594.3866486348
 30
0.0
 11
3.3975
 21
-599.7724350724
 31
0.0
  0
LINE
  5
175
330
1F
100
AcDbEntity
  8
0
  6
SLD-Сплошная
 62
     7
370
    35
100
AcDbLine
 10
4.5975
 20
-594.3866486348
 30
0.0
 11
4.5975
 21
-599.7724350724
 31
0.0
  0
LINE
  5
176
330
1F
100
AcDbEntity
  8
0
  6
SLD-Сплошная
 62
     7
370
    35
100
AcDbLine
 10
506.2397835534
 20
-606.0556349186
 30
0.0
 11
507.0883116908
 21
-605.2071067812
 31
0.0
  0
ARC
  5
177
330
1F
100
AcDbEntity
  8
0
  6
SLD-Сплошная
 62
     7
370
    35
100
AcDbCircle
 10
507.795418472
 20
-604.5
 30
0.0
 40
1.000000000000008
100
AcDbArc
 50
135.0
 51
225.0
  0
ARC
  5
178
330
1F
100
AcDbEntity
  8
0
  6
SLD-Сплошная
 62
     7
370
    35
100
AcDbCircle
 10
507.795418472
 20
-604.5
 30
0.0
 40
2.200000000050912
100
AcDbArc
 50
135.0
 51
225.0
  0
LINE
  5
179
330
1F
100
AcDbEntity
  8
0
  6
SLD-Сплошная
 62
     7
370
    35
100
AcDbLine
 10
508.7046067812
 20
-600.4795418536
 30
0.0
 11
506.2397835533
 21
-602.9443650814
 31
0.0
  0
LINE
  5
17A
330
1F
100
AcDbEntity
  8
0
  6
SLD-Сплошная
 62
     7
370
    35
100
AcDbLine
 10
509.5531349186
 20
-601.328069991
 30
0.0
 11
507.0883116908
 21
-603.7928932189
 31
0.0
  0
ARC
  5
17B
330
1F
100
AcDbEntity
  8
0
  6
SLD-Сплошная
 62
     7
370
    35
100
AcDbCircle
 10
5.5975
 20
-594.3866486348
 30
0.0
 40
2.200000000000012
100
AcDbArc
 50
152.9643082106
 51
180.0
  0
ARC
  5
17C
330
1F
100
AcDbEntity
  8
0
  6
SLD-Сплошная
 62
     7
370
    35
100
AcDbCircle
 10
5.5975
 20
-594.3866486348
 30
0.0
 40
1.0
100
AcDbArc
 50
90.0
 51
180.0
  0
ARC
  5
17D
330
1F
100
AcDbEntity
  8
0
  6
SLD-Сплошная
 62
     7
370
    35
100
AcDbCircle
 10
507.9975
 20
-599.7724350724
 30
0.0
 40
1.000000000000008
100
AcDbArc
 50
315.0
 51
360.0
  0
ARC
  5
17E
330
1F
100
AcDbEntity
  8
0
  6
SLD-Сплошная
 62
     7
370
    35
100
AcDbCircle
 10
507.9975
 20
-599.7724350724
 30
0.0
 40
2.199999999999989
100
AcDbArc
 50
315.0
 51
360.0
  0
LINE
  5
17F
330
1F
100
AcDbEntity
  8
0
  6
SLD-Сплошная
 62
     7
370
    35
100
AcDbLine
 10
508.9975
 20
-594.3866486348
 30
0.0
 11
508.9975
 21
-599.7724350724
 31
0.0
  0
LINE
  5
180
330
1F
100
AcDbEntity
  8
0
  6
SLD-Сплошная
 62
     7
370
    35
100
AcDbLine
 10
510.1975
 20
-594.3866486348
 30
0.0
 11
510.1975
 21
-599.7724350724
 31
0.0
  0
ARC
  5
181
330
1F
100
AcDbEntity
  8
0
  6
SLD-Сплошная
 62
     7
370
    35
100
AcDbCircle
 10
507.9975
 20
-594.3866486348
 30
0.0
 40
2.199999999999989
100
AcDbArc
 50
0.0
 51
90.0
  0
ARC
  5
182
330
1F
100
AcDbEntity
  8
0
  6
SLD-Сплошная
 62
     7
370
    35
100
AcDbCircle
 10
507.9975
 20
-594.3866486348
 30
0.0
 40
1.0
100
AcDbArc
 50
0.0
 51
90.0
  0
LINE
  5
183
330
1F
100
AcDbEntity
  8
0
  6
SLD-Сплошная
 62
     7
370
    35
100
AcDbLine
 10
3.7489718626
 20
-607.9648232279
 30
0.0
 11
4.5975
 21
-608.8133513653
 31
0.0
  0
LINE
  5
184
330
1F
100
AcDbEntity
  8
0
  6
SLD-Сплошная
 62
     7
370
    35
100
AcDbLine
 10
4.5975
 20
-608.8133513653
 30
0.0
 11
7.3552164466
 21
-606.0556349186
 31
0.0
  0
LINE
  5
185
330
1F
100
AcDbEntity
  8
0
  6
SLD-Сплошная
 62
     7
370
    35
100
AcDbLine
 10
6.5066883092
 20
-605.2071067812
 30
0.0
 11
3.7489718626
 21
-607.9648232279
 31
0.0
  0
LINE
  5
186
330
1F
100
AcDbEntity
  8
0
  6
SLD-Сплошная
 62
     7
370
    35
100
AcDbLine
 10
508.9975
 20
-608.8133513653
 30
0.0
 11
509.8460281374
 21
-607.9648232279
 31
0.0
  0
LINE
  5
187
330
1F
100
AcDbEntity
  8
0
  6
SLD-Сплошная
 62
     7
370
    35
100
AcDbLine
 10
509.8460281374
 20
-607.9648232279
 30
0.0
 11
507.0883116908
 21
-605.2071067812
 31
0.0
  0
LINE
  5
188
330
1F
100
AcDbEntity
  8
0
  6
SLD-Сплошная
 62
     7
370
    35
100
AcDbLine
 10
506.2397835534
 20
-606.0556349186
 30
0.0
 11
508.9975
 21
-608.8133513653
 31
0.0
  0
LINE
  5
189
330
1F
100
AcDbEntity
  8
0
  6
SLD-Сплошная
 62
     7
370
    35
100
AcDbLine
 10
249.7975
 20
-591.1866486347
 30
0.0
 11
263.7975
 21
-591.1866486347
 31
0.0
  0
LINE
  5
18A
330
1F
100
AcDbEntity
  8
0
  6
SLD-Сплошная
 62
     7
370
    35
100
AcDbLine
 10
260.0475
 20
-593.9866486349
 30
0.0
 11
253.5475
 21
-593.9866486349
 31
0.0
  0
ENDSEC
  0
SECTION
  2
OBJECTS
  0
DICTIONARY
  5
C
330
0
100
AcDbDictionary
281
     1
  3
ACAD_DETAILVIEWSTYLE
350
192
  3
ACAD_GROUP
350
D
  3
ACAD_LAYOUT
350
1A
  3
ACAD_MATERIAL
350
43
  3
ACAD_MLEADERSTYLE
350
6B
  3
ACAD_MLINESTYLE
350
17
  3
ACAD_PLOTSETTINGS
350
19
  3
ACAD_PLOTSTYLENAME
350
E
  3
ACAD_SCALELIST
350
47
  3
ACAD_SECTIONVIEWSTYLE
350
193
  3
ACAD_TABLESTYLE
350
69
  3
ACAD_VISUALSTYLE
350
2A
  3
ACDB_RECOMPOSE_DATA
350
18F
  3
AcDbVariableDictionary
350
18B
  0
SUN
  5
6D
330
29
100
AcDbSun
 90
        1
290
     0
 63
     7
421
 16777215
 40
1.0
291
     1
 91
  2455826
 92
 54000000
292
     0
 70
     2
 71
   256
280
     1
  0
DICTIONARY
  5
192
102
{ACAD_REACTORS
330
C
102
}
330
C
100
AcDbDictionary
281
     1
  0
DICTIONARY
  5
D
102
{ACAD_REACTORS
330
C
102
}
330
C
100
AcDbDictionary
281
     1
  0
DICTIONARY
  5
1A
102
{ACAD_REACTORS
330
C
102
}
330
C
100
AcDbDictionary
281
     1
  3
Layout1
350
1E
  3
Layout2
350
26
  3
Model
350
22
  0
DICTIONARY
  5
43
102
{ACAD_REACTORS
330
C
102
}
330
C
100
AcDbDictionary
281
     1
  3
ByBlock
350
45
  3
ByLayer
350
44
  3
Global
350
46
  0
DICTIONARY
  5
6B
102
{ACAD_REACTORS
330
C
102
}
330
C
100
AcDbDictionary
281
     1
  3
Standard
350
6C
  0
DICTIONARY
  5
17
102
{ACAD_REACTORS
330
C
102
}
330
C
100
AcDbDictionary
281
     1
  3
Standard
350
18
  0
DICTIONARY
  5
19
102
{ACAD_REACTORS
330
C
102
}
330
C
100
AcDbDictionary
281
     1
  0
ACDBDICTIONARYWDFLT
  5
E
102
{ACAD_REACTORS
330
C
102
}
330
C
100
AcDbDictionary
281
     1
  3
Normal
350
F
100
AcDbDictionaryWithDefault
340
F
  0
DICTIONARY
  5
47
102
{ACAD_REACTORS
330
C
102
}
330
C
100
AcDbDictionary
281
     1
  3
A0
350
48
  3
A1
350
49
  3
A2
350
4A
  3
A3
350
4B
  3
A4
350
4C
  3
A5
350
4D
  3
A6
350
4E
  3
A7
350
4F
  3
A8
350
50
  3
A9
350
51
  3
B0
350
52
  3
B1
350
53
  3
B2
350
54
  3
B3
350
55
  3
B4
350
56
  3
B5
350
57
  3
B6
350
58
  3
B7
350
59
  3
B8
350
5A
  3
B9
350
5B
  3
C0
350
5C
  3
C1
350
5D
  3
C2
350
5E
  3
C3
350
5F
  3
C4
350
60
  3
C5
350
61
  3
C6
350
62
  3
C7
350
63
  3
C8
350
64
  3
C9
350
65
  3
D0
350
66
  3
D1
350
67
  3
D2
350
68
  0
DICTIONARY
  5
193
102
{ACAD_REACTORS
330
C
102
}
330
C
100
AcDbDictionary
281
     1
  0
DICTIONARY
  5
69
102
{ACAD_REACTORS
330
C
102
}
330
C
100
AcDbDictionary
281
     1
  3
Standard
350
6A
  0
DICTIONARY
  5
2A
102
{ACAD_REACTORS
330
C
102
}
330
C
100
AcDbDictionary
281
     1
  3
2dWireframe
350
2F
  3
Basic
350
32
  3
Brighten
350
36
  3
ColorChange
350
3A
  3
Conceptual
350
34
  3
Dim
350
35
  3
EdgeColorOff
350
3D
  3
Facepattern
350
39
  3
Flat
350
2B
  3
FlatWithEdges
350
2C
  3
Gouraud
350
2D
  3
GouraudWithEdges
350
2E
  3
Hidden
350
31
  3
JitterOff
350
3B
  3
Linepattern
350
38
  3
OverhangOff
350
3C
  3
Realistic
350
33
  3
Shaded
350
42
  3
Shaded with edges
350
41
  3
Shades of Gray
350
3E
  3
Sketchy
350
3F
  3
Thicken
350
37
  3
Wireframe
350
30
  3
X-Ray
350
40
  0
XRECORD
  5
18F
102
{ACAD_REACTORS
330
C
102
}
330
C
100
AcDbXrecord
280
     1
 90
        1
330
6A
  0
DICTIONARY
  5
18B
102
{ACAD_REACTORS
330
C
102
}
330
C
100
AcDbDictionary
281
     1
  3
CANNOSCALE
350
18C
  3
CMLEADERSTYLE
350
191
  3
CTABLESTYLE
350
190
  0
LAYOUT
  5
1E
102
{ACAD_REACTORS
330
1A
102
}
330
1A
100
AcDbPlotSettings
  1

  2
none_device
  4

  6

 40
0.0
 41
0.0
 42
0.0
 43
0.0
 44
0.0
 45
0.0
 46
0.0
 47
0.0
 48
0.0
 49
0.0
140
0.0
141
0.0
142
1.0
143
1.0
 70
   688
 72
     1
 73
     0
 74
     5
  7

 75
    16
 76
     0
 77
     2
 78
   300
147
1.0
148
0.0
149
0.0
100
AcDbLayout
  1
Layout1
 70
     1
 71
     1
 10
0.0
 20
0.0
 11
420.0
 21
297.0
 12
0.0
 22
0.0
 32
0.0
 14
1.0000000000E+20
 24
1.0000000000E+20
 34
1.0000000000E+20
 15
-1.0000000000E+20
 25
-1.0000000000E+20
 35
-1.0000000000E+20
146
0.0
 13
0.0
 23
0.0
 33
0.0
 16
1.0
 26
0.0
 36
0.0
 17
0.0
 27
1.0
 37
0.0
 76
     0
330
1B
  0
LAYOUT
  5
26
102
{ACAD_REACTORS
330
1A
102
}
330
1A
100
AcDbPlotSettings
  1

  2
none_device
  4

  6

 40
0.0
 41
0.0
 42
0.0
 43
0.0
 44
0.0
 45
0.0
 46
0.0
 47
0.0
 48
0.0
 49
0.0
140
0.0
141
0.0
142
1.0
143
1.0
 70
   688
 72
     1
 73
     0
 74
     5
  7

 75
    16
 76
     0
 77
     2
 78
   300
147
1.0
148
0.0
149
0.0
100
AcDbLayout
  1
Layout2
 70
     1
 71
     2
 10
0.0
 20
0.0
 11
0.0
 21
0.0
 12
0.0
 22
0.0
 32
0.0
 14
0.0
 24
0.0
 34
0.0
 15
0.0
 25
0.0
 35
0.0
146
0.0
 13
0.0
 23
0.0
 33
0.0
 16
1.0
 26
0.0
 36
0.0
 17
0.0
 27
1.0
 37
0.0
 76
     0
330
23
  0
LAYOUT
  5
22
102
{ACAD_REACTORS
330
1A
102
}
330
1A
100
AcDbPlotSettings
  1

  2
none_device
  4
Letter_(8.50_x_11.00_Inches)
  6

 40
6.35
 41
6.35
 42
6.35000508
 43
6.35000508
 44
215.9
 45
279.4
 46
0.0
 47
0.0
 48
0.0
 49
0.0
140
0.0
141
0.0
142
1.0
143
1.0
 70
  1712
 72
     1
 73
     0
 74
     0
  7

 75
     0
 76
     0
 77
     2
 78
   300
147
1.0
148
0.0
149
0.0
100
AcDbLayout
  1
Model
 70
     1
 71
     0
 10
0.0
 20
0.0
 11
1420.0
 21
1297.0
 12
0.0
 22
0.0
 32
0.0
 14
0.0
 24
0.0
 34
0.0
 15
1420.0
 25
1297.0
 35
0.0
146
0.0
 13
0.0
 23
0.0
 33
0.0
 16
1.0
 26
0.0
 36
0.0
 17
0.0
 27
1.0
 37
0.0
 76
     0
330
1F
331
29
  0
MATERIAL
  5
45
102
{ACAD_REACTORS
330
43
102
}
330
43
100
AcDbMaterial
  1
ByBlock
 72
     1
 94
      127
  0
MATERIAL
  5
44
102
{ACAD_REACTORS
330
43
102
}
330
43
100
AcDbMaterial
  1
ByLayer
 72
     1
 94
      127
  0
MATERIAL
  5
46
102
{ACAD_REACTORS
330
43
102
}
330
43
100
AcDbMaterial
  1
Global
 72
     1
 94
      127
  0
MLEADERSTYLE
  5
6C
102
{ACAD_REACTORS
330
6B
102
}
330
6B
100
AcDbMLeaderStyle
179
     2
170
     2
171
     1
172
     0
 90
        2
 40
0.0
 41
0.0
173
     1
 91
-1056964608
340
14
 92
       -2
290
     1
 42
2.0
291
     1
 43
8.0
  3
Standard
341
0
 44
4.0
300

342
11
174
     1
178
     6
175
     1
176
     0
 93
-1056964608
 45
4.0
292
     0
297
     0
 46
4.0
343
0
 94
-1056964608
 47
1.0
 49
1.0
140
1.0
293
     1
141
0.0
294
     1
177
     0
142
1.0
295
     0
296
     0
143
3.75
271
     0
272
     9
273
     9
298
     0
  0
MLINESTYLE
  5
18
102
{ACAD_REACTORS
330
17
102
}
330
17
100
AcDbMlineStyle
  2
Standard
 70
     0
  3

 62
   256
 51
90.0
 52
90.0
 71
     2
 49
0.5
 62
   256
  6
BYLAYER
 49
-0.5
 62
   256
  6
BYLAYER
  0
ACDBPLACEHOLDER
  5
F
102
{ACAD_REACTORS
330
E
102
}
330
E
  0
SCALE
  5
48
102
{ACAD_REACTORS
330
47
102
}
330
47
100
AcDbScale
 70
     0
300
1:1
140
1.0
141
1.0
290
     1
  0
SCALE
  5
49
102
{ACAD_REACTORS
330
47
102
}
330
47
100
AcDbScale
 70
     0
300
1:2
140
1.0
141
2.0
290
     0
  0
SCALE
  5
4A
102
{ACAD_REACTORS
330
47
102
}
330
47
100
AcDbScale
 70
     0
300
1:4
140
1.0
141
4.0
290
     0
  0
SCALE
  5
4B
102
{ACAD_REACTORS
330
47
102
}
330
47
100
AcDbScale
 70
     0
300
1:5
140
1.0
141
5.0
290
     0
  0
SCALE
  5
4C
102
{ACAD_REACTORS
330
47
102
}
330
47
100
AcDbScale
 70
     0
300
1:8
140
1.0
141
8.0
290
     0
  0
SCALE
  5
4D
102
{ACAD_REACTORS
330
47
102
}
330
47
100
AcDbScale
 70
     0
300
1:10
140
1.0
141
10.0
290
     0
  0
SCALE
  5
4E
102
{ACAD_REACTORS
330
47
102
}
330
47
100
AcDbScale
 70
     0
300
1:16
140
1.0
141
16.0
290
     0
  0
SCALE
  5
4F
102
{ACAD_REACTORS
330
47
102
}
330
47
100
AcDbScale
 70
     0
300
1:20
140
1.0
141
20.0
290
     0
  0
SCALE
  5
50
102
{ACAD_REACTORS
330
47
102
}
330
47
100
AcDbScale
 70
     0
300
1:30
140
1.0
141
30.0
290
     0
  0
SCALE
  5
51
102
{ACAD_REACTORS
330
47
102
}
330
47
100
AcDbScale
 70
     0
300
1:40
140
1.0
141
40.0
290
     0
  0
SCALE
  5
52
102
{ACAD_REACTORS
330
47
102
}
330
47
100
AcDbScale
 70
     0
300
1:50
140
1.0
141
50.0
290
     0
  0
SCALE
  5
53
102
{ACAD_REACTORS
330
47
102
}
330
47
100
AcDbScale
 70
     0
300
1:100
140
1.0
141
100.0
290
     0
  0
SCALE
  5
54
102
{ACAD_REACTORS
330
47
102
}
330
47
100
AcDbScale
 70
     0
300
2:1
140
2.0
141
1.0
290
     0
  0
SCALE
  5
55
102
{ACAD_REACTORS
330
47
102
}
330
47
100
AcDbScale
 70
     0
300
4:1
140
4.0
141
1.0
290
     0
  0
SCALE
  5
56
102
{ACAD_REACTORS
330
47
102
}
330
47
100
AcDbScale
 70
     0
300
8:1
140
8.0
141
1.0
290
     0
  0
SCALE
  5
57
102
{ACAD_REACTORS
330
47
102
}
330
47
100
AcDbScale
 70
     0
300
10:1
140
10.0
141
1.0
290
     0
  0
SCALE
  5
58
102
{ACAD_REACTORS
330
47
102
}
330
47
100
AcDbScale
 70
     0
300
100:1
140
100.0
141
1.0
290
     0
  0
SCALE
  5
59
102
{ACAD_REACTORS
330
47
102
}
330
47
100
AcDbScale
 70
     0
300
1/128" = 1'-0"
140
0.0078125
141
12.0
290
     0
  0
SCALE
  5
5A
102
{ACAD_REACTORS
330
47
102
}
330
47
100
AcDbScale
 70
     0
300
1/64" = 1'-0"
140
0.015625
141
12.0
290
     0
  0
SCALE
  5
5B
102
{ACAD_REACTORS
330
47
102
}
330
47
100
AcDbScale
 70
     0
300
1/32" = 1'-0"
140
0.03125
141
12.0
290
     0
  0
SCALE
  5
5C
102
{ACAD_REACTORS
330
47
102
}
330
47
100
AcDbScale
 70
     0
300
1/16" = 1'-0"
140
0.0625
141
12.0
290
     0
  0
SCALE
  5
5D
102
{ACAD_REACTORS
330
47
102
}
330
47
100
AcDbScale
 70
     0
300
3/32" = 1'-0"
140
0.09375
141
12.0
290
     0
  0
SCALE
  5
5E
102
{ACAD_REACTORS
330
47
102
}
330
47
100
AcDbScale
 70
     0
300
1/8" = 1'-0"
140
0.125
141
12.0
290
     0
  0
SCALE
  5
5F
102
{ACAD_REACTORS
330
47
102
}
330
47
100
AcDbScale
 70
     0
300
3/16" = 1'-0"
140
0.1875
141
12.0
290
     0
  0
SCALE
  5
60
102
{ACAD_REACTORS
330
47
102
}
330
47
100
AcDbScale
 70
     0
300
1/4" = 1'-0"
140
0.25
141
12.0
290
     0
  0
SCALE
  5
61
102
{ACAD_REACTORS
330
47
102
}
330
47
100
AcDbScale
 70
     0
300
3/8" = 1'-0"
140
0.375
141
12.0
290
     0
  0
SCALE
  5
62
102
{ACAD_REACTORS
330
47
102
}
330
47
100
AcDbScale
 70
     0
300
1/2" = 1'-0"
140
0.5
141
12.0
290
     0
  0
SCALE
  5
63
102
{ACAD_REACTORS
330
47
102
}
330
47
100
AcDbScale
 70
     0
300
3/4" = 1'-0"
140
0.75
141
12.0
290
     0
  0
SCALE
  5
64
102
{ACAD_REACTORS
330
47
102
}
330
47
100
AcDbScale
 70
     0
300
1" = 1'-0"
140
1.0
141
12.0
290
     0
  0
SCALE
  5
65
102
{ACAD_REACTORS
330
47
102
}
330
47
100
AcDbScale
 70
     0
300
1-1/2" = 1'-0"
140
1.5
141
12.0
290
     0
  0
SCALE
  5
66
102
{ACAD_REACTORS
330
47
102
}
330
47
100
AcDbScale
 70
     0
300
3" = 1'-0"
140
3.0
141
12.0
290
     0
  0
SCALE
  5
67
102
{ACAD_REACTORS
330
47
102
}
330
47
100
AcDbScale
 70
     0
300
6" = 1'-0"
140
6.0
141
12.0
290
     0
  0
SCALE
  5
68
102
{ACAD_REACTORS
330
47
102
}
330
47
100
AcDbScale
 70
     0
300
1'-0" = 1'-0"
140
12.0
141
12.0
290
     0
  0
TABLESTYLE
  5
6A
102
{ACAD_REACTORS
330
69
102
}
102
{ACAD_XDICTIONARY
360
18D
102
}
330
69
100
AcDbTableStyle
  3
Standard
 70
     0
 71
     0
 40
0.06
 41
0.06
280
     0
281
     0
  7
Standard
140
4.5
170
     2
 62
     0
 63
   257
283
     0
 90
        4
 91
        0
  1

274
    -2
284
     1
 64
     0
275
    -2
285
     1
 65
     0
276
    -2
286
     1
 66
     0
277
    -2
287
     1
 67
     0
278
    -2
288
     1
 68
     0
279
    -2
289
     1
 69
     0
  7
Standard
140
6.0
170
     5
 62
     0
 63
   257
283
     0
 90
        4
 91
        0
  1

274
    -2
284
     1
 64
     0
275
    -2
285
     1
 65
     0
276
    -2
286
     1
 66
     0
277
    -2
287
     1
 67
     0
278
    -2
288
     1
 68
     0
279
    -2
289
     1
 69
     0
  7
Standard
140
4.5
170
     5
 62
     0
 63
   257
283
     0
 90
        4
 91
        0
  1

274
    -2
284
     1
 64
     0
275
    -2
285
     1
 65
     0
276
    -2
286
     1
 66
     0
277
    -2
287
     1
 67
     0
278
    -2
288
     1
 68
     0
279
    -2
289
     1
 69
     0
  0
VISUALSTYLE
  5
2F
102
{ACAD_REACTORS
330
2A
102
}
330
2A
100
AcDbVisualStyle
  2
2dWireframe
 70
     4
177
     3
291
     0
 70
    58
 90
        0
176
     1
 90
        2
176
     1
 90
        0
176
     1
 90
        0
176
     1
 40
0.6
176
     1
 40
30.0
176
     1
 62
     7
420
 16777215
176
     1
 90
        1
176
     1
 90
        4
176
     1
 62
     7
176
     1
 62
   257
176
     1
 90
        1
176
     1
 90
        1
176
     1
 40
1.0
176
     1
 90
        0
176
     1
 62
   257
176
     1
 40
1.0
176
     1
 90
        1
176
     1
 90
        6
176
     1
 90
        2
176
     1
 62
     7
176
     1
 90
        5
176
     1
 90
        0
176
     1
 90
        0
176
     1
290
     0
176
     1
 90
        1
176
     1
 40
0.0
176
     1
 90
        0
176
     1
290
     1
176
     1
290
     1
176
     1
290
     0
176
     1
290
     0
176
     1
290
     0
176
     1
290
     0
176
     1
290
     0
176
     1
290
     0
176
     1
290
     0
176
     1
 90
       50
176
     1
 40
0.0
176
     1
 40
1.0
176
     1
 90
        0
176
     1
 62
    18
420
        0
176
     1
 90
       50
176
     1
 90
        3
176
     1
 62
     5
420
      255
176
     1
290
     0
176
     1
 90
       50
176
     1
 90
       50
176
     1
 90
       50
176
     1
290
     0
176
     1
 90
       50
176
     1
 62
   256
176
     0
 40
1.0
176
     0
 90
        2
176
     1
  1
strokes_ogs.tif
176
     1
290
     0
176
     1
 40
1.0
176
     1
 40
1.0
176
     1
  0
VISUALSTYLE
  5
32
102
{ACAD_REACTORS
330
2A
102
}
330
2A
100
AcDbVisualStyle
  2
Basic
 70
     7
177
     3
291
     1
 70
    58
 90
        1
176
     1
 90
        0
176
     1
 90
        1
176
     1
 90
        0
176
     1
 40
0.6
176
     1
 40
30.0
176
     1
 62
     7
420
 16777215
176
     1
 90
        0
176
     1
 90
        4
176
     1
 62
     7
176
     1
 62
   257
176
     1
 90
        1
176
     1
 90
        1
176
     1
 40
1.0
176
     1
 90
        8
176
     1
 62
     7
176
     1
 40
1.0
176
     1
 90
        1
176
     1
 90
        6
176
     1
 90
        2
176
     1
 62
     7
176
     1
 90
        5
176
     1
 90
        0
176
     1
 90
        0
176
     1
290
     0
176
     1
 90
        1
176
     1
 40
0.0
176
     1
 90
        0
176
     1
290
     0
176
     1
290
     1
176
     1
290
     1
176
     1
290
     0
176
     1
290
     0
176
     1
290
     0
176
     1
290
     0
176
     1
290
     0
176
     1
290
     0
176
     1
 90
       50
176
     1
 40
0.0
176
     1
 40
1.0
176
     1
 90
        0
176
     1
 62
    18
420
        0
176
     1
 90
       50
176
     1
 90
        3
176
     1
 62
     5
420
      255
176
     1
290
     0
176
     1
 90
       50
176
     1
 90
       50
176
     1
 90
       50
176
     1
290
     0
176
     1
 90
       50
176
     1
 62
   256
176
     0
 40
1.0
176
     0
 90
        2
176
     1
  1
strokes_ogs.tif
176
     1
290
     0
176
     1
 40
1.0
176
     1
 40
1.0
176
     1
  0
VISUALSTYLE
  5
36
102
{ACAD_REACTORS
330
2A
102
}
330
2A
100
AcDbVisualStyle
  2
Brighten
 70
    12
177
     3
291
     1
 70
    58
 90
        2
176
     1
 90
        2
176
     1
 90
        0
176
     1
 90
        0
176
     1
 40
0.6
176
     1
 40
30.0
176
     1
 62
     7
420
 16777215
176
     1
 90
        1
176
     1
 90
        4
176
     1
 62
     7
176
     1
 62
   257
176
     1
 90
        1
176
     1
 90
        1
176
     1
 40
1.0
176
     1
 90
        8
176
     1
 62
     7
176
     1
 40
1.0
176
     1
 90
        1
176
     1
 90
        6
176
     1
 90
        2
176
     1
 62
     7
176
     1
 90
        5
176
     1
 90
        0
176
     1
 90
        0
176
     1
290
     0
176
     1
 90
        1
176
     1
 40
50.0
176
     1
 90
        0
176
     1
290
     0
176
     1
290
     1
176
     1
290
     1
176
     1
290
     0
176
     1
290
     0
176
     1
290
     0
176
     1
290
     0
176
     1
290
     0
176
     1
290
     0
176
     1
 90
       50
176
     1
 40
0.0
176
     1
 40
1.0
176
     1
 90
        0
176
     1
 62
    18
420
        0
176
     1
 90
       50
176
     1
 90
        3
176
     1
 62
     5
420
      255
176
     1
290
     0
176
     1
 90
       50
176
     1
 90
       50
176
     1
 90
       50
176
     1
290
     0
176
     1
 90
       50
176
     1
 62
   256
176
     0
 40
1.0
176
     0
 90
        2
176
     1
  1
strokes_ogs.tif
176
     1
290
     0
176
     1
 40
1.0
176
     1
 40
1.0
176
     1
  0
VISUALSTYLE
  5
3A
102
{ACAD_REACTORS
330
2A
102
}
330
2A
100
AcDbVisualStyle
  2
ColorChange
 70
    16
177
     3
291
     1
 70
    58
 90
        2
176
     1
 90
        2
176
     1
 90
        3
176
     1
 90
        0
176
     1
 40
0.6
176
     1
 40
30.0
176
     1
 62
     8
420
  8421504
176
     1
 90
        1
176
     1
 90
        4
176
     1
 62
     7
176
     1
 62
   257
176
     1
 90
        1
176
     1
 90
        1
176
     1
 40
1.0
176
     1
 90
        8
176
     1
 62
     8
420
  8421504
176
     1
 40
1.0
176
     1
 90
        1
176
     1
 90
        6
176
     1
 90
        2
176
     1
 62
     7
176
     1
 90
        5
176
     1
 90
        0
176
     1
 90
        0
176
     1
290
     0
176
     1
 90
        1
176
     1
 40
0.0
176
     1
 90
        0
176
     1
290
     0
176
     1
290
     1
176
     1
290
     1
176
     1
290
     0
176
     1
290
     0
176
     1
290
     0
176
     1
290
     0
176
     1
290
     0
176
     1
290
     0
176
     1
 90
       50
176
     1
 40
0.0
176
     1
 40
1.0
176
     1
 90
        0
176
     1
 62
    18
420
        0
176
     1
 90
       50
176
     1
 90
        3
176
     1
 62
     5
420
      255
176
     1
290
     0
176
     1
 90
       50
176
     1
 90
       50
176
     1
 90
       50
176
     1
290
     0
176
     1
 90
       50
176
     1
 62
   256
176
     0
 40
1.0
176
     0
 90
        2
176
     1
  1
strokes_ogs.tif
176
     1
290
     0
176
     1
 40
1.0
176
     1
 40
1.0
176
     1
  0
VISUALSTYLE
  5
34
102
{ACAD_REACTORS
330
2A
102
}
330
2A
100
AcDbVisualStyle
  2
Conceptual
 70
     9
177
     3
291
     0
 70
    58
 90
        3
176
     1
 90
        2
176
     1
 90
        0
176
     1
 90
        0
176
     1
 40
0.6
176
     1
 40
30.0
176
     1
 62
     7
420
 16777215
176
     1
 90
        2
176
     1
 90
        2
176
     1
 62
     7
176
     1
 62
   257
176
     1
 90
        1
176
     1
 90
        1
176
     1
 40
179.0
176
     1
 90
        8
176
     1
 62
     7
176
     1
 40
1.0
176
     1
 90
        1
176
     1
 90
        6
176
     1
 90
        2
176
     1
 62
     7
176
     1
 90
        3
176
     1
 90
        0
176
     1
 90
        0
176
     1
290
     0
176
     1
 90
        1
176
     1
 40
0.0
176
     1
 90
        0
176
     1
290
     0
176
     1
290
     1
176
     1
290
     1
176
     1
290
     0
176
     1
290
     0
176
     1
290
     0
176
     1
290
     0
176
     1
290
     0
176
     1
290
     0
176
     1
 90
       50
176
     1
 40
0.0
176
     1
 40
1.0
176
     1
 90
        0
176
     1
 62
    18
420
        0
176
     1
 90
       50
176
     1
 90
        3
176
     1
 62
     5
420
      255
176
     1
290
     0
176
     1
 90
       50
176
     1
 90
       50
176
     1
 90
       50
176
     1
290
     0
176
     1
 90
       50
176
     1
 62
   256
176
     0
 40
1.0
176
     0
 90
        2
176
     1
  1
strokes_ogs.tif
176
     1
290
     0
176
     1
 40
1.0
176
     1
 40
1.0
176
     1
  0
VISUALSTYLE
  5
35
102
{ACAD_REACTORS
330
2A
102
}
330
2A
100
AcDbVisualStyle
  2
Dim
 70
    11
177
     3
291
     1
 70
    58
 90
        2
176
     1
 90
        2
176
     1
 90
        0
176
     1
 90
        0
176
     1
 40
0.6
176
     1
 40
30.0
176
     1
 62
     7
420
 16777215
176
     1
 90
        1
176
     1
 90
        4
176
     1
 62
     7
176
     1
 62
   257
176
     1
 90
        1
176
     1
 90
        1
176
     1
 40
1.0
176
     1
 90
        8
176
     1
 62
     7
176
     1
 40
1.0
176
     1
 90
        1
176
     1
 90
        6
176
     1
 90
        2
176
     1
 62
     7
176
     1
 90
        5
176
     1
 90
        0
176
     1
 90
        0
176
     1
290
     0
176
     1
 90
        1
176
     1
 40
-50.0
176
     1
 90
        0
176
     1
290
     0
176
     1
290
     1
176
     1
290
     1
176
     1
290
     0
176
     1
290
     0
176
     1
290
     0
176
     1
290
     0
176
     1
290
     0
176
     1
290
     0
176
     1
 90
       50
176
     1
 40
0.0
176
     1
 40
1.0
176
     1
 90
        0
176
     1
 62
    18
420
        0
176
     1
 90
       50
176
     1
 90
        3
176
     1
 62
     5
420
      255
176
     1
290
     0
176
     1
 90
       50
176
     1
 90
       50
176
     1
 90
       50
176
     1
290
     0
176
     1
 90
       50
176
     1
 62
   256
176
     0
 40
1.0
176
     0
 90
        2
176
     1
  1
strokes_ogs.tif
176
     1
290
     0
176
     1
 40
1.0
176
     1
 40
1.0
176
     1
  0
VISUALSTYLE
  5
3D
102
{ACAD_REACTORS
330
2A
102
}
330
2A
100
AcDbVisualStyle
  2
EdgeColorOff
 70
    22
177
     3
291
     1
 70
    58
 90
        2
176
     0
 90
        2
176
     0
 90
        0
176
     0
 90
        0
176
     0
 40
0.6
176
     0
 40
30.0
176
     0
 62
     7
420
 16777215
176
     0
 90
        1
176
     0
 90
        4
176
     0
 62
     7
176
     0
 62
   257
176
     0
 90
        1
176
     0
 90
        1
176
     0
 40
1.0
176
     0
 90
        8
176
     2
 62
     7
176
     0
 40
1.0
176
     0
 90
        1
176
     0
 90
        6
176
     0
 90
        2
176
     0
 62
     7
176
     0
 90
        5
176
     0
 90
        0
176
     0
 90
        0
176
     0
290
     0
176
     0
 90
        1
176
     0
 40
0.0
176
     0
 90
        0
176
     0
290
     0
176
     0
290
     1
176
     0
290
     1
176
     0
290
     0
176
     0
290
     0
176
     0
290
     0
176
     0
290
     0
176
     0
290
     0
176
     0
290
     0
176
     0
 90
       50
176
     0
 40
0.0
176
     0
 40
1.0
176
     0
 90
        0
176
     0
 62
    18
420
        0
176
     0
 90
       50
176
     0
 90
        3
176
     0
 62
     5
420
      255
176
     0
290
     0
176
     0
 90
       50
176
     0
 90
       50
176
     0
 90
       50
176
     0
290
     0
176
     0
 90
       50
176
     0
 62
   256
176
     0
 40
1.0
176
     0
 90
        2
176
     0
  1
strokes_ogs.tif
176
     0
290
     0
176
     0
 40
1.0
176
     0
 40
1.0
176
     0
  0
VISUALSTYLE
  5
39
102
{ACAD_REACTORS
330
2A
102
}
330
2A
100
AcDbVisualStyle
  2
Facepattern
 70
    15
177
     3
291
     1
 70
    58
 90
        2
176
     1
 90
        2
176
     1
 90
        0
176
     1
 90
        0
176
     1
 40
0.6
176
     1
 40
30.0
176
     1
 62
     7
420
 16777215
176
     1
 90
        1
176
     1
 90
        4
176
     1
 62
     7
176
     1
 62
   257
176
     1
 90
        1
176
     1
 90
        1
176
     1
 40
1.0
176
     1
 90
        8
176
     1
 62
     7
176
     1
 40
1.0
176
     1
 90
        1
176
     1
 90
        6
176
     1
 90
        2
176
     1
 62
     7
176
     1
 90
        5
176
     1
 90
        0
176
     1
 90
        0
176
     1
290
     0
176
     1
 90
        1
176
     1
 40
0.0
176
     1
 90
        0
176
     1
290
     0
176
     1
290
     1
176
     1
290
     1
176
     1
290
     0
176
     1
290
     0
176
     1
290
     0
176
     1
290
     0
176
     1
290
     0
176
     1
290
     0
176
     1
 90
       50
176
     1
 40
0.0
176
     1
 40
1.0
176
     1
 90
        0
176
     1
 62
    18
420
        0
176
     1
 90
       50
176
     1
 90
        3
176
     1
 62
     5
420
      255
176
     1
290
     0
176
     1
 90
       50
176
     1
 90
       50
176
     1
 90
       50
176
     1
290
     0
176
     1
 90
       50
176
     1
 62
   256
176
     0
 40
1.0
176
     0
 90
        2
176
     1
  1
strokes_ogs.tif
176
     1
290
     0
176
     1
 40
1.0
176
     1
 40
1.0
176
     1
  0
VISUALSTYLE
  5
2B
102
{ACAD_REACTORS
330
2A
102
}
330
2A
100
AcDbVisualStyle
  2
Flat
 70
     0
177
     3
291
     1
 70
    58
 90
        2
176
     1
 90
        1
176
     1
 90
        1
176
     1
 90
        2
176
     1
 40
0.6
176
     1
 40
30.0
176
     1
 62
     7
420
 16777215
176
     1
 90
        0
176
     1
 90
        0
176
     1
 62
     7
176
     1
 62
   257
176
     1
 90
        1
176
     1
 90
        1
176
     1
 40
1.0
176
     1
 90
        8
176
     1
 62
     7
176
     1
 40
1.0
176
     1
 90
        1
176
     1
 90
        6
176
     1
 90
        2
176
     1
 62
     7
176
     1
 90
        5
176
     1
 90
        0
176
     1
 90
        0
176
     1
290
     0
176
     1
 90
       13
176
     1
 40
0.0
176
     1
 90
        0
176
     1
290
     0
176
     1
290
     1
176
     1
290
     1
176
     1
290
     0
176
     1
290
     0
176
     1
290
     0
176
     1
290
     0
176
     1
290
     0
176
     1
290
     0
176
     1
 90
       50
176
     1
 40
0.0
176
     1
 40
1.0
176
     1
 90
        0
176
     1
 62
    18
420
        0
176
     1
 90
       50
176
     1
 90
        3
176
     1
 62
     5
420
      255
176
     1
290
     0
176
     1
 90
       50
176
     1
 90
       50
176
     1
 90
       50
176
     1
290
     0
176
     1
 90
       50
176
     1
 62
   256
176
     0
 40
1.0
176
     0
 90
        2
176
     1
  1
strokes_ogs.tif
176
     1
290
     0
176
     1
 40
1.0
176
     1
 40
1.0
176
     1
  0
VISUALSTYLE
  5
2C
102
{ACAD_REACTORS
330
2A
102
}
330
2A
100
AcDbVisualStyle
  2
FlatWithEdges
 70
     1
177
     3
291
     1
 70
    58
 90
        2
176
     1
 90
        1
176
     1
 90
        1
176
     1
 90
        2
176
     1
 40
0.6
176
     1
 40
30.0
176
     1
 62
     7
420
 16777215
176
     1
 90
        1
176
     1
 90
        0
176
     1
 62
     7
176
     1
 62
   257
176
     1
 90
        1
176
     1
 90
        1
176
     1
 40
1.0
176
     1
 90
        0
176
     1
 62
   257
176
     1
 40
1.0
176
     1
 90
        1
176
     1
 90
        6
176
     1
 90
        2
176
     1
 62
     7
176
     1
 90
        5
176
     1
 90
        0
176
     1
 90
        0
176
     1
290
     0
176
     1
 90
       13
176
     1
 40
0.0
176
     1
 90
        0
176
     1
290
     0
176
     1
290
     1
176
     1
290
     1
176
     1
290
     0
176
     1
290
     0
176
     1
290
     0
176
     1
290
     0
176
     1
290
     0
176
     1
290
     0
176
     1
 90
       50
176
     1
 40
0.0
176
     1
 40
1.0
176
     1
 90
        0
176
     1
 62
    18
420
        0
176
     1
 90
       50
176
     1
 90
        3
176
     1
 62
     5
420
      255
176
     1
290
     0
176
     1
 90
       50
176
     1
 90
       50
176
     1
 90
       50
176
     1
290
     0
176
     1
 90
       50
176
     1
 62
   256
176
     0
 40
1.0
176
     0
 90
        2
176
     1
  1
strokes_ogs.tif
176
     1
290
     0
176
     1
 40
1.0
176
     1
 40
1.0
176
     1
  0
VISUALSTYLE
  5
2D
102
{ACAD_REACTORS
330
2A
102
}
330
2A
100
AcDbVisualStyle
  2
Gouraud
 70
     2
177
     3
291
     1
 70
    58
 90
        2
176
     1
 90
        2
176
     1
 90
        1
176
     1
 90
        2
176
     1
 40
0.6
176
     1
 40
30.0
176
     1
 62
     7
420
 16777215
176
     1
 90
        0
176
     1
 90
        0
176
     1
 62
     7
176
     1
 62
   257
176
     1
 90
        1
176
     1
 90
        1
176
     1
 40
1.0
176
     1
 90
        0
176
     1
 62
     7
176
     1
 40
1.0
176
     1
 90
        1
176
     1
 90
        6
176
     1
 90
        2
176
     1
 62
     7
176
     1
 90
        5
176
     1
 90
        0
176
     1
 90
        0
176
     1
290
     0
176
     1
 90
       13
176
     1
 40
0.0
176
     1
 90
        0
176
     1
290
     0
176
     1
290
     1
176
     1
290
     1
176
     1
290
     0
176
     1
290
     0
176
     1
290
     0
176
     1
290
     0
176
     1
290
     0
176
     1
290
     0
176
     1
 90
       50
176
     1
 40
0.0
176
     1
 40
1.0
176
     1
 90
        0
176
     1
 62
    18
420
        0
176
     1
 90
       50
176
     1
 90
        3
176
     1
 62
     5
420
      255
176
     1
290
     0
176
     1
 90
       50
176
     1
 90
       50
176
     1
 90
       50
176
     1
290
     0
176
     1
 90
       50
176
     1
 62
   256
176
     0
 40
1.0
176
     0
 90
        2
176
     1
  1
strokes_ogs.tif
176
     1
290
     0
176
     1
 40
1.0
176
     1
 40
1.0
176
     1
  0
VISUALSTYLE
  5
2E
102
{ACAD_REACTORS
330
2A
102
}
330
2A
100
AcDbVisualStyle
  2
GouraudWithEdges
 70
     3
177
     3
291
     1
 70
    58
 90
        2
176
     1
 90
        2
176
     1
 90
        1
176
     1
 90
        2
176
     1
 40
0.6
176
     1
 40
30.0
176
     1
 62
     7
420
 16777215
176
     1
 90
        1
176
     1
 90
        0
176
     1
 62
     7
176
     1
 62
   257
176
     1
 90
        1
176
     1
 90
        1
176
     1
 40
1.0
176
     1
 90
        0
176
     1
 62
   257
176
     1
 40
1.0
176
     1
 90
        1
176
     1
 90
        6
176
     1
 90
        2
176
     1
 62
     7
176
     1
 90
        5
176
     1
 90
        0
176
     1
 90
        0
176
     1
290
     0
176
     1
 90
       13
176
     1
 40
0.0
176
     1
 90
        0
176
     1
290
     0
176
     1
290
     1
176
     1
290
     1
176
     1
290
     0
176
     1
290
     0
176
     1
290
     0
176
     1
290
     0
176
     1
290
     0
176
     1
290
     0
176
     1
 90
       50
176
     1
 40
0.0
176
     1
 40
1.0
176
     1
 90
        0
176
     1
 62
    18
420
        0
176
     1
 90
       50
176
     1
 90
        3
176
     1
 62
     5
420
      255
176
     1
290
     0
176
     1
 90
       50
176
     1
 90
       50
176
     1
 90
       50
176
     1
290
     0
176
     1
 90
       50
176
     1
 62
   256
176
     0
 40
1.0
176
     0
 90
        2
176
     1
  1
strokes_ogs.tif
176
     1
290
     0
176
     1
 40
1.0
176
     1
 40
1.0
176
     1
  0
VISUALSTYLE
  5
31
102
{ACAD_REACTORS
330
2A
102
}
330
2A
100
AcDbVisualStyle
  2
Hidden
 70
     6
177
     3
291
     0
 70
    58
 90
        1
176
     1
 90
        2
176
     1
 90
        2
176
     1
 90
        0
176
     1
 40
0.6
176
     1
 40
30.0
176
     1
 62
     7
420
 16777215
176
     1
 90
        2
176
     1
 90
        2
176
     1
 62
     7
176
     1
 62
   257
176
     1
 90
        2
176
     1
 90
        1
176
     1
 40
40.0
176
     1
 90
        0
176
     1
 62
   257
176
     1
 40
1.0
176
     1
 90
        1
176
     1
 90
        6
176
     1
 90
        2
176
     1
 62
     7
176
     1
 90
        3
176
     1
 90
        0
176
     1
 90
        0
176
     1
290
     0
176
     1
 90
        1
176
     1
 40
0.0
176
     1
 90
        0
176
     1
290
     0
176
     1
290
     1
176
     1
290
     1
176
     1
290
     0
176
     1
290
     0
176
     1
290
     0
176
     1
290
     0
176
     1
290
     0
176
     1
290
     0
176
     1
 90
       50
176
     1
 40
0.0
176
     1
 40
1.0
176
     1
 90
        0
176
     1
 62
    18
420
        0
176
     1
 90
       50
176
     1
 90
        3
176
     1
 62
     5
420
      255
176
     1
290
     0
176
     1
 90
       50
176
     1
 90
       50
176
     1
 90
       50
176
     1
290
     0
176
     1
 90
       50
176
     1
 62
   256
176
     0
 40
1.0
176
     0
 90
        2
176
     1
  1
strokes_ogs.tif
176
     1
290
     0
176
     1
 40
1.0
176
     1
 40
1.0
176
     1
  0
VISUALSTYLE
  5
3B
102
{ACAD_REACTORS
330
2A
102
}
330
2A
100
AcDbVisualStyle
  2
JitterOff
 70
    20
177
     3
291
     1
 70
    58
 90
        2
176
     0
 90
        2
176
     0
 90
        0
176
     0
 90
        0
176
     0
 40
0.6
176
     0
 40
30.0
176
     0
 62
     7
420
 16777215
176
     0
 90
        1
176
     0
 90
        4
176
     0
 62
     7
176
     0
 62
   257
176
     0
 90
        1
176
     0
 90
        1
176
     0
 40
1.0
176
     0
 90
       10
176
     2
 62
     7
176
     0
 40
1.0
176
     0
 90
        1
176
     0
 90
        6
176
     0
 90
        2
176
     0
 62
     7
176
     0
 90
        5
176
     0
 90
        0
176
     0
 90
        0
176
     0
290
     0
176
     0
 90
        1
176
     0
 40
0.0
176
     0
 90
        0
176
     0
290
     0
176
     0
290
     1
176
     0
290
     1
176
     0
290
     0
176
     0
290
     0
176
     0
290
     0
176
     0
290
     0
176
     0
290
     0
176
     0
290
     0
176
     0
 90
       50
176
     0
 40
0.0
176
     0
 40
1.0
176
     0
 90
        0
176
     0
 62
    18
420
        0
176
     0
 90
       50
176
     0
 90
        3
176
     0
 62
     5
420
      255
176
     0
290
     0
176
     0
 90
       50
176
     0
 90
       50
176
     0
 90
       50
176
     0
290
     0
176
     0
 90
       50
176
     0
 62
   256
176
     0
 40
1.0
176
     0
 90
        2
176
     0
  1
strokes_ogs.tif
176
     0
290
     0
176
     0
 40
1.0
176
     0
 40
1.0
176
     0
  0
VISUALSTYLE
  5
38
102
{ACAD_REACTORS
330
2A
102
}
330
2A
100
AcDbVisualStyle
  2
Linepattern
 70
    14
177
     3
291
     1
 70
    58
 90
        2
176
     1
 90
        2
176
     1
 90
        0
176
     1
 90
        0
176
     1
 40
0.6
176
     1
 40
30.0
176
     1
 62
     7
420
 16777215
176
     1
 90
        1
176
     1
 90
        4
176
     1
 62
     7
176
     1
 62
   257
176
     1
 90
        7
176
     1
 90
        7
176
     1
 40
1.0
176
     1
 90
        8
176
     1
 62
     7
176
     1
 40
1.0
176
     1
 90
        1
176
     1
 90
        6
176
     1
 90
        2
176
     1
 62
     7
176
     1
 90
        5
176
     1
 90
        0
176
     1
 90
        0
176
     1
290
     0
176
     1
 90
        1
176
     1
 40
0.0
176
     1
 90
        0
176
     1
290
     0
176
     1
290
     1
176
     1
290
     1
176
     1
290
     0
176
     1
290
     0
176
     1
290
     0
176
     1
290
     0
176
     1
290
     0
176
     1
290
     0
176
     1
 90
       50
176
     1
 40
0.0
176
     1
 40
1.0
176
     1
 90
        0
176
     1
 62
    18
420
        0
176
     1
 90
       50
176
     1
 90
        3
176
     1
 62
     5
420
      255
176
     1
290
     0
176
     1
 90
       50
176
     1
 90
       50
176
     1
 90
       50
176
     1
290
     0
176
     1
 90
       50
176
     1
 62
   256
176
     0
 40
1.0
176
     0
 90
        2
176
     1
  1
strokes_ogs.tif
176
     1
290
     0
176
     1
 40
1.0
176
     1
 40
1.0
176
     1
  0
VISUALSTYLE
  5
3C
102
{ACAD_REACTORS
330
2A
102
}
330
2A
100
AcDbVisualStyle
  2
OverhangOff
 70
    21
177
     3
291
     1
 70
    58
 90
        2
176
     0
 90
        2
176
     0
 90
        0
176
     0
 90
        0
176
     0
 40
0.6
176
     0
 40
30.0
176
     0
 62
     7
420
 16777215
176
     0
 90
        1
176
     0
 90
        4
176
     0
 62
     7
176
     0
 62
   257
176
     0
 90
        1
176
     0
 90
        1
176
     0
 40
1.0
176
     0
 90
        9
176
     2
 62
     7
176
     0
 40
1.0
176
     0
 90
        1
176
     0
 90
        6
176
     0
 90
        2
176
     0
 62
     7
176
     0
 90
        5
176
     0
 90
        0
176
     0
 90
        0
176
     0
290
     0
176
     0
 90
        1
176
     0
 40
0.0
176
     0
 90
        0
176
     0
290
     0
176
     0
290
     1
176
     0
290
     1
176
     0
290
     0
176
     0
290
     0
176
     0
290
     0
176
     0
290
     0
176
     0
290
     0
176
     0
290
     0
176
     0
 90
       50
176
     0
 40
0.0
176
     0
 40
1.0
176
     0
 90
        0
176
     0
 62
    18
420
        0
176
     0
 90
       50
176
     0
 90
        3
176
     0
 62
     5
420
      255
176
     0
290
     0
176
     0
 90
       50
176
     0
 90
       50
176
     0
 90
       50
176
     0
290
     0
176
     0
 90
       50
176
     0
 62
   256
176
     0
 40
1.0
176
     0
 90
        2
176
     0
  1
strokes_ogs.tif
176
     0
290
     0
176
     0
 40
1.0
176
     0
 40
1.0
176
     0
  0
VISUALSTYLE
  5
33
102
{ACAD_REACTORS
330
2A
102
}
330
2A
100
AcDbVisualStyle
  2
Realistic
 70
     8
177
     3
291
     0
 70
    58
 90
        2
176
     1
 90
        3
176
     1
 90
        0
176
     1
 90
        2
176
     1
 40
0.6
176
     1
 40
30.0
176
     1
 62
     7
420
 16777215
176
     1
 90
        0
176
     1
 90
        0
176
     1
 62
     7
176
     1
 62
   257
176
     1
 90
        1
176
     1
 90
        1
176
     1
 40
1.0
176
     1
 90
        8
176
     1
 62
   257
176
     1
 40
1.0
176
     1
 90
        1
176
     1
 90
        6
176
     1
 90
        2
176
     1
 62
     7
176
     1
 90
        3
176
     1
 90
        0
176
     1
 90
        0
176
     1
290
     0
176
     1
 90
       13
176
     1
 40
0.0
176
     1
 90
        0
176
     1
290
     0
176
     1
290
     1
176
     1
290
     1
176
     1
290
     0
176
     1
290
     0
176
     1
290
     0
176
     1
290
     0
176
     1
290
     0
176
     1
290
     0
176
     1
 90
       50
176
     1
 40
0.0
176
     1
 40
1.0
176
     1
 90
        0
176
     1
 62
    18
420
        0
176
     1
 90
       50
176
     1
 90
        3
176
     1
 62
     5
420
      255
176
     1
290
     0
176
     1
 90
       50
176
     1
 90
       50
176
     1
 90
       50
176
     1
290
     0
176
     1
 90
       50
176
     1
 62
   256
176
     0
 40
1.0
176
     0
 90
        2
176
     1
  1
strokes_ogs.tif
176
     1
290
     0
176
     1
 40
1.0
176
     1
 40
1.0
176
     1
  0
VISUALSTYLE
  5
42
102
{ACAD_REACTORS
330
2A
102
}
330
2A
100
AcDbVisualStyle
  2
Shaded
 70
    27
177
     3
291
     0
 70
    58
 90
        2
176
     1
 90
        2
176
     1
 90
        1
176
     1
 90
        2
176
     1
 40
0.6
176
     1
 40
30.0
176
     1
 62
     7
420
 16777215
176
     1
 90
        0
176
     1
 90
        4
176
     1
 62
     7
176
     1
 62
   257
176
     1
 90
        1
176
     1
 90
        1
176
     1
 40
1.0
176
     1
 90
        8
176
     1
 62
   257
176
     1
 40
1.0
176
     1
 90
        1
176
     1
 90
        6
176
     1
 90
        2
176
     1
 62
     8
420
  7895160
176
     1
 90
        3
176
     1
 90
        0
176
     1
 90
        0
176
     1
290
     0
176
     1
 90
        5
176
     1
 40
0.0
176
     1
 90
        0
176
     1
290
     0
176
     1
290
     1
176
     1
290
     1
176
     1
290
     0
176
     1
290
     0
176
     1
290
     0
176
     1
290
     0
176
     1
290
     0
176
     1
290
     0
176
     1
 90
       50
176
     1
 40
0.0
176
     1
 40
1.0
176
     1
 90
        0
176
     1
 62
    18
420
        0
176
     1
 90
       50
176
     1
 90
        3
176
     1
 62
     5
420
      255
176
     1
290
     0
176
     1
 90
       50
176
     1
 90
       50
176
     1
 90
       50
176
     1
290
     0
176
     1
 90
       50
176
     1
 62
   256
176
     0
 40
1.0
176
     0
 90
        2
176
     1
  1
strokes_ogs.tif
176
     1
290
     0
176
     1
 40
1.0
176
     1
 40
1.0
176
     1
  0
VISUALSTYLE
  5
41
102
{ACAD_REACTORS
330
2A
102
}
330
2A
100
AcDbVisualStyle
  2
Shaded with edges
 70
    26
177
     3
291
     0
 70
    58
 90
        2
176
     1
 90
        2
176
     1
 90
        1
176
     1
 90
        2
176
     1
 40
0.6
176
     1
 40
30.0
176
     1
 62
     7
420
 16777215
176
     1
 90
        1
176
     1
 90
       10
176
     1
 62
     7
176
     1
 62
   257
176
     1
 90
        2
176
     1
 90
        1
176
     1
 40
1.0
176
     1
 90
        8
176
     1
 62
   257
176
     1
 40
1.0
176
     1
 90
        1
176
     1
 90
        6
176
     1
 90
        2
176
     1
 62
     7
176
     1
 90
        3
176
     1
 90
        0
176
     1
 90
        0
176
     1
290
     0
176
     1
 90
        5
176
     1
 40
0.0
176
     1
 90
        0
176
     1
290
     0
176
     1
290
     1
176
     1
290
     1
176
     1
290
     0
176
     1
290
     0
176
     1
290
     0
176
     1
290
     0
176
     1
290
     0
176
     1
290
     0
176
     1
 90
       50
176
     1
 40
0.0
176
     1
 40
1.0
176
     1
 90
        0
176
     1
 62
    18
420
        0
176
     1
 90
       50
176
     1
 90
        3
176
     1
 62
     5
420
      255
176
     1
290
     0
176
     1
 90
       50
176
     1
 90
       50
176
     1
 90
       50
176
     1
290
     0
176
     1
 90
       50
176
     1
 62
   256
176
     0
 40
1.0
176
     0
 90
        2
176
     1
  1
strokes_ogs.tif
176
     1
290
     0
176
     1
 40
1.0
176
     1
 40
1.0
176
     1
  0
VISUALSTYLE
  5
3E
102
{ACAD_REACTORS
330
2A
102
}
330
2A
100
AcDbVisualStyle
  2
Shades of Gray
 70
    23
177
     3
291
     0
 70
    58
 90
        2
176
     1
 90
        2
176
     1
 90
        3
176
     1
 90
        0
176
     1
 40
0.6
176
     1
 40
30.0
176
     1
 62
     7
420
 16777215
176
     1
 90
        2
176
     1
 90
        2
176
     1
 62
     7
176
     1
 62
     7
176
     1
 90
        1
176
     1
 90
        1
176
     1
 40
40.0
176
     1
 90
        8
176
     1
 62
     7
176
     1
 40
1.0
176
     1
 90
        1
176
     1
 90
        6
176
     1
 90
        2
176
     1
 62
     7
176
     1
 90
        3
176
     1
 90
        0
176
     1
 90
        0
176
     1
290
     0
176
     1
 90
        1
176
     1
 40
0.0
176
     1
 90
        0
176
     1
290
     0
176
     1
290
     1
176
     1
290
     1
176
     1
290
     0
176
     1
290
     0
176
     1
290
     0
176
     1
290
     0
176
     1
290
     0
176
     1
290
     0
176
     1
 90
       50
176
     1
 40
0.0
176
     1
 40
1.0
176
     1
 90
        0
176
     1
 62
    18
420
        0
176
     1
 90
       50
176
     1
 90
        3
176
     1
 62
     5
420
      255
176
     1
290
     0
176
     1
 90
       50
176
     1
 90
       50
176
     1
 90
       50
176
     1
290
     0
176
     1
 90
       50
176
     1
 62
   256
176
     0
 40
1.0
176
     0
 90
        2
176
     1
  1
strokes_ogs.tif
176
     1
290
     0
176
     1
 40
1.0
176
     1
 40
1.0
176
     1
  0
VISUALSTYLE
  5
3F
102
{ACAD_REACTORS
330
2A
102
}
330
2A
100
AcDbVisualStyle
  2
Sketchy
 70
    24
177
     3
291
     0
 70
    58
 90
        1
176
     1
 90
        2
176
     1
 90
        2
176
     1
 90
        0
176
     1
 40
0.6
176
     1
 40
30.0
176
     1
 62
     7
420
 16777215
176
     1
 90
        2
176
     1
 90
        2
176
     1
 62
     7
176
     1
 62
     7
176
     1
 90
        1
176
     1
 90
        1
176
     1
 40
40.0
176
     1
 90
       11
176
     1
 62
     7
176
     1
 40
1.0
176
     1
 90
        1
176
     1
 90
        6
176
     1
 90
        2
176
     1
 62
     7
176
     1
 90
        6
176
     1
 90
        0
176
     1
 90
        0
176
     1
290
     0
176
     1
 90
        1
176
     1
 40
0.0
176
     1
 90
        0
176
     1
290
     0
176
     1
290
     1
176
     1
290
     1
176
     1
290
     0
176
     1
290
     0
176
     1
290
     0
176
     1
290
     0
176
     1
290
     0
176
     1
290
     0
176
     1
 90
       50
176
     1
 40
0.0
176
     1
 40
1.0
176
     1
 90
        0
176
     1
 62
    18
420
        0
176
     1
 90
       50
176
     1
 90
        3
176
     1
 62
     5
420
      255
176
     1
290
     0
176
     1
 90
       50
176
     1
 90
       50
176
     1
 90
       50
176
     1
290
     0
176
     1
 90
       50
176
     1
 62
   256
176
     0
 40
1.0
176
     0
 90
        2
176
     1
  1
strokes_ogs.tif
176
     1
290
     0
176
     1
 40
1.0
176
     1
 40
1.0
176
     1
  0
VISUALSTYLE
  5
37
102
{ACAD_REACTORS
330
2A
102
}
330
2A
100
AcDbVisualStyle
  2
Thicken
 70
    13
177
     3
291
     1
 70
    58
 90
        2
176
     1
 90
        2
176
     1
 90
        0
176
     1
 90
        0
176
     1
 40
0.6
176
     1
 40
30.0
176
     1
 62
     7
420
 16777215
176
     1
 90
        1
176
     1
 90
        4
176
     1
 62
     7
176
     1
 62
   257
176
     1
 90
        1
176
     1
 90
        1
176
     1
 40
1.0
176
     1
 90
       12
176
     1
 62
     7
176
     1
 40
1.0
176
     1
 90
        1
176
     1
 90
        6
176
     1
 90
        2
176
     1
 62
     7
176
     1
 90
        5
176
     1
 90
        0
176
     1
 90
        0
176
     1
290
     0
176
     1
 90
        1
176
     1
 40
0.0
176
     1
 90
        0
176
     1
290
     0
176
     1
290
     1
176
     1
290
     1
176
     1
290
     0
176
     1
290
     0
176
     1
290
     0
176
     1
290
     0
176
     1
290
     0
176
     1
290
     0
176
     1
 90
       50
176
     1
 40
0.0
176
     1
 40
1.0
176
     1
 90
        0
176
     1
 62
    18
420
        0
176
     1
 90
       50
176
     1
 90
        3
176
     1
 62
     5
420
      255
176
     1
290
     0
176
     1
 90
       50
176
     1
 90
       50
176
     1
 90
       50
176
     1
290
     0
176
     1
 90
       50
176
     1
 62
   256
176
     0
 40
1.0
176
     0
 90
        2
176
     1
  1
strokes_ogs.tif
176
     1
290
     0
176
     1
 40
1.0
176
     1
 40
1.0
176
     1
  0
VISUALSTYLE
  5
30
102
{ACAD_REACTORS
330
2A
102
}
330
2A
100
AcDbVisualStyle
  2
Wireframe
 70
     5
177
     3
291
     0
 70
    58
 90
        0
176
     1
 90
        2
176
     1
 90
        0
176
     1
 90
        0
176
     1
 40
0.6
176
     1
 40
30.0
176
     1
 62
     7
420
 16777215
176
     1
 90
        1
176
     1
 90
        4
176
     1
 62
     7
176
     1
 62
   257
176
     1
 90
        1
176
     1
 90
        1
176
     1
 40
1.0
176
     1
 90
        0
176
     1
 62
   257
176
     1
 40
1.0
176
     1
 90
        1
176
     1
 90
        6
176
     1
 90
        2
176
     1
 62
     7
176
     1
 90
        3
176
     1
 90
        0
176
     1
 90
        0
176
     1
290
     0
176
     1
 90
        1
176
     1
 40
0.0
176
     1
 90
        0
176
     1
290
     0
176
     1
290
     1
176
     1
290
     1
176
     1
290
     0
176
     1
290
     0
176
     1
290
     0
176
     1
290
     0
176
     1
290
     0
176
     1
290
     0
176
     1
 90
       50
176
     1
 40
0.0
176
     1
 40
1.0
176
     1
 90
        0
176
     1
 62
    18
420
        0
176
     1
 90
       50
176
     1
 90
        3
176
     1
 62
     5
420
      255
176
     1
290
     0
176
     1
 90
       50
176
     1
 90
       50
176
     1
 90
       50
176
     1
290
     0
176
     1
 90
       50
176
     1
 62
   256
176
     0
 40
1.0
176
     0
 90
        2
176
     1
  1
strokes_ogs.tif
176
     1
290
     0
176
     1
 40
1.0
176
     1
 40
1.0
176
     1
  0
VISUALSTYLE
  5
40
102
{ACAD_REACTORS
330
2A
102
}
330
2A
100
AcDbVisualStyle
  2
X-Ray
 70
    25
177
     3
291
     0
 70
    58
 90
        2
176
     1
 90
        2
176
     1
 90
        1
176
     1
 90
        1
176
     1
 40
0.5
176
     1
 40
30.0
176
     1
 62
     7
420
 16777215
176
     1
 90
        1
176
     1
 90
        0
176
     1
 62
     7
176
     1
 62
   257
176
     1
 90
        1
176
     1
 90
        1
176
     1
 40
1.0
176
     1
 90
        8
176
     1
 62
     7
176
     1
 40
1.0
176
     1
 90
        1
176
     1
 90
        6
176
     1
 90
        2
176
     1
 62
     7
176
     1
 90
        3
176
     1
 90
        0
176
     1
 90
        0
176
     1
290
     0
176
     1
 90
       13
176
     1
 40
0.0
176
     1
 90
        0
176
     1
290
     0
176
     1
290
     1
176
     1
290
     1
176
     1
290
     0
176
     1
290
     0
176
     1
290
     0
176
     1
290
     0
176
     1
290
     0
176
     1
290
     0
176
     1
 90
       50
176
     1
 40
0.0
176
     1
 40
1.0
176
     1
 90
        0
176
     1
 62
    18
420
        0
176
     1
 90
       50
176
     1
 90
        3
176
     1
 62
     5
420
      255
176
     1
290
     0
176
     1
 90
       50
176
     1
 90
       50
176
     1
 90
       50
176
     1
290
     0
176
     1
 90
       50
176
     1
 62
   256
176
     0
 40
1.0
176
     0
 90
        2
176
     1
  1
strokes_ogs.tif
176
     1
290
     0
176
     1
 40
1.0
176
     1
 40
1.0
176
     1
  0
DICTIONARYVAR
  5
18C
102
{ACAD_REACTORS
330
18B
102
}
330
18B
100
DictionaryVariables
280
     0
  1
1:1
  0
DICTIONARYVAR
  5
191
102
{ACAD_REACTORS
330
18B
102
}
330
18B
100
DictionaryVariables
280
     0
  1
Standard
  0
DICTIONARYVAR
  5
190
102
{ACAD_REACTORS
330
18B
102
}
330
18B
100
DictionaryVariables
280
     0
  1
Standard
  0
DICTIONARY
  5
18D
330
6A
100
AcDbDictionary
280
     1
281
     1
  3
ACAD_ROUNDTRIP_2008_TABLESTYLE_CELLSTYLEMAP
360
18E
  0
CELLSTYLEMAP
  5
18E
102
{ACAD_REACTORS
330
18D
102
}
330
18D
100
AcDbCellStyleMap
 90
        3
300
CELLSTYLE
  1
TABLEFORMAT_BEGIN
 90
        5
170
     1
 91
        0
 92
    32768
 62
   257
 93
        1
300
CONTENTFORMAT
  1
CONTENTFORMAT_BEGIN
 90
        0
 91
        0
 92
        4
 93
        0
300

 40
0.0
140
1.0
 94
        5
 62
     0
340
11
144
6.0
309
CONTENTFORMAT_END
171
     1
301
MARGIN
  1
CELLMARGIN_BEGIN
 40
1.5
 40
1.5
 40
1.5
 40
1.5
 40
1.5
 40
1.5
309
CELLMARGIN_END
 94
        6
 95
        1
302
GRIDFORMAT
  1
GRIDFORMAT_BEGIN
 90
        0
 91
        1
 62
     0
 92
       -2
340
14
 93
        0
 40
0.045
309
GRIDFORMAT_END
 95
        2
302
GRIDFORMAT
  1
GRIDFORMAT_BEGIN
 90
        0
 91
        1
 62
     0
 92
       -2
340
14
 93
        0
 40
0.045
309
GRIDFORMAT_END
 95
        4
302
GRIDFORMAT
  1
GRIDFORMAT_BEGIN
 90
        0
 91
        1
 62
     0
 92
       -2
340
14
 93
        0
 40
0.045
309
GRIDFORMAT_END
 95
        8
302
GRIDFORMAT
  1
GRIDFORMAT_BEGIN
 90
        0
 91
        1
 62
     0
 92
       -2
340
14
 93
        0
 40
0.045
309
GRIDFORMAT_END
 95
       16
302
GRIDFORMAT
  1
GRIDFORMAT_BEGIN
 90
        0
 91
        1
 62
     0
 92
       -2
340
14
 93
        0
 40
0.045
309
GRIDFORMAT_END
 95
       32
302
GRIDFORMAT
  1
GRIDFORMAT_BEGIN
 90
        0
 91
        1
 62
     0
 92
       -2
340
14
 93
        0
 40
0.045
309
GRIDFORMAT_END
309
TABLEFORMAT_END
  1
CELLSTYLE_BEGIN
 90
        1
 91
        1
300
_TITLE
309
CELLSTYLE_END
300
CELLSTYLE
  1
TABLEFORMAT_BEGIN
 90
        5
170
     1
 91
        0
 92
        0
 62
   257
 93
        1
300
CONTENTFORMAT
  1
CONTENTFORMAT_BEGIN
 90
        0
 91
        0
 92
        4
 93
        0
300

 40
0.0
140
1.0
 94
        5
 62
     0
340
11
144
4.5
309
CONTENTFORMAT_END
171
     1
301
MARGIN
  1
CELLMARGIN_BEGIN
 40
1.5
 40
1.5
 40
1.5
 40
1.5
 40
1.5
 40
1.5
309
CELLMARGIN_END
 94
        6
 95
        1
302
GRIDFORMAT
  1
GRIDFORMAT_BEGIN
 90
        0
 91
        1
 62
     0
 92
       -2
340
14
 93
        0
 40
0.045
309
GRIDFORMAT_END
 95
        2
302
GRIDFORMAT
  1
GRIDFORMAT_BEGIN
 90
        0
 91
        1
 62
     0
 92
       -2
340
14
 93
        0
 40
0.045
309
GRIDFORMAT_END
 95
        4
302
GRIDFORMAT
  1
GRIDFORMAT_BEGIN
 90
        0
 91
        1
 62
     0
 92
       -2
340
14
 93
        0
 40
0.045
309
GRIDFORMAT_END
 95
        8
302
GRIDFORMAT
  1
GRIDFORMAT_BEGIN
 90
        0
 91
        1
 62
     0
 92
       -2
340
14
 93
        0
 40
0.045
309
GRIDFORMAT_END
 95
       16
302
GRIDFORMAT
  1
GRIDFORMAT_BEGIN
 90
        0
 91
        1
 62
     0
 92
       -2
340
14
 93
        0
 40
0.045
309
GRIDFORMAT_END
 95
       32
302
GRIDFORMAT
  1
GRIDFORMAT_BEGIN
 90
        0
 91
        1
 62
     0
 92
       -2
340
14
 93
        0
 40
0.045
309
GRIDFORMAT_END
309
TABLEFORMAT_END
  1
CELLSTYLE_BEGIN
 90
        2
 91
        1
300
_HEADER
309
CELLSTYLE_END
300
CELLSTYLE
  1
TABLEFORMAT_BEGIN
 90
        5
170
     1
 91
        0
 92
        0
 62
   257
 93
        1
300
CONTENTFORMAT
  1
CONTENTFORMAT_BEGIN
 90
        0
 91
        0
 92
        4
 93
        0
300

 40
0.0
140
1.0
 94
        2
 62
     0
340
11
144
4.5
309
CONTENTFORMAT_END
171
     1
301
MARGIN
  1
CELLMARGIN_BEGIN
 40
1.5
 40
1.5
 40
1.5
 40
1.5
 40
1.5
 40
1.5
309
CELLMARGIN_END
 94
        6
 95
        1
302
GRIDFORMAT
  1
GRIDFORMAT_BEGIN
 90
        0
 91
        1
 62
     0
 92
       -2
340
14
 93
        0
 40
0.045
309
GRIDFORMAT_END
 95
        2
302
GRIDFORMAT
  1
GRIDFORMAT_BEGIN
 90
        0
 91
        1
 62
     0
 92
       -2
340
14
 93
        0
 40
0.045
309
GRIDFORMAT_END
 95
        4
302
GRIDFORMAT
  1
GRIDFORMAT_BEGIN
 90
        0
 91
        1
 62
     0
 92
       -2
340
14
 93
        0
 40
0.045
309
GRIDFORMAT_END
 95
        8
302
GRIDFORMAT
  1
GRIDFORMAT_BEGIN
 90
        0
 91
        1
 62
     0
 92
       -2
340
14
 93
        0
 40
0.045
309
GRIDFORMAT_END
 95
       16
302
GRIDFORMAT
  1
GRIDFORMAT_BEGIN
 90
        0
 91
        1
 62
     0
 92
       -2
340
14
 93
        0
 40
0.045
309
GRIDFORMAT_END
 95
       32
302
GRIDFORMAT
  1
GRIDFORMAT_BEGIN
 90
        0
 91
        1
 62
     0
 92
       -2
340
14
 93
        0
 40
0.045
309
GRIDFORMAT_END
309
TABLEFORMAT_END
  1
CELLSTYLE_BEGIN
 90
        3
 91
        2
300
_DATA
309
CELLSTYLE_END
  0
ENDSEC
  0
EOF
